  0
SECTION
  2
HEADER
  9
$ACADVER
  1
AC1024
  9
$DWGCODEPAGE
  3
ANSI_1252
  9
$EXTMAX
 10
210.0
 20
297.0
 30
0.0
  9
$EXTMIN
 10
0.0
 20
0.0
 30
0.0
  9
$LIMMIN
 10
0.0
 20
0.0
  9
$LIMMAX
 10
210.0
 20
297.0
  9
$VIEWCTR
 10
105.0
 20
148.5
  9
$VIEWSIZE
 40
297.0
  9
$CLAYER
  8
0
  9
$LTSCALE
 40
19.36
  9
$CELTYPE
  6
BYLAYER
  9
$DIMSCALE
 40
1.0
  9
$DIMASZ
 40
3.0
  9
$DIMEXO
 40
0.5
  9
$DIMDLI
 40
13.376
  9
$DIMEXE
 40
1.5
  9
$DIMCEN
 40
3.168
  9
$DIMLFAC
 40
1.0
  9
$DIMBLK
  1
_FILLED
  9
$DIMALT
 70
0
  9
$DIMALTF
 40
0.0393700787
  9
$DIMTXT
 40
3.0
  9
$DIMTOL
 70
1
  9
$DIMLIM
 70
0
  9
$DIMTFAC
 40
1.0
  9
$DIMTP
 40
0.01
  9
$DIMTM
 40
0.01
  9
$DIMGAP
 40
0.625
  9
$DIMDSEP
 70
44
  9
$AUNITS
 70
0
  9
$PDMODE
 70
3
  9
$PDSIZE
 40
3.0
  9
$HANDSEED
  5
8CD
  9
$TILEMODE
 70
1
  9
$MEASUREMENT
 70
1
  9
$INSUNITS
 70
4
  0
ENDSEC
  0
SECTION
  2
CLASSES
  0
CLASS
  1
ACDBDICTIONARYWDFLT
  2
AcDbDictionaryWithDefault
  3
AutoCAD 2000
 90
0
 91
1
280
0
281
0
  0
CLASS
  1
ACDBPLACEHOLDER
  2
AcDbPlaceHolder
  3
AutoCAD 2000
 90
0
 91
1
280
0
281
0
  0
CLASS
  1
LAYOUT
  2
AcDbLayout
  3
AutoCAD 2000
 90
0
 91
0
280
0
281
0
  0
ENDSEC
  0
SECTION
  2
TABLES
  0
TABLE
  2
VPORT
  5
8
100
AcDbSymbolTable
 70
2
  0
VPORT
  5
1F4
100
AcDbSymbolTableRecord
100
AcDbViewportTableRecord
  2
*ACTIVE
 70
0
 10
0.0
 20
0.0
 11
1.0
 21
1.0
 12
105.0
 22
148.5
 13
0.0
 23
0.0
 14
1.0
 24
1.0
 15
0.0
 25
0.0
 16
0.0
 26
0.0
 36
1.0
 17
0.0
 27
0.0
 37
0.0
 40
297.0
 41
0.7070707071
 42
50.0
 43
0.0
 44
0.0
 50
0.0
 51
0.0
 71
0
 72
100
 73
1
 74
1
 75
0
 76
0
 77
0
 78
0
  0
ENDTAB
  0
TABLE
  2
LTYPE
  5
5
100
AcDbSymbolTable
 70
6
  0
LTYPE
  5
14
100
AcDbSymbolTableRecord
100
AcDbLinetypeTableRecord
  2
BYBLOCK
 70
0
  3

 72
65
 73
0
 40
0.0
  0
LTYPE
  5
15
100
AcDbSymbolTableRecord
100
AcDbLinetypeTableRecord
  2
BYLAYER
 70
0
  3

 72
65
 73
0
 40
0.0
  0
LTYPE
  5
16
100
AcDbSymbolTableRecord
100
AcDbLinetypeTableRecord
  2
CONTINUOUS
 70
64
  3
Solid line
 72
65
 73
0
 40
0.0
  0
LTYPE
  5
1F5
100
AcDbSymbolTableRecord
100
AcDbLinetypeTableRecord
  2
CENTER
 70
64
  3
____ _ ____ _ ____ _ ____ _ ____ _ ____ _ ____
 72
65
 73
4
 40
0.6
 49
0.375
 74
0
 49
-0.075
 74
0
 49
0.075
 74
0
 49
-0.075
 74
0
  0
LTYPE
  5
1F6
100
AcDbSymbolTableRecord
100
AcDbLinetypeTableRecord
  2
HIDDEN
 70
64
  3
- - - - - - - - - - - - - - - - - - - -
 72
65
 73
2
 40
0.2
 49
0.1
 74
0
 49
-0.1
 74
0
  0
LTYPE
  5
1F7
100
AcDbSymbolTableRecord
100
AcDbLinetypeTableRecord
  2
PHANTOM
 70
64
  3
_____ _ _ _____ _ _ _____ _ _ _____
 72
65
 73
6
 40
0.8
 49
0.45
 74
0
 49
-0.05
 74
0
 49
0.1
 74
0
 49
-0.05
 74
0
 49
0.1
 74
0
 49
-0.05
 74
0
  0
LTYPE
  5
1F8
100
AcDbSymbolTableRecord
100
AcDbLinetypeTableRecord
  2
DOT
 70
64
  3
. . . . . . . . . . . . . . . . . . . .
 72
65
 73
2
 40
0.2
 49
0.1
 74
0
 49
-0.1
 74
0
  0
LTYPE
  5
1F9
100
AcDbSymbolTableRecord
100
AcDbLinetypeTableRecord
  2
DASHED
 70
64
  3
- - - - - - - - - - - - - - - - - - - -
 72
65
 73
2
 40
0.2
 49
0.1
 74
0
 49
-0.1
 74
0
  0
ENDTAB
  0
TABLE
  2
LAYER
  5
2
100
AcDbSymbolTable
 70
36
  0
LAYER
  5
10
100
AcDbSymbolTableRecord
100
AcDbLayerTableRecord
  2
0
 70
0
 62
7
  6
CONTINUOUS
370
-3
390
F
  0
LAYER
  5
1FA
100
AcDbSymbolTableRecord
100
AcDbLayerTableRecord
  2
DEFAULT_1
 70
0
 62
7
  6
CENTER
370
-3
390
F
  0
LAYER
  5
1FB
100
AcDbSymbolTableRecord
100
AcDbLayerTableRecord
  2
DEFAULT_2
 70
0
 62
7
  6
HIDDEN
370
-3
390
F
  0
LAYER
  5
1FC
100
AcDbSymbolTableRecord
100
AcDbLayerTableRecord
  2
DEFAULT_3
 70
0
 62
7
  6
PHANTOM
370
-3
390
F
  0
LAYER
  5
1FD
100
AcDbSymbolTableRecord
100
AcDbLayerTableRecord
  2
ASSI
 70
0
 62
7
  6
CONTINUOUS
370
-3
390
F
  0
LAYER
  5
1FE
100
AcDbSymbolTableRecord
100
AcDbLayerTableRecord
  2
COORDINATE
 70
0
 62
7
  6
CONTINUOUS
370
-3
390
F
  0
LAYER
  5
1FF
100
AcDbSymbolTableRecord
100
AcDbLayerTableRecord
  2
COPY_PUBLISH
 70
0
 62
7
  6
CONTINUOUS
370
-3
390
F
  0
LAYER
  5
200
100
AcDbSymbolTableRecord
100
AcDbLayerTableRecord
  2
COSMETICI
 70
0
 62
7
  6
CONTINUOUS
370
-3
390
F
  0
LAYER
  5
201
100
AcDbSymbolTableRecord
100
AcDbLayerTableRecord
  2
CURVE
 70
0
 62
7
  6
CONTINUOUS
370
-3
390
F
  0
LAYER
  5
202
100
AcDbSymbolTableRecord
100
AcDbLayerTableRecord
  2
DRAFT
 70
0
 62
7
  6
CONTINUOUS
370
-3
390
F
  0
LAYER
  5
203
100
AcDbSymbolTableRecord
100
AcDbLayerTableRecord
  2
IMPORT_IGES
 70
0
 62
7
  6
CONTINUOUS
370
-3
390
F
  0
LAYER
  5
204
100
AcDbSymbolTableRecord
100
AcDbLayerTableRecord
  2
INTFCLR_1
 70
0
 62
7
  6
CONTINUOUS
370
-3
390
F
  0
LAYER
  5
205
100
AcDbSymbolTableRecord
100
AcDbLayerTableRecord
  2
INTFCLR_2
 70
0
 62
7
  6
CONTINUOUS
370
-3
390
F
  0
LAYER
  5
206
100
AcDbSymbolTableRecord
100
AcDbLayerTableRecord
  2
INTF_2
 70
0
 62
7
  6
CONTINUOUS
370
-3
390
F
  0
LAYER
  5
207
100
AcDbSymbolTableRecord
100
AcDbLayerTableRecord
  2
INTF_5
 70
0
 62
7
  6
CONTINUOUS
370
-3
390
F
  0
LAYER
  5
208
100
AcDbSymbolTableRecord
100
AcDbLayerTableRecord
  2
INTF_9
 70
0
 62
7
  6
CONTINUOUS
370
-3
390
F
  0
LAYER
  5
209
100
AcDbSymbolTableRecord
100
AcDbLayerTableRecord
  2
NOTE
 70
0
 62
7
  6
CONTINUOUS
370
-3
390
F
  0
LAYER
  5
20A
100
AcDbSymbolTableRecord
100
AcDbLayerTableRecord
  2
PIANI
 70
0
 62
7
  6
CONTINUOUS
370
-3
390
F
  0
LAYER
  5
20B
100
AcDbSymbolTableRecord
100
AcDbLayerTableRecord
  2
PUNTI
 70
0
 62
7
  6
CONTINUOUS
370
-3
390
F
  0
LAYER
  5
20C
100
AcDbSymbolTableRecord
100
AcDbLayerTableRecord
  2
RACCORDO
 70
0
 62
7
  6
CONTINUOUS
370
-3
390
F
  0
LAYER
  5
20D
100
AcDbSymbolTableRecord
100
AcDbLayerTableRecord
  2
SIMBOLI
 70
0
 62
7
  6
CONTINUOUS
370
-3
390
F
  0
LAYER
  5
20E
100
AcDbSymbolTableRecord
100
AcDbLayerTableRecord
  2
SMUSSO
 70
0
 62
7
  6
CONTINUOUS
370
-3
390
F
  0
LAYER
  5
20F
100
AcDbSymbolTableRecord
100
AcDbLayerTableRecord
  2
SNAPLINE
 70
0
 62
7
  6
CONTINUOUS
370
-3
390
F
  0
LAYER
  5
210
100
AcDbSymbolTableRecord
100
AcDbLayerTableRecord
  2
SUPERFICI
 70
0
 62
7
  6
CONTINUOUS
370
-3
390
F
  0
LAYER
  5
211
100
AcDbSymbolTableRecord
100
AcDbLayerTableRecord
  2
TRASH
 70
0
 62
7
  6
CONTINUOUS
370
-3
390
F
  0
ENDTAB
  0
TABLE
  2
STYLE
  5
3
100
AcDbSymbolTable
 70
1
  0
STYLE
  5
11
100
AcDbSymbolTableRecord
100
AcDbTextStyleTableRecord
  2
STANDARD
 70
0
 40
0.0
 41
0.8
 50
0.0
 71
0
 42
0.2
  3
txt
  4

  0
STYLE
  5
212
100
AcDbSymbolTableRecord
100
AcDbTextStyleTableRecord
  2
TEXTSTYLE_1
 70
0
 40
0.0
 41
0.8
 50
0.0
 71
0
 42
0.2
  3
gdt
  4

  0
ENDTAB
  0
TABLE
  2
VIEW
  5
6
100
AcDbSymbolTable
 70
0
  0
ENDTAB
  0
TABLE
  2
UCS
  5
7
100
AcDbSymbolTable
 70
0
  0
ENDTAB
  0
TABLE
  2
APPID
  5
9
100
AcDbSymbolTable
 70
1
  0
APPID
  5
213
100
AcDbSymbolTableRecord
100
AcDbRegAppTableRecord
  2
ACAD
 70
0
  0
ENDTAB
  0
TABLE
  2
BLOCK_RECORD
  5
1
100
AcDbSymbolTable
 70
0
  0
BLOCK_RECORD
  5
214
100
AcDbSymbolTableRecord
100
AcDbBlockTableRecord
  2
*Model_Space
  0
BLOCK_RECORD
  5
215
100
AcDbSymbolTableRecord
100
AcDbBlockTableRecord
  2
*Paper_Space
  0
BLOCK_RECORD
  5
216
100
AcDbSymbolTableRecord
100
AcDbBlockTableRecord
  2
_FILLED
  0
ENDTAB
  0
TABLE
  2
DIMSTYLE
  5
A
100
AcDbSymbolTable
 70
1
100
AcDbDimStyleTable
 71
0
  0
DIMSTYLE
105
217
100
AcDbSymbolTableRecord
100
AcDbDimStyleTableRecord
  2
STANDARD
 70
0
  3

  4

 40
1.0
 41
3.0
 42
0.5
 43
0.38
 44
1.5
 45
0.0
 46
0.0
 47
0.01
 48
0.01
140
3.0
141
0.09
142
0.0
143
25.4
144
1.0
145
0.0
146
1.0
147
0.625
 71
1
 72
0
 73
0
 74
0
 75
0
 76
0
 77
1
 78
8
 79
2
170
0
171
1
172
0
173
0
174
0
175
0
176
0
177
0
178
0
270
2
179
2
271
2
272
2
273
2
274
2
275
0
280
0
281
0
282
0
283
1
284
8
285
0
286
0
287
3
288
0
340
11
278
44
341
216
342
216
343
216
344
216
  0
ENDTAB
  0
ENDSEC
  0
SECTION
  2
BLOCKS
  0
BLOCK
  5
20
100
AcDbEntity
  8
0
100
AcDbBlockBegin
  2
*Model_Space
 70
0
 10
0.0
 20
0.0
 30
0.0
  3
*Model_Space
  1

  0
ENDBLK
  5
21
100
AcDbEntity
  8
0
100
AcDbBlockEnd
  0
BLOCK
  5
1C
100
AcDbEntity
  8
0
100
AcDbBlockBegin
  2
*Paper_Space
 70
0
 10
0.0
 20
0.0
 30
0.0
  3
*Paper_Space
  1

  0
ENDBLK
  5
1D
100
AcDbEntity
  8
0
100
AcDbBlockEnd
  0
BLOCK
  5
218
100
AcDbEntity
  8
0
100
AcDbBlockBegin
  2
_FILLED
 70
64
 10
0.0
 20
0.0
  3
_FILLED
  1

  0
SOLID
  5
219
100
AcDbEntity
  8
0
  6
BYBLOCK
 62
0
100
AcDbTrace
 10
0.0
 20
0.0
 11
-1.0
 21
0.3166666667
 12
-1.0
 22
-0.3166666667
 13
-1.0
 23
-0.3166666667
  0
ENDBLK
  5
21A
100
AcDbEntity
  8
0
  6
BYBLOCK
 62
0
100
AcDbBlockEnd
  0
ENDSEC
  0
SECTION
  2
ENTITIES
  0
LWPOLYLINE
  5
21B
100
AcDbEntity
  8
ASSI
100
AcDbPolyline
 62
7
  6
CONTINUOUS
 90
16
 70
0
 10
-8.6367803102
 20
21.8317982733
 10
-8.6893230362
 20
21.7945442823
 10
-8.7690092496
 20
21.7299748776
 10
-8.8441161093
 20
21.6593017445
 10
-8.9146808901
 20
21.5830297316
 10
-8.9806150103
 20
21.5016608723
 10
-9.0415356971
 20
21.4159556724
 10
-9.0972687185
 20
21.3264322027
 10
-9.1475710678
 20
21.2335211801
 10
-9.1919758937
 20
21.1381173876
 10
-9.2302494228
 20
21.0406638291
 10
-9.2620757046
 20
20.9415672721
 10
-9.2870542088
 20
20.8415261854
 10
-9.3048106411
 20
20.7408736634
 10
-9.3149343454
 20
20.6398777283
 10
-9.3164485804
 20
20.6084235086
  0
LINE
  5
21C
100
AcDbEntity
  8
ASSI
100
AcDbLine
 62
7
  6
CONTINUOUS
 10
-6.8584262125
 20
23.0243394711
 11
-8.6369528175
 21
21.8316951247
  0
LWPOLYLINE
  5
21D
100
AcDbEntity
  8
ASSI
100
AcDbPolyline
 62
250
  6
CONTINUOUS
 90
19
 70
0
 10
-6.6088867136
 20
22.9990629506
 10
-8.4472996321
 20
21.766317208
 10
-8.5168779364
 20
21.7131648891
 10
-8.5852257055
 20
21.6543025912
 10
-8.6518365437
 20
21.5901029961
 10
-8.716265542
 20
21.5209984716
 10
-8.7781315502
 20
21.4474763538
 10
-8.8370045201
 20
21.3700153582
 10
-8.8924633785
 20
21.2891263162
 10
-8.9441722025
 20
21.2053837784
 10
-8.9917716074
 20
21.1193437325
 10
-9.0349240105
 20
21.0315704392
 10
-9.0733708192
 20
20.9426753363
 10
-9.1068452166
 20
20.8532584414
 10
-9.1351127683
 20
20.7639006027
 10
-9.1580119475
 20
20.6751909853
 10
-9.1753905316
 20
20.587718393
 10
-9.1871115826
 20
20.5020671311
 10
-9.193090107
 20
20.418809552
  0
LWPOLYLINE
  5
21E
100
AcDbEntity
  8
ASSI
100
AcDbPolyline
 62
250
  6
CONTINUOUS
 90
13
 70
0
 10
5.6970269022
 20
-22.2701179339
 10
5.7457488261
 20
-22.291453651
 10
5.798703954
 20
-22.308915289
 10
5.8550910855
 20
-22.3222386567
 10
5.9140570948
 20
-22.3312221743
 10
5.9747098381
 20
-22.3357299231
 10
6.0361316517
 20
-22.3356937017
 10
6.0973932361
 20
-22.3311140579
 10
6.1575677158
 20
-22.322060281
 10
6.2157446632
 20
-22.3086693527
 10
6.2710438729
 20
-22.291143875
 10
6.322628679
 20
-22.2697490048
 10
6.369718614
 20
-22.2448084422
  0
LWPOLYLINE
  5
21F
100
AcDbEntity
  8
ASSI
100
AcDbPolyline
 62
7
  6
CONTINUOUS
 90
12
 70
0
 10
5.9589041607
 20
-22.7852484997
 10
6.0155768607
 20
-22.8111250063
 10
6.0788484809
 20
-22.8336797371
 10
6.144521873
 20
-22.8507286889
 10
6.2122112097
 20
-22.8620757869
 10
6.2814464212
 20
-22.8675587067
 10
6.3522606487
 20
-22.8670819041
 10
6.4243237502
 20
-22.860504873
 10
6.4972554918
 20
-22.8477133094
 10
6.5711813137
 20
-22.8284726863
 10
6.6459754769
 20
-22.8025508223
 10
6.7279253715
 20
-22.7665711544
  0
LINE
  5
220
100
AcDbEntity
  8
ASSI
100
AcDbLine
 62
7
  6
CONTINUOUS
 10
5.9591518088
 20
-22.7853789072
 11
5.9589937076
 21
-22.7852986119
  0
LWPOLYLINE
  5
221
100
AcDbEntity
  8
ASSI
100
AcDbPolyline
 62
250
  6
CONTINUOUS
 90
11
 70
0
 10
5.9589937076
 20
-22.7852986119
 10
5.9380263808
 20
-22.7738199941
 10
5.8917980335
 20
-22.7419549164
 10
5.8498764576
 20
-22.7033022724
 10
5.8125758534
 20
-22.6581427763
 10
5.7801375272
 20
-22.606783062
 10
5.7527542221
 20
-22.5495573306
 10
5.7306248274
 20
-22.4868466474
 10
5.7138999879
 20
-22.4190649445
 10
5.702676823
 20
-22.3466613852
 10
5.6970268832
 20
-22.2701179356
  0
LWPOLYLINE
  5
222
100
AcDbEntity
  8
ASSI
100
AcDbPolyline
 62
7
  6
CONTINUOUS
 90
10
 70
0
 10
-8.9617209169
 20
-14.1701087768
 10
-7.4715979939
 20
-15.1361519095
 10
-5.871335863
 20
-16.1444557266
 10
-4.2447101747
 20
-17.1399022947
 10
-2.5920912239
 20
-18.1222598725
 10
-0.9138536778
 20
-19.0913028188
 10
0.7896138203
 20
-20.0468144296
 10
2.5179058366
 20
-20.9885852268
 10
4.2706072738
 20
-21.9164086628
 10
5.9591547801
 20
-22.7853804154
  0
LINE
  5
223
100
AcDbEntity
  8
ASSI
100
AcDbLine
 62
7
  6
CONTINUOUS
 10
-8.9617242526
 20
-14.170106584
 11
-8.9615133057
 21
-14.1702451619
  0
LWPOLYLINE
  5
224
100
AcDbEntity
  8
ASSI
100
AcDbPolyline
 62
250
  6
CONTINUOUS
 90
31
 70
0
 10
-9.1930900851
 20
-13.6727509936
 10
-8.7424299462
 20
-13.96880257
 10
-8.2897153962
 20
-14.2636280825
 10
-7.8349569385
 20
-14.5572235518
 10
-7.3782504398
 20
-14.8495306542
 10
-6.9195218704
 20
-15.1406002716
 10
-6.4585233301
 20
-15.4305903844
 10
-5.9951462361
 20
-15.7195671296
 10
-5.5295124362
 20
-16.0074524383
 10
-5.0617174232
 20
-16.2941867954
 10
-4.5918143345
 20
-16.5797382148
 10
-4.11976743
 20
-16.8641289781
 10
-3.6455395251
 20
-17.1473813173
 10
-3.1690222176
 20
-17.4295585819
 10
-2.6903387368
 20
-17.7105862858
 10
-2.2098028245
 20
-17.9902818966
 10
-1.7277032623
 20
-18.2684834873
 10
-1.243777971
 20
-18.5453487373
 10
-0.7575117084
 20
-18.8211729466
 10
-0.2699791034
 20
-19.0953501485
 10
0.2198741058
 20
-19.3684785417
 10
0.7158108252
 20
-19.6426272327
 10
1.2169975621
 20
-19.9172811228
 10
1.7243439674
 20
-20.1928884766
 10
2.2443565609
 20
-20.4728843899
 10
2.7776485229
 20
-20.7574373824
 10
3.3238611872
 20
-21.0461971206
 10
3.8881928058
 20
-21.3417255729
 10
4.4725380615
 20
-21.6447637325
 10
5.0754147405
 20
-21.9542775502
 10
5.6970268994
 20
-22.2701179199
  0
LWPOLYLINE
  5
225
100
AcDbEntity
  8
ASSI
100
AcDbPolyline
 62
250
  6
CONTINUOUS
 90
7
 70
0
 10
-9.1930750511
 20
-13.6727427267
 10
-9.2306041869
 20
-13.6442786164
 10
-9.2618720408
 20
-13.6131116892
 10
-9.2864055512
 20
-13.5797134796
 10
-9.303833543
 20
-13.5445892799
 10
-9.3138923424
 20
-13.5082704952
 10
-9.3164118666
 20
-13.4843606722
  0
LINE
  5
226
100
AcDbEntity
  8
ASSI
100
AcDbLine
 62
7
  6
CONTINUOUS
 10
-4.8606738283
 20
21.3817595959
 11
-4.649257495
 21
21.8675975997
  0
LINE
  5
227
100
AcDbEntity
  8
CURVE
100
AcDbLine
 62
250
  6
CONTINUOUS
 10
-3.9490139045
 20
11.2383824108
 11
-3.959683088
 21
11.2311833153
  0
LINE
  5
228
100
AcDbEntity
  8
CURVE
100
AcDbLine
 62
250
  6
CONTINUOUS
 10
-3.9375117281
 20
11.2441383752
 11
-3.9490139045
 21
11.2383824108
  0
LINE
  5
229
100
AcDbEntity
  8
CURVE
100
AcDbLine
 62
250
  6
CONTINUOUS
 10
-3.9251492924
 20
11.248455134
 11
-3.9375117281
 21
11.2441383752
  0
LINE
  5
22A
100
AcDbEntity
  8
CURVE
100
AcDbLine
 62
250
  6
CONTINUOUS
 10
-0.7296160073
 20
-12.5795449597
 11
-0.7189618302
 21
-12.5768056555
  0
LINE
  5
22B
100
AcDbEntity
  8
CURVE
100
AcDbLine
 62
250
  6
CONTINUOUS
 10
-2.1002036767
 20
-12.6949704872
 11
-2.090169034
 21
-12.6931621144
  0
LINE
  5
22C
100
AcDbEntity
  8
CURVE
100
AcDbLine
 62
250
  6
CONTINUOUS
 10
-0.7407674552
 20
-12.5811612827
 11
-0.7296160073
 21
-12.5795449597
  0
LINE
  5
22D
100
AcDbEntity
  8
CURVE
100
AcDbLine
 62
250
  6
CONTINUOUS
 10
-2.1107779084
 20
-12.6959088178
 11
-2.1002036767
 21
-12.6949704872
  0
LINE
  5
22E
100
AcDbEntity
  8
CURVE
100
AcDbLine
 62
250
  6
CONTINUOUS
 10
-2.3404159073
 20
-11.6731755043
 11
-2.3509835102
 21
-11.6741100076
  0
LINE
  5
22F
100
AcDbEntity
  8
CURVE
100
AcDbLine
 62
250
  6
CONTINUOUS
 10
-1.3378945758
 20
-11.5906865219
 11
-1.349117162
 21
-11.5912809132
  0
LINE
  5
230
100
AcDbEntity
  8
CURVE
100
AcDbLine
 62
250
  6
CONTINUOUS
 10
-0.7523359377
 20
-12.5817457143
 11
-0.7407674552
 21
-12.5811612827
  0
LINE
  5
231
100
AcDbEntity
  8
CURVE
100
AcDbLine
 62
250
  6
CONTINUOUS
 10
-2.1218070004
 20
-12.6958884235
 11
-2.1107779084
 21
-12.6959088178
  0
LINE
  5
232
100
AcDbEntity
  8
CURVE
100
AcDbLine
 62
250
  6
CONTINUOUS
 10
-2.329393324
 20
-11.6731996566
 11
-2.3404159073
 21
-11.6731755043
  0
LINE
  5
233
100
AcDbEntity
  8
CURVE
100
AcDbLine
 62
250
  6
CONTINUOUS
 10
-1.3261420175
 20
-11.591113966
 11
-1.3378945758
 21
-11.5906865219
  0
LINE
  5
234
100
AcDbEntity
  8
CURVE
100
AcDbLine
 62
250
  6
CONTINUOUS
 10
-0.7642933902
 20
-12.5812976907
 11
-0.7523359377
 21
-12.5817457143
  0
LINE
  5
235
100
AcDbEntity
  8
CURVE
100
AcDbLine
 62
250
  6
CONTINUOUS
 10
-2.1332442056
 20
-12.6949022085
 11
-2.1218070004
 21
-12.6958884235
  0
LINE
  5
236
100
AcDbEntity
  8
CURVE
100
AcDbLine
 62
250
  6
CONTINUOUS
 10
-2.3179622836
 20
-11.674189431
 11
-2.329393324
 21
-11.6731996566
  0
LINE
  5
237
100
AcDbEntity
  8
CURVE
100
AcDbLine
 62
250
  6
CONTINUOUS
 10
-1.3139186081
 20
-11.592573949
 11
-1.3261420175
 21
-11.591113966
  0
LINE
  5
238
100
AcDbEntity
  8
CURVE
100
AcDbLine
 62
250
  6
CONTINUOUS
 10
-0.7766107125
 20
-12.5798176908
 11
-0.7642933902
 21
-12.5812976907
  0
LINE
  5
239
100
AcDbEntity
  8
CURVE
100
AcDbLine
 62
250
  6
CONTINUOUS
 10
-2.1450380807
 20
-12.6929484551
 11
-2.1332442056
 21
-12.6949022085
  0
LINE
  5
23A
100
AcDbEntity
  8
CURVE
100
AcDbLine
 62
250
  6
CONTINUOUS
 10
-2.306174024
 20
-11.6761464269
 11
-2.3179622836
 21
-11.674189431
  0
LINE
  5
23B
100
AcDbEntity
  8
CURVE
100
AcDbLine
 62
250
  6
CONTINUOUS
 10
-1.301292759
 20
-11.5950691109
 11
-1.3139186081
 21
-11.592573949
  0
LINE
  5
23C
100
AcDbEntity
  8
CURVE
100
AcDbLine
 62
250
  6
CONTINUOUS
 10
-0.7892578489
 20
-12.5773073911
 11
-0.7766107125
 21
-12.5798176908
  0
LINE
  5
23D
100
AcDbEntity
  8
CURVE
100
AcDbLine
 62
250
  6
CONTINUOUS
 10
-3.557477266
 20
-10.9829057367
 11
-3.5457216363
 21
-10.9856194427
  0
LINE
  5
23E
100
AcDbEntity
  8
CURVE
100
AcDbLine
 62
250
  6
CONTINUOUS
 10
-2.1571332327
 20
-12.6900313446
 11
-2.1450380807
 21
-12.6929484551
  0
LINE
  5
23F
100
AcDbEntity
  8
CURVE
100
AcDbLine
 62
250
  6
CONTINUOUS
 10
-2.2940837583
 20
-11.6790663587
 11
-2.306174024
 21
-11.6761464269
  0
LINE
  5
240
100
AcDbEntity
  8
CURVE
100
AcDbLine
 62
250
  6
CONTINUOUS
 10
-0.7947324086
 20
-12.5759272835
 11
-0.7892578489
 21
-12.5773073911
  0
LINE
  5
241
100
AcDbEntity
  8
CURVE
100
AcDbLine
 62
250
  6
CONTINUOUS
 10
-1.2949526689
 20
-11.5966759886
 11
-1.301292759
 21
-11.5950691109
  0
LINE
  5
242
100
AcDbEntity
  8
CURVE
100
AcDbLine
 62
250
  6
CONTINUOUS
 10
-2.1653265145
 20
-12.6875591117
 11
-2.1571332327
 21
-12.6900313446
  0
LINE
  5
243
100
AcDbEntity
  8
CURVE
100
AcDbLine
 62
250
  6
CONTINUOUS
 10
-2.2858932504
 20
-11.6815401932
 11
-2.2940837583
 21
-11.6790663587
  0
LINE
  5
244
100
AcDbEntity
  8
CURVE
100
AcDbLine
 62
250
  6
CONTINUOUS
 10
-3.5684702445
 20
-10.9795256666
 11
-3.557477266
 21
-10.9829057367
  0
LINE
  5
245
100
AcDbEntity
  8
CURVE
100
AcDbLine
 62
250
  6
CONTINUOUS
 10
-0.8076783365
 20
-12.5719105356
 11
-0.7947324086
 21
-12.5759272835
  0
LINE
  5
246
100
AcDbEntity
  8
CURVE
100
AcDbLine
 62
250
  6
CONTINUOUS
 10
-1.2822718631
 20
-11.6006265453
 11
-1.2949526689
 21
-11.5966759886
  0
LINE
  5
247
100
AcDbEntity
  8
CURVE
100
AcDbLine
 62
250
  6
CONTINUOUS
 10
-2.2737395939
 20
-11.6859029608
 11
-2.2858932504
 21
-11.6815401932
  0
LINE
  5
248
100
AcDbEntity
  8
CURVE
100
AcDbLine
 62
250
  6
CONTINUOUS
 10
-0.8139063999
 20
-12.5696481879
 11
-0.8076783365
 21
-12.5719105356
  0
LINE
  5
249
100
AcDbEntity
  8
CURVE
100
AcDbLine
 62
250
  6
CONTINUOUS
 10
-2.1778549768
 20
-12.6829710973
 11
-2.1653265145
 21
-12.6875591117
  0
LINE
  5
24A
100
AcDbEntity
  8
CURVE
100
AcDbLine
 62
250
  6
CONTINUOUS
 10
-3.5798811677
 20
-10.9750256965
 11
-3.5684702445
 21
-10.9795256666
  0
LINE
  5
24B
100
AcDbEntity
  8
CURVE
100
AcDbLine
 62
250
  6
CONTINUOUS
 10
-0.8270779606
 20
-12.5641788751
 11
-0.8139063999
 21
-12.5696481879
  0
LINE
  5
24C
100
AcDbEntity
  8
CURVE
100
AcDbLine
 62
250
  6
CONTINUOUS
 10
-2.185559563
 20
-12.6797244841
 11
-2.1778549768
 21
-12.6829710973
  0
LINE
  5
24D
100
AcDbEntity
  8
CURVE
100
AcDbLine
 62
250
  6
CONTINUOUS
 10
-2.2613514889
 20
-11.6912171083
 11
-2.2737395939
 21
-11.6859029608
  0
LINE
  5
24E
100
AcDbEntity
  8
CURVE
100
AcDbLine
 62
250
  6
CONTINUOUS
 10
-2.1982766908
 20
-12.6736746466
 11
-2.185559563
 21
-12.6797244841
  0
LINE
  5
24F
100
AcDbEntity
  8
CURVE
100
AcDbLine
 62
250
  6
CONTINUOUS
 10
-0.8403152266
 20
-12.5577643836
 11
-0.8270779606
 21
-12.5641788751
  0
LINE
  5
250
100
AcDbEntity
  8
CURVE
100
AcDbLine
 62
250
  6
CONTINUOUS
 10
-2.2110192302
 20
-12.666761736
 11
-2.1982766908
 21
-12.6736746466
  0
LINE
  5
251
100
AcDbEntity
  8
CURVE
100
AcDbLine
 62
250
  6
CONTINUOUS
 10
-2.2237271842
 20
-12.6590230728
 11
-2.2110192302
 21
-12.666761736
  0
LINE
  5
252
100
AcDbEntity
  8
CURVE
100
AcDbLine
 62
250
  6
CONTINUOUS
 10
-2.236342894
 20
-12.6504993882
 11
-2.2237271842
 21
-12.6590230728
  0
LWPOLYLINE
  5
253
100
AcDbEntity
  8
ASSI
100
AcDbPolyline
 62
250
  6
CONTINUOUS
 90
9
 70
0
 10
-9.1930900869
 20
-13.672750987
 10
-9.1871115632
 20
-13.7494841632
 10
-9.1753905119
 20
-13.8221751987
 10
-9.158011927
 20
-13.8903343661
 10
-9.1351127471
 20
-13.9534895111
 10
-9.1068451956
 20
-14.0112257919
 10
-9.0733707987
 20
-14.0631837179
 10
-9.0349239901
 20
-14.1090050169
 10
-8.9924975811
 20
-14.1477060779
  0
LWPOLYLINE
  5
254
100
AcDbEntity
  8
ASSI
100
AcDbPolyline
 62
7
  6
CONTINUOUS
 90
10
 70
0
 10
-9.3164493661
 20
20.6087531057
 10
-9.377839156
 20
18.7813434591
 10
-9.4343020492
 20
16.8910071868
 10
-9.4834515357
 20
15.0050024069
 10
-9.5252860901
 20
13.123375961
 10
-9.5598050774
 20
11.2461686391
 10
-9.5870082575
 20
9.3734183078
 10
-9.6068955184
 20
7.5051632858
 10
-9.6194679293
 20
5.6414430766
 10
-9.6246707176
 20
3.8431311221
  0
LINE
  5
255
100
AcDbEntity
  8
CURVE
100
AcDbLine
 62
250
  6
CONTINUOUS
 10
-3.9696450253
 20
11.222454989
 11
-3.978813181
 21
11.2122405848
  0
LINE
  5
256
100
AcDbEntity
  8
CURVE
100
AcDbLine
 62
250
  6
CONTINUOUS
 10
-4.668044441
 20
9.7362152744
 11
-4.6768868312
 21
9.7265623881
  0
LINE
  5
257
100
AcDbEntity
  8
CURVE
100
AcDbLine
 62
250
  6
CONTINUOUS
 10
-3.959683088
 20
11.2311833153
 11
-3.9696450253
 21
11.222454989
  0
LINE
  5
258
100
AcDbEntity
  8
CURVE
100
AcDbLine
 62
250
  6
CONTINUOUS
 10
-4.6584297541
 20
9.7445242139
 11
-4.668044441
 21
9.7362152744
  0
LINE
  5
259
100
AcDbEntity
  8
CURVE
100
AcDbLine
 62
250
  6
CONTINUOUS
 10
-2.3497045125
 20
11.0774134958
 11
-2.3596387098
 21
11.069033433
  0
LINE
  5
25A
100
AcDbEntity
  8
CURVE
100
AcDbLine
 62
250
  6
CONTINUOUS
 10
-4.6481107824
 20
9.7514490412
 11
-4.6584297541
 21
9.7445242139
  0
LINE
  5
25B
100
AcDbEntity
  8
CURVE
100
AcDbLine
 62
250
  6
CONTINUOUS
 10
-2.3390405518
 20
11.0844244848
 11
-2.3497045125
 21
11.0774134958
  0
LINE
  5
25C
100
AcDbEntity
  8
CURVE
100
AcDbLine
 62
250
  6
CONTINUOUS
 10
-2.3278694515
 20
11.0900197586
 11
-2.3390405518
 21
11.0844244848
  0
LINE
  5
25D
100
AcDbEntity
  8
CURVE
100
AcDbLine
 62
250
  6
CONTINUOUS
 10
-4.6370865943
 20
9.7569583635
 11
-4.6481107824
 21
9.7514490412
  0
LINE
  5
25E
100
AcDbEntity
  8
CURVE
100
AcDbLine
 62
250
  6
CONTINUOUS
 10
-3.0773883394
 20
9.6041418201
 11
-3.0656191578
 21
9.6098937092
  0
LINE
  5
25F
100
AcDbEntity
  8
CURVE
100
AcDbLine
 62
250
  6
CONTINUOUS
 10
-2.3158459414
 20
11.0943109697
 11
-2.3278694515
 21
11.0900197586
  0
LINE
  5
260
100
AcDbEntity
  8
CURVE
100
AcDbLine
 62
250
  6
CONTINUOUS
 10
-4.6253265378
 20
9.7611043187
 11
-4.6370865943
 21
9.7569583635
  0
LINE
  5
261
100
AcDbEntity
  8
CURVE
100
AcDbLine
 62
250
  6
CONTINUOUS
 10
-3.0900028479
 20
9.5998367841
 11
-3.0773883394
 21
9.6041418201
  0
LINE
  5
262
100
AcDbEntity
  8
CURVE
100
AcDbLine
 62
250
  6
CONTINUOUS
 10
-2.3610408639
 20
-11.6758998942
 11
-2.3707487637
 21
-11.6786579436
  0
LINE
  5
263
100
AcDbEntity
  8
CURVE
100
AcDbLine
 62
250
  6
CONTINUOUS
 10
-1.9960146718
 20
-11.1972541909
 11
-1.9788031254
 21
-11.1927934819
  0
LINE
  5
264
100
AcDbEntity
  8
CURVE
100
AcDbLine
 62
250
  6
CONTINUOUS
 10
-1.3597602392
 20
-11.5928799971
 11
-1.3702957107
 21
-11.5954714798
  0
LINE
  5
265
100
AcDbEntity
  8
CURVE
100
AcDbLine
 62
250
  6
CONTINUOUS
 10
-2.3509835102
 20
-11.6741100076
 11
-2.3610408639
 21
-11.6758998942
  0
LINE
  5
266
100
AcDbEntity
  8
CURVE
100
AcDbLine
 62
250
  6
CONTINUOUS
 10
-1.3804414616
 20
-10.2614196412
 11
-1.3990635405
 21
-10.2647157302
  0
LINE
  5
267
100
AcDbEntity
  8
CURVE
100
AcDbLine
 62
250
  6
CONTINUOUS
 10
-2.0137067803
 20
-11.2003786051
 11
-1.9960146718
 21
-11.1972541909
  0
LINE
  5
268
100
AcDbEntity
  8
CURVE
100
AcDbLine
 62
250
  6
CONTINUOUS
 10
-1.349117162
 20
-11.5912809132
 11
-1.3597602392
 21
-11.5928799971
  0
LINE
  5
269
100
AcDbEntity
  8
CURVE
100
AcDbLine
 62
250
  6
CONTINUOUS
 10
-2.0319829053
 20
-11.2021858916
 11
-2.0137067803
 21
-11.2003786051
  0
LINE
  5
26A
100
AcDbEntity
  8
CURVE
100
AcDbLine
 62
250
  6
CONTINUOUS
 10
-1.1558798724
 20
-10.8017980044
 11
-0.7697588363
 21
-10.7659522251
  0
LINE
  5
26B
100
AcDbEntity
  8
CURVE
100
AcDbLine
 62
250
  6
CONTINUOUS
 10
-1.0136233733
 20
-10.2292630759
 11
-1.3804414616
 21
-10.2614196412
  0
LINE
  5
26C
100
AcDbEntity
  8
CURVE
100
AcDbLine
 62
250
  6
CONTINUOUS
 10
-3.5034479232
 20
-10.9903705446
 11
-3.128418033
 21
-10.9610692949
  0
LINE
  5
26D
100
AcDbEntity
  8
CURVE
100
AcDbLine
 62
250
  6
CONTINUOUS
 10
-3.3680328547
 20
-10.4219264134
 11
-3.7423629408
 21
-10.450964246
  0
LINE
  5
26E
100
AcDbEntity
  8
CURVE
100
AcDbLine
 62
250
  6
CONTINUOUS
 10
-2.4903789322
 20
-10.0285170286
 11
-2.5092609174
 21
-10.0292895109
  0
LINE
  5
26F
100
AcDbEntity
  8
CURVE
100
AcDbLine
 62
250
  6
CONTINUOUS
 10
-2.0509184
 20
-11.2026800757
 11
-2.0319829053
 21
-11.2021858916
  0
LINE
  5
270
100
AcDbEntity
  8
CURVE
100
AcDbLine
 62
250
  6
CONTINUOUS
 10
-2.4698133892
 20
-10.0291012233
 11
-2.4903789322
 21
-10.0285170286
  0
LINE
  5
271
100
AcDbEntity
  8
CURVE
100
AcDbLine
 62
250
  6
CONTINUOUS
 10
-2.0704485112
 20
-11.2018493759
 11
-2.0509184
 21
-11.2026800757
  0
LINE
  5
272
100
AcDbEntity
  8
CURVE
100
AcDbLine
 62
250
  6
CONTINUOUS
 10
-3.2020706415
 20
-9.6349849517
 11
-3.1904853189
 21
-9.6355271638
  0
LINE
  5
273
100
AcDbEntity
  8
CURVE
100
AcDbLine
 62
250
  6
CONTINUOUS
 10
-1.1692338326
 20
-10.8010190868
 11
-1.1558798724
 21
-10.8017980044
  0
LINE
  5
274
100
AcDbEntity
  8
CURVE
100
AcDbLine
 62
250
  6
CONTINUOUS
 10
-0.998758537
 20
-10.2301500391
 11
-1.0136233733
 21
-10.2292630759
  0
LINE
  5
275
100
AcDbEntity
  8
CURVE
100
AcDbLine
 62
250
  6
CONTINUOUS
 10
-3.35427154
 20
-10.42287622
 11
-3.3680328547
 21
-10.4219264134
  0
LINE
  5
276
100
AcDbEntity
  8
CURVE
100
AcDbLine
 62
250
  6
CONTINUOUS
 10
-3.5172248476
 20
-10.9893463913
 11
-3.5034479232
 21
-10.9903705446
  0
LINE
  5
277
100
AcDbEntity
  8
CURVE
100
AcDbLine
 62
250
  6
CONTINUOUS
 10
-0.9828193982
 20
-10.2315593867
 11
-0.998758537
 21
-10.2301500391
  0
LINE
  5
278
100
AcDbEntity
  8
CURVE
100
AcDbLine
 62
250
  6
CONTINUOUS
 10
-1.1852607362
 20
-10.7995864383
 11
-1.1692338326
 21
-10.8010190868
  0
LINE
  5
279
100
AcDbEntity
  8
CURVE
100
AcDbLine
 62
250
  6
CONTINUOUS
 10
-2.4486872073
 20
-10.031251769
 11
-2.4698133892
 21
-10.0291012233
  0
LINE
  5
27A
100
AcDbEntity
  8
CURVE
100
AcDbLine
 62
250
  6
CONTINUOUS
 10
-3.3389217011
 20
-10.4244508965
 11
-3.35427154
 21
-10.42287622
  0
LINE
  5
27B
100
AcDbEntity
  8
CURVE
100
AcDbLine
 62
250
  6
CONTINUOUS
 10
-3.5326908219
 20
-10.9877258382
 11
-3.5172248476
 21
-10.9893463913
  0
LINE
  5
27C
100
AcDbEntity
  8
CURVE
100
AcDbLine
 62
250
  6
CONTINUOUS
 10
-2.0905022965
 20
-11.1996887226
 11
-2.0704485112
 21
-11.2018493759
  0
LINE
  5
27D
100
AcDbEntity
  8
CURVE
100
AcDbLine
 62
250
  6
CONTINUOUS
 10
-3.214054886
 20
-9.6334022888
 11
-3.2020706415
 21
-9.6349849517
  0
LINE
  5
27E
100
AcDbEntity
  8
CURVE
100
AcDbLine
 62
250
  6
CONTINUOUS
 10
-2.2243083016
 20
-9.5545135495
 11
-2.2125631503
 21
-9.5560737538
  0
LINE
  5
27F
100
AcDbEntity
  8
CURVE
100
AcDbLine
 62
250
  6
CONTINUOUS
 10
-0.9694484497
 20
-10.2334758284
 11
-0.9828193982
 21
-10.2315593867
  0
LINE
  5
280
100
AcDbEntity
  8
CURVE
100
AcDbLine
 62
250
  6
CONTINUOUS
 10
-1.1989052782
 20
-10.7976126345
 11
-1.1852607362
 21
-10.7995864383
  0
LINE
  5
281
100
AcDbEntity
  8
CURVE
100
AcDbLine
 62
250
  6
CONTINUOUS
 10
-3.3257985044
 20
-10.4265524029
 11
-3.3389217011
 21
-10.4244508965
  0
LINE
  5
282
100
AcDbEntity
  8
CURVE
100
AcDbLine
 62
250
  6
CONTINUOUS
 10
-3.5457216363
 20
-10.9856194427
 11
-3.5326908219
 21
-10.9877258382
  0
LINE
  5
283
100
AcDbEntity
  8
CURVE
100
AcDbLine
 62
250
  6
CONTINUOUS
 10
-2.4283478138
 20
-10.0345993451
 11
-2.4486872073
 21
-10.031251769
  0
LINE
  5
284
100
AcDbEntity
  8
CURVE
100
AcDbLine
 62
250
  6
CONTINUOUS
 10
-2.112076251
 20
-11.1960177248
 11
-2.0905022965
 21
-11.1996887226
  0
LINE
  5
285
100
AcDbEntity
  8
CURVE
100
AcDbLine
 62
250
  6
CONTINUOUS
 10
-3.2199575799
 20
-9.6322672837
 11
-3.214054886
 21
-9.6334022888
  0
LINE
  5
286
100
AcDbEntity
  8
CURVE
100
AcDbLine
 62
250
  6
CONTINUOUS
 10
-2.2362615186
 20
-9.5520033325
 11
-2.2243083016
 21
-9.5545135495
  0
LINE
  5
287
100
AcDbEntity
  8
CURVE
100
AcDbLine
 62
250
  6
CONTINUOUS
 10
-0.9574457653
 20
-10.2360052458
 11
-0.9694484497
 21
-10.2334758284
  0
LINE
  5
288
100
AcDbEntity
  8
CURVE
100
AcDbLine
 62
250
  6
CONTINUOUS
 10
-1.2112385705
 20
-10.7950096048
 11
-1.1989052782
 21
-10.7976126345
  0
LINE
  5
289
100
AcDbEntity
  8
CURVE
100
AcDbLine
 62
250
  6
CONTINUOUS
 10
-2.4080043397
 20
-10.0391302135
 11
-2.4283478138
 21
-10.0345993451
  0
LINE
  5
28A
100
AcDbEntity
  8
CURVE
100
AcDbLine
 62
250
  6
CONTINUOUS
 10
-3.313912743
 20
-10.4292727741
 11
-3.3257985044
 21
-10.4265524029
  0
LINE
  5
28B
100
AcDbEntity
  8
CURVE
100
AcDbLine
 62
250
  6
CONTINUOUS
 10
-2.134060348
 20
-11.1908191345
 11
-2.112076251
 21
-11.1960177248
  0
LINE
  5
28C
100
AcDbEntity
  8
CURVE
100
AcDbLine
 62
250
  6
CONTINUOUS
 10
-3.2323702267
 20
-9.629158086
 11
-3.2199575799
 21
-9.6322672837
  0
LINE
  5
28D
100
AcDbEntity
  8
CURVE
100
AcDbLine
 62
250
  6
CONTINUOUS
 10
-2.3872256427
 20
-10.0449876158
 11
-2.4080043397
 21
-10.0391302135
  0
LINE
  5
28E
100
AcDbEntity
  8
CURVE
100
AcDbLine
 62
250
  6
CONTINUOUS
 10
-1.2227455796
 20
-10.7917361924
 11
-1.2112385705
 21
-10.7950096048
  0
LINE
  5
28F
100
AcDbEntity
  8
CURVE
100
AcDbLine
 62
250
  6
CONTINUOUS
 10
-2.2483443725
 20
-9.5485676673
 11
-2.2362615186
 21
-9.5520033325
  0
LINE
  5
290
100
AcDbEntity
  8
CURVE
100
AcDbLine
 62
250
  6
CONTINUOUS
 10
-0.9462892244
 20
-10.2391950837
 11
-0.9574457653
 21
-10.2360052458
  0
LINE
  5
291
100
AcDbEntity
  8
CURVE
100
AcDbLine
 62
250
  6
CONTINUOUS
 10
-2.1551953489
 20
-11.1845921635
 11
-2.134060348
 21
-11.1908191345
  0
LINE
  5
292
100
AcDbEntity
  8
CURVE
100
AcDbLine
 62
250
  6
CONTINUOUS
 10
-3.3028099682
 20
-10.4326554875
 11
-3.313912743
 21
-10.4292727741
  0
LINE
  5
293
100
AcDbEntity
  8
CURVE
100
AcDbLine
 62
250
  6
CONTINUOUS
 10
-3.2450765568
 20
-9.6249369665
 11
-3.2323702267
 21
-9.629158086
  0
LINE
  5
294
100
AcDbEntity
  8
CURVE
100
AcDbLine
 62
250
  6
CONTINUOUS
 10
-2.3660808678
 20
-10.0521594239
 11
-2.3872256427
 21
-10.0449876158
  0
LINE
  5
295
100
AcDbEntity
  8
CURVE
100
AcDbLine
 62
250
  6
CONTINUOUS
 10
-2.1763666052
 20
-11.1771480121
 11
-2.1551953489
 21
-11.1845921635
  0
LINE
  5
296
100
AcDbEntity
  8
CURVE
100
AcDbLine
 62
250
  6
CONTINUOUS
 10
-1.234054351
 20
-10.7876849461
 11
-1.2227455796
 21
-10.7917361924
  0
LINE
  5
297
100
AcDbEntity
  8
CURVE
100
AcDbLine
 62
250
  6
CONTINUOUS
 10
-0.9348046916
 20
-10.2433303022
 11
-0.9462892244
 21
-10.2391950837
  0
LINE
  5
298
100
AcDbEntity
  8
CURVE
100
AcDbLine
 62
250
  6
CONTINUOUS
 10
-1.2692948466
 20
-11.6056066406
 11
-1.2822718631
 21
-11.6006265453
  0
LINE
  5
299
100
AcDbEntity
  8
CURVE
100
AcDbLine
 62
250
  6
CONTINUOUS
 10
-3.2913600864
 20
-10.4371316683
 11
-3.3028099682
 21
-10.4326554875
  0
LINE
  5
29A
100
AcDbEntity
  8
CURVE
100
AcDbLine
 62
250
  6
CONTINUOUS
 10
-2.3446438627
 20
-10.0606265161
 11
-2.3660808678
 21
-10.0521594239
  0
LINE
  5
29B
100
AcDbEntity
  8
CURVE
100
AcDbLine
 62
250
  6
CONTINUOUS
 10
-3.2579516739
 20
-9.6197185898
 11
-3.2450765568
 21
-9.6249369665
  0
LINE
  5
29C
100
AcDbEntity
  8
CURVE
100
AcDbLine
 62
250
  6
CONTINUOUS
 10
-2.197843526
 20
-11.1683978873
 11
-2.1763666052
 21
-11.1771480121
  0
LINE
  5
29D
100
AcDbEntity
  8
CURVE
100
AcDbLine
 62
250
  6
CONTINUOUS
 10
-1.2458636996
 20
-10.7825314978
 11
-1.234054351
 21
-10.7876849461
  0
LINE
  5
29E
100
AcDbEntity
  8
CURVE
100
AcDbLine
 62
250
  6
CONTINUOUS
 10
-2.3216034676
 20
-10.0709869189
 11
-2.3446438627
 21
-10.0606265161
  0
LINE
  5
29F
100
AcDbEntity
  8
CURVE
100
AcDbLine
 62
250
  6
CONTINUOUS
 10
-1.2561001762
 20
-11.6115951187
 11
-1.2692948466
 21
-11.6056066406
  0
LINE
  5
2A0
100
AcDbEntity
  8
CURVE
100
AcDbLine
 62
250
  6
CONTINUOUS
 10
-2.2195583735
 20
-11.158363049
 11
-2.197843526
 21
-11.1683978873
  0
LINE
  5
2A1
100
AcDbEntity
  8
CURVE
100
AcDbLine
 62
250
  6
CONTINUOUS
 10
-3.2794786177
 20
-10.4426954552
 11
-3.2913600864
 21
-10.4371316683
  0
LINE
  5
2A2
100
AcDbEntity
  8
CURVE
100
AcDbLine
 62
250
  6
CONTINUOUS
 10
-3.5917207158
 20
-10.9694360928
 11
-3.5798811677
 21
-10.9750256965
  0
LINE
  5
2A3
100
AcDbEntity
  8
CURVE
100
AcDbLine
 62
250
  6
CONTINUOUS
 10
-3.2709664457
 20
-9.6135141332
 11
-3.2579516739
 21
-9.6197185898
  0
LINE
  5
2A4
100
AcDbEntity
  8
CURVE
100
AcDbLine
 62
250
  6
CONTINUOUS
 10
-2.2487813244
 20
-11.6974669105
 11
-2.2613514889
 21
-11.6912171083
  0
LINE
  5
2A5
100
AcDbEntity
  8
CURVE
100
AcDbLine
 62
250
  6
CONTINUOUS
 10
-1.2501512384
 20
-11.6145914808
 11
-1.2561001762
 21
-11.6115951187
  0
LINE
  5
2A6
100
AcDbEntity
  8
CURVE
100
AcDbLine
 62
250
  6
CONTINUOUS
 10
-1.2581667887
 20
-10.776250749
 11
-1.2458636996
 21
-10.7825314978
  0
LINE
  5
2A7
100
AcDbEntity
  8
CURVE
100
AcDbLine
 62
250
  6
CONTINUOUS
 10
-2.2984242997
 20
-10.0828194214
 11
-2.3216034676
 21
-10.0709869189
  0
LINE
  5
2A8
100
AcDbEntity
  8
CURVE
100
AcDbLine
 62
250
  6
CONTINUOUS
 10
-2.2414401377
 20
-11.1470711427
 11
-2.2195583735
 21
-11.158363049
  0
LINE
  5
2A9
100
AcDbEntity
  8
CURVE
100
AcDbLine
 62
250
  6
CONTINUOUS
 10
-3.2672169698
 20
-10.4493457908
 11
-3.2794786177
 21
-10.4426954552
  0
LINE
  5
2AA
100
AcDbEntity
  8
CURVE
100
AcDbLine
 62
250
  6
CONTINUOUS
 10
-3.6039510234
 20
-10.9627514343
 11
-3.5917207158
 21
-10.9694360928
  0
LINE
  5
2AB
100
AcDbEntity
  8
CURVE
100
AcDbLine
 62
250
  6
CONTINUOUS
 10
-3.2840908494
 20
-9.6063359131
 11
-3.2709664457
 21
-9.6135141332
  0
LINE
  5
2AC
100
AcDbEntity
  8
CURVE
100
AcDbLine
 62
250
  6
CONTINUOUS
 10
-0.8535533936
 20
-12.5504406894
 11
-0.8403152266
 21
-12.5577643836
  0
LINE
  5
2AD
100
AcDbEntity
  8
CURVE
100
AcDbLine
 62
250
  6
CONTINUOUS
 10
-1.2368103161
 20
-11.6219697157
 11
-1.2501512384
 21
-11.6145914808
  0
LINE
  5
2AE
100
AcDbEntity
  8
CURVE
100
AcDbLine
 62
250
  6
CONTINUOUS
 10
-2.2766281519
 20
-10.0951103005
 11
-2.2984242997
 21
-10.0828194214
  0
LINE
  5
2AF
100
AcDbEntity
  8
CURVE
100
AcDbLine
 62
250
  6
CONTINUOUS
 10
-2.2360846888
 20
-11.7046308334
 11
-2.2487813244
 21
-11.6974669105
  0
LINE
  5
2B0
100
AcDbEntity
  8
CURVE
100
AcDbLine
 62
250
  6
CONTINUOUS
 10
-2.2643760829
 20
-11.134008916
 11
-2.2414401377
 21
-11.1470711427
  0
LINE
  5
2B1
100
AcDbEntity
  8
CURVE
100
AcDbLine
 62
250
  6
CONTINUOUS
 10
-1.2709461916
 20
-10.7688216126
 11
-1.2581667887
 21
-10.776250749
  0
LINE
  5
2B2
100
AcDbEntity
  8
CURVE
100
AcDbLine
 62
250
  6
CONTINUOUS
 10
-3.2546418421
 20
-10.4570686037
 11
-3.2672169698
 21
-10.4493457908
  0
LINE
  5
2B3
100
AcDbEntity
  8
CURVE
100
AcDbLine
 62
250
  6
CONTINUOUS
 10
-3.2972940662
 20
-9.5981975021
 11
-3.2840908494
 21
-9.6063359131
  0
LINE
  5
2B4
100
AcDbEntity
  8
CURVE
100
AcDbLine
 62
250
  6
CONTINUOUS
 10
-3.6165216771
 20
-10.9549759253
 11
-3.6039510234
 21
-10.9627514343
  0
LINE
  5
2B5
100
AcDbEntity
  8
CURVE
100
AcDbLine
 62
250
  6
CONTINUOUS
 10
-2.2276547607
 20
-11.7098524556
 11
-2.2360846888
 21
-11.7046308334
  0
LINE
  5
2B6
100
AcDbEntity
  8
CURVE
100
AcDbLine
 62
250
  6
CONTINUOUS
 10
-1.2234881932
 20
-11.6302422167
 11
-1.2368103161
 21
-11.6219697157
  0
LINE
  5
2B7
100
AcDbEntity
  8
CURVE
100
AcDbLine
 62
250
  6
CONTINUOUS
 10
-0.8667306492
 20
-12.5422472943
 11
-0.8535533936
 21
-12.5504406894
  0
LINE
  5
2B8
100
AcDbEntity
  8
CURVE
100
AcDbLine
 62
250
  6
CONTINUOUS
 10
-2.2873082265
 20
-11.1196205036
 11
-2.2643760829
 21
-11.134008916
  0
LINE
  5
2B9
100
AcDbEntity
  8
CURVE
100
AcDbLine
 62
250
  6
CONTINUOUS
 10
-0.8751216891
 20
-12.5366494857
 11
-0.8667306492
 21
-12.5422472943
  0
LINE
  5
2BA
100
AcDbEntity
  8
CURVE
100
AcDbLine
 62
250
  6
CONTINUOUS
 10
-2.2148861608
 20
-11.7184646395
 11
-2.2276547607
 21
-11.7098524556
  0
LINE
  5
2BB
100
AcDbEntity
  8
CURVE
100
AcDbLine
 62
250
  6
CONTINUOUS
 10
-1.2156269921
 20
-11.6355454845
 11
-1.2234881932
 21
-11.6302422167
  0
LINE
  5
2BC
100
AcDbEntity
  8
CURVE
100
AcDbLine
 62
250
  6
CONTINUOUS
 10
-2.3091918865
 20
-11.1047214308
 11
-2.2873082265
 21
-11.1196205036
  0
LINE
  5
2BD
100
AcDbEntity
  8
CURVE
100
AcDbLine
 62
250
  6
CONTINUOUS
 10
-3.2418362177
 20
-10.4658332736
 11
-3.2546418421
 21
-10.4570686037
  0
LINE
  5
2BE
100
AcDbEntity
  8
CURVE
100
AcDbLine
 62
250
  6
CONTINUOUS
 10
-3.6293684005
 20
-10.9461266981
 11
-3.6165216771
 21
-10.9549759253
  0
LINE
  5
2BF
100
AcDbEntity
  8
CURVE
100
AcDbLine
 62
250
  6
CONTINUOUS
 10
-0.8882922269
 20
-12.5271331963
 11
-0.8751216891
 21
-12.5366494857
  0
LINE
  5
2C0
100
AcDbEntity
  8
CURVE
100
AcDbLine
 62
250
  6
CONTINUOUS
 10
-1.2023625142
 20
-11.6452051492
 11
-1.2156269921
 21
-11.6355454845
  0
LINE
  5
2C1
100
AcDbEntity
  8
CURVE
100
AcDbLine
 62
250
  6
CONTINUOUS
 10
-2.3310886744
 20
-11.0885087136
 11
-2.3091918865
 21
-11.1047214308
  0
LINE
  5
2C2
100
AcDbEntity
  8
CURVE
100
AcDbLine
 62
250
  6
CONTINUOUS
 10
-2.2023344649
 20
-11.727787949
 11
-2.2148861608
 21
-11.7184646395
  0
LINE
  5
2C3
100
AcDbEntity
  8
CURVE
100
AcDbLine
 62
250
  6
CONTINUOUS
 10
-2.24889193
 20
-12.6411745429
 11
-2.236342894
 21
-12.6504993882
  0
LINE
  5
2C4
100
AcDbEntity
  8
CURVE
100
AcDbLine
 62
250
  6
CONTINUOUS
 10
-3.2324913228
 20
-10.4727902527
 11
-3.2418362177
 21
-10.4658332736
  0
LINE
  5
2C5
100
AcDbEntity
  8
CURVE
100
AcDbLine
 62
250
  6
CONTINUOUS
 10
-3.6387629989
 20
-10.9390946431
 11
-3.6293684005
 21
-10.9461266981
  0
LINE
  5
2C6
100
AcDbEntity
  8
CURVE
100
AcDbLine
 62
250
  6
CONTINUOUS
 10
-3.6449058069
 20
-10.9342676611
 11
-3.6387629989
 21
-10.9390946431
  0
LINE
  5
2C7
100
AcDbEntity
  8
CURVE
100
AcDbLine
 62
250
  6
CONTINUOUS
 10
-0.9011622614
 20
-12.5169381817
 11
-0.8882922269
 21
-12.5271331963
  0
LINE
  5
2C8
100
AcDbEntity
  8
CURVE
100
AcDbLine
 62
250
  6
CONTINUOUS
 10
-2.3529325417
 20
-11.0711561029
 11
-2.3310886744
 21
-11.0885087136
  0
LINE
  5
2C9
100
AcDbEntity
  8
CURVE
100
AcDbLine
 62
250
  6
CONTINUOUS
 10
-1.1894046088
 20
-11.6555378087
 11
-1.2023625142
 21
-11.6452051492
  0
LINE
  5
2CA
100
AcDbEntity
  8
CURVE
100
AcDbLine
 62
250
  6
CONTINUOUS
 10
-3.2195247983
 20
-10.4831509419
 11
-3.2324913228
 21
-10.4727902527
  0
LINE
  5
2CB
100
AcDbEntity
  8
CURVE
100
AcDbLine
 62
250
  6
CONTINUOUS
 10
-2.1898398281
 20
-11.7379195082
 11
-2.2023344649
 21
-11.727787949
  0
LINE
  5
2CC
100
AcDbEntity
  8
CURVE
100
AcDbLine
 62
250
  6
CONTINUOUS
 10
-2.2613829167
 20
-12.6310408763
 11
-2.24889193
 21
-12.6411745429
  0
LINE
  5
2CD
100
AcDbEntity
  8
CURVE
100
AcDbLine
 62
250
  6
CONTINUOUS
 10
-3.6578096687
 20
-10.9234603547
 11
-3.6449058069
 21
-10.9342676611
  0
LINE
  5
2CE
100
AcDbEntity
  8
CURVE
100
AcDbLine
 62
250
  6
CONTINUOUS
 10
-2.3746354924
 20
-11.0527278187
 11
-2.3529325417
 21
-11.0711561029
  0
LINE
  5
2CF
100
AcDbEntity
  8
CURVE
100
AcDbLine
 62
250
  6
CONTINUOUS
 10
-0.9136477399
 20
-12.5061470621
 11
-0.9011622614
 21
-12.5169381817
  0
LINE
  5
2D0
100
AcDbEntity
  8
CURVE
100
AcDbLine
 62
250
  6
CONTINUOUS
 10
-3.2066738248
 20
-10.4943355353
 11
-3.2195247983
 21
-10.4831509419
  0
LINE
  5
2D1
100
AcDbEntity
  8
CURVE
100
AcDbLine
 62
250
  6
CONTINUOUS
 10
-2.1774635457
 20
-11.7488139214
 11
-2.1898398281
 21
-11.7379195082
  0
LINE
  5
2D2
100
AcDbEntity
  8
CURVE
100
AcDbLine
 62
250
  6
CONTINUOUS
 10
-2.2737546356
 20
-12.6201438281
 11
-2.2613829167
 21
-12.6310408763
  0
LINE
  5
2D3
100
AcDbEntity
  8
CURVE
100
AcDbLine
 62
250
  6
CONTINUOUS
 10
-3.670412253
 20
-10.9119928475
 11
-3.6578096687
 21
-10.9234603547
  0
LINE
  5
2D4
100
AcDbEntity
  8
CURVE
100
AcDbLine
 62
250
  6
CONTINUOUS
 10
-2.1697510523
 20
-11.7560501827
 11
-2.1774635457
 21
-11.7488139214
  0
LINE
  5
2D5
100
AcDbEntity
  8
CURVE
100
AcDbLine
 62
250
  6
CONTINUOUS
 10
-2.2814638331
 20
-12.6129056638
 11
-2.2737546356
 21
-12.6201438281
  0
LINE
  5
2D6
100
AcDbEntity
  8
CURVE
100
AcDbLine
 62
250
  6
CONTINUOUS
 10
-3.6826608875
 20
-10.8999243837
 11
-3.670412253
 21
-10.9119928475
  0
LINE
  5
2D7
100
AcDbEntity
  8
CURVE
100
AcDbLine
 62
250
  6
CONTINUOUS
 10
-2.2934882587
 20
-12.6008976022
 11
-2.2814638331
 21
-12.6129056638
  0
LINE
  5
2D8
100
AcDbEntity
  8
CURVE
100
AcDbLine
 62
250
  6
CONTINUOUS
 10
-3.6945095765
 20
-10.8873120796
 11
-3.6826608875
 21
-10.8999243837
  0
LINE
  5
2D9
100
AcDbEntity
  8
CURVE
100
AcDbLine
 62
250
  6
CONTINUOUS
 10
-2.3052157828
 20
-12.5882933971
 11
-2.2934882587
 21
-12.6008976022
  0
LINE
  5
2DA
100
AcDbEntity
  8
CURVE
100
AcDbLine
 62
250
  6
CONTINUOUS
 10
-3.7059189747
 20
-10.8742097174
 11
-3.6945095765
 21
-10.8873120796
  0
LINE
  5
2DB
100
AcDbEntity
  8
CURVE
100
AcDbLine
 62
250
  6
CONTINUOUS
 10
-2.316490914
 20
-12.5753370367
 11
-2.3052157828
 21
-12.5882933971
  0
LWPOLYLINE
  5
2DC
100
AcDbEntity
  8
ASSI
100
AcDbPolyline
 62
7
  6
CONTINUOUS
 90
13
 70
0
 10
-9.3163990802
 20
-13.4843601918
 10
-9.3159932863
 20
-13.4940760912
 10
-9.3090886136
 20
-13.5763726143
 10
-9.2963486419
 20
-13.6547345629
 10
-9.2781230195
 20
-13.7288048837
 10
-9.2547036343
 20
-13.7986752395
 10
-9.2262317056
 20
-13.864662575
 10
-9.1930035187
 20
-13.9264923997
 10
-9.1553054841
 20
-13.9839666342
 10
-9.113170576
 20
-14.0372315179
 10
-9.0669740485
 20
-14.0859377832
 10
-9.0170703253
 20
-14.1298380471
 10
-8.9614264242
 20
-14.1702994189
  0
LWPOLYLINE
  5
2DD
100
AcDbEntity
  8
ASSI
100
AcDbPolyline
 62
7
  6
CONTINUOUS
 90
13
 70
0
 10
-9.6246659278
 20
3.8434918009
 10
-9.6240960659
 20
3.8205688244
 10
-9.6204941154
 20
3.7828099958
 10
-9.6135280517
 20
3.7451522356
 10
-9.6031958793
 20
3.7079963745
 10
-9.5895214627
 20
3.6716547345
 10
-9.5725079241
 20
3.6363395522
 10
-9.5522259125
 20
3.6023596947
 10
-9.5288504555
 20
3.5700966262
 10
-9.5025305937
 20
3.5398071444
 10
-9.4734199397
 20
3.5117216186
 10
-9.4417507556
 20
3.4860889097
 10
-9.4277378548
 20
3.4760914765
  0
LWPOLYLINE
  5
2DE
100
AcDbEntity
  8
ASSI
100
AcDbPolyline
 62
250
  6
CONTINUOUS
 90
9
 70
0
 10
-9.6246699619
 20
2.9072502009
 10
-9.6245847422
 20
2.9023964831
 10
-9.6213243515
 20
2.874335504
 10
-9.6133763152
 20
2.8466031644
 10
-9.6008164611
 20
2.8194567859
 10
-9.5837585043
 20
2.793145327
 10
-9.5623581199
 20
2.7679155001
 10
-9.5368160471
 20
2.7440087022
 10
-9.5073709478
 20
2.7216517783
  0
LINE
  5
2DF
100
AcDbEntity
  8
ASSI
100
AcDbLine
 62
250
  6
CONTINUOUS
 10
-9.6245847868
 20
3.8376269128
 11
-9.6246707171
 21
3.843131608
  0
LWPOLYLINE
  5
2E0
100
AcDbEntity
  8
ASSI
100
AcDbPolyline
 62
7
  6
CONTINUOUS
 90
10
 70
0
 10
-9.624670672
 20
2.9075995816
 10
-9.6194937303
 20
1.1209842078
 10
-9.6069420084
 20
-0.7275308239
 10
-9.5870747875
 20
-2.5716964263
 10
-9.5598909603
 20
-4.4114717443
 10
-9.5253905205
 20
-6.2468189061
 10
-9.4835735368
 20
-8.0777010153
 10
-9.4344406229
 20
-9.9040773569
 10
-9.377993255
 20
-11.725901798
 10
-9.3164205403
 20
-13.4841302856
  0
LWPOLYLINE
  5
2E1
100
AcDbEntity
  8
ASSI
100
AcDbPolyline
 62
250
  6
CONTINUOUS
 90
10
 70
0
 10
-9.5073709495
 20
2.7216517786
 10
-9.5025333088
 20
1.0272444872
 10
-9.4912414863
 20
-0.6899851225
 10
-9.4731960517
 20
-2.4298290073
 10
-9.4482978132
 20
-4.1792689274
 10
-9.4161353875
 20
-5.9509510467
 10
-9.3754797466
 20
-7.7828817204
 10
-9.3251795654
 20
-9.6872502767
 10
-9.2646664807
 20
-11.6507322081
 10
-9.1930900851
 20
-13.6727509936
  0
LWPOLYLINE
  5
2E2
100
AcDbEntity
  8
ASSI
100
AcDbPolyline
 62
250
  6
CONTINUOUS
 90
10
 70
0
 10
-9.1930900812
 20
20.4188095605
 10
-9.2594532439
 20
18.4760215613
 10
-9.3170680302
 20
16.5691853977
 10
-9.3663137421
 20
14.6981395642
 10
-9.4071340414
 20
12.8835688844
 10
-9.4404842405
 20
11.1043757014
 10
-9.4675382277
 20
9.2981177369
 10
-9.488126216
 20
7.4443181569
 10
-9.5015284373
 20
5.5640277715
 10
-9.5073709336
 20
3.6575005616
  0
LINE
  5
2E3
100
AcDbEntity
  8
CURVE
100
AcDbLine
 62
250
  6
CONTINUOUS
 10
-4.6919906969
 20
9.7034616574
 11
-4.6976670637
 21
9.691297766
  0
LINE
  5
2E4
100
AcDbEntity
  8
CURVE
100
AcDbLine
 62
250
  6
CONTINUOUS
 10
-3.9944271443
 20
11.1876345307
 11
-3.9977368893
 21
11.1806119325
  0
LINE
  5
2E5
100
AcDbEntity
  8
CURVE
100
AcDbLine
 62
250
  6
CONTINUOUS
 10
-3.9871012386
 20
11.2006047611
 11
-3.9944271443
 21
11.1876345307
  0
LINE
  5
2E6
100
AcDbEntity
  8
CURVE
100
AcDbLine
 62
250
  6
CONTINUOUS
 10
-4.6848899817
 20
9.7156208832
 11
-4.6919906969
 21
9.7034616574
  0
LINE
  5
2E7
100
AcDbEntity
  8
CURVE
100
AcDbLine
 62
250
  6
CONTINUOUS
 10
-3.978813181
 20
11.2122405848
 11
-3.9871012386
 21
11.2006047611
  0
LINE
  5
2E8
100
AcDbEntity
  8
CURVE
100
AcDbLine
 62
250
  6
CONTINUOUS
 10
-4.6768868312
 20
9.7265623881
 11
-4.6848899817
 21
9.7156208832
  0
LINE
  5
2E9
100
AcDbEntity
  8
CURVE
100
AcDbLine
 62
250
  6
CONTINUOUS
 10
-2.3687784629
 20
11.0593232982
 11
-2.3770603355
 21
11.0483349586
  0
LINE
  5
2EA
100
AcDbEntity
  8
CURVE
100
AcDbLine
 62
250
  6
CONTINUOUS
 10
-3.0448598234
 20
9.6258951598
 11
-3.0356385794
 21
9.6361402166
  0
LINE
  5
2EB
100
AcDbEntity
  8
CURVE
100
AcDbLine
 62
250
  6
CONTINUOUS
 10
-3.4747255921
 20
8.7173424594
 11
-3.4658685802
 21
8.7269662849
  0
LINE
  5
2EC
100
AcDbEntity
  8
CURVE
100
AcDbLine
 62
250
  6
CONTINUOUS
 10
-2.3596387098
 20
11.069033433
 11
-2.3687784629
 21
11.0593232982
  0
LINE
  5
2ED
100
AcDbEntity
  8
CURVE
100
AcDbLine
 62
250
  6
CONTINUOUS
 10
-2.774698059
 20
8.9638037304
 11
-2.8150462273
 21
8.9243378388
  0
LINE
  5
2EE
100
AcDbEntity
  8
CURVE
100
AcDbLine
 62
250
  6
CONTINUOUS
 10
-3.054882487
 20
9.617131771
 11
-3.0448598234
 21
9.6258951598
  0
LINE
  5
2EF
100
AcDbEntity
  8
CURVE
100
AcDbLine
 62
250
  6
CONTINUOUS
 10
-4.0521742525
 20
7.4792183856
 11
-4.0621005177
 21
7.4706785276
  0
LINE
  5
2F0
100
AcDbEntity
  8
CURVE
100
AcDbLine
 62
250
  6
CONTINUOUS
 10
-3.4843463388
 20
8.7090702198
 11
-3.4747255921
 21
8.7173424594
  0
LINE
  5
2F1
100
AcDbEntity
  8
CURVE
100
AcDbLine
 62
250
  6
CONTINUOUS
 10
-2.0700531178
 20
9.5257839988
 11
-2.0601759753
 21
9.5340561857
  0
LINE
  5
2F2
100
AcDbEntity
  8
CURVE
100
AcDbLine
 62
250
  6
CONTINUOUS
 10
-2.7291174492
 20
8.9953201724
 11
-2.774698059
 21
8.9638037304
  0
LINE
  5
2F3
100
AcDbEntity
  8
CURVE
100
AcDbLine
 62
250
  6
CONTINUOUS
 10
-3.0656191578
 20
9.6098937092
 11
-3.054882487
 21
9.617131771
  0
LINE
  5
2F4
100
AcDbEntity
  8
CURVE
100
AcDbLine
 62
250
  6
CONTINUOUS
 10
-1.4048104343
 20
9.0086496623
 11
-1.4160119774
 21
9.0011403338
  0
LINE
  5
2F5
100
AcDbEntity
  8
CURVE
100
AcDbLine
 62
250
  6
CONTINUOUS
 10
-3.4946661993
 20
8.7021842579
 11
-3.4843463388
 21
8.7090702198
  0
LINE
  5
2F6
100
AcDbEntity
  8
CURVE
100
AcDbLine
 62
250
  6
CONTINUOUS
 10
-4.0414283326
 20
7.4863058699
 11
-4.0521742525
 21
7.4792183856
  0
LINE
  5
2F7
100
AcDbEntity
  8
CURVE
100
AcDbLine
 62
250
  6
CONTINUOUS
 10
-2.0806449191
 20
9.5188903692
 11
-2.0700531178
 21
9.5257839988
  0
LINE
  5
2F8
100
AcDbEntity
  8
CURVE
100
AcDbLine
 62
250
  6
CONTINUOUS
 10
-0.750636629
 20
9.3862916072
 11
-1.4048104343
 21
9.0086496623
  0
LINE
  5
2F9
100
AcDbEntity
  8
CURVE
100
AcDbLine
 62
250
  6
CONTINUOUS
 10
-3.4104169814
 20
7.8505741042
 11
-4.0414283326
 21
7.4863058699
  0
LINE
  5
2FA
100
AcDbEntity
  8
CURVE
100
AcDbLine
 62
250
  6
CONTINUOUS
 10
-2.0917642688
 20
9.5132874203
 11
-2.0806449191
 21
9.5188903692
  0
LINE
  5
2FB
100
AcDbEntity
  8
CURVE
100
AcDbLine
 62
250
  6
CONTINUOUS
 10
-0.7388397013
 20
9.392218304
 11
-0.750636629
 21
9.3862916072
  0
LINE
  5
2FC
100
AcDbEntity
  8
CURVE
100
AcDbLine
 62
250
  6
CONTINUOUS
 10
-3.3989489809
 20
7.8563108384
 11
-3.4104169814
 21
7.8505741042
  0
LINE
  5
2FD
100
AcDbEntity
  8
CURVE
100
AcDbLine
 62
250
  6
CONTINUOUS
 10
-3.506006563
 20
8.6966066896
 11
-3.4946661993
 21
8.7021842579
  0
LINE
  5
2FE
100
AcDbEntity
  8
CURVE
100
AcDbLine
 62
250
  6
CONTINUOUS
 10
-2.6792837734
 20
9.0188843584
 11
-2.7291174492
 21
8.9953201724
  0
LINE
  5
2FF
100
AcDbEntity
  8
CURVE
100
AcDbLine
 62
250
  6
CONTINUOUS
 10
-2.103733836
 20
9.5089884761
 11
-2.0917642688
 21
9.5132874203
  0
LINE
  5
300
100
AcDbEntity
  8
CURVE
100
AcDbLine
 62
250
  6
CONTINUOUS
 10
-0.7261590759
 20
9.3967240556
 11
-0.7388397013
 21
9.392218304
  0
LINE
  5
301
100
AcDbEntity
  8
CURVE
100
AcDbLine
 62
250
  6
CONTINUOUS
 10
-1.1356782392
 20
8.4743485132
 11
-1.1230224989
 21
8.4788416279
  0
LINE
  5
302
100
AcDbEntity
  8
CURVE
100
AcDbLine
 62
250
  6
CONTINUOUS
 10
-3.5180638813
 20
8.6924014667
 11
-3.506006563
 21
8.6966066896
  0
LINE
  5
303
100
AcDbEntity
  8
CURVE
100
AcDbLine
 62
250
  6
CONTINUOUS
 10
-3.386642059
 20
7.8606025504
 11
-3.3989489809
 21
7.8563108384
  0
LINE
  5
304
100
AcDbEntity
  8
CURVE
100
AcDbLine
 62
250
  6
CONTINUOUS
 10
-2.5451067032
 20
-10.0347674856
 11
-2.5619549467
 21
-10.0394377878
  0
LINE
  5
305
100
AcDbEntity
  8
CURVE
100
AcDbLine
 62
250
  6
CONTINUOUS
 10
-3.168788787
 20
-9.6335213889
 11
-3.1583727957
 21
-9.6309198085
  0
LINE
  5
306
100
AcDbEntity
  8
CURVE
100
AcDbLine
 62
250
  6
CONTINUOUS
 10
-2.5275237536
 20
-10.0313779495
 11
-2.5451067032
 21
-10.0347674856
  0
LINE
  5
307
100
AcDbEntity
  8
CURVE
100
AcDbLine
 62
250
  6
CONTINUOUS
 10
-2.1832010796
 20
-9.5555452822
 11
-2.1730998161
 21
-9.5536982344
  0
LINE
  5
308
100
AcDbEntity
  8
CURVE
100
AcDbLine
 62
250
  6
CONTINUOUS
 10
-3.1793702962
 20
-9.6350345106
 11
-3.168788787
 21
-9.6335213889
  0
LINE
  5
309
100
AcDbEntity
  8
CURVE
100
AcDbLine
 62
250
  6
CONTINUOUS
 10
-3.7701032518
 20
-8.6349336903
 11
-3.7807599746
 21
-8.6363635111
  0
LINE
  5
30A
100
AcDbEntity
  8
CURVE
100
AcDbLine
 62
250
  6
CONTINUOUS
 10
-2.5092609174
 20
-10.0292895109
 11
-2.5275237536
 21
-10.0313779495
  0
LINE
  5
30B
100
AcDbEntity
  8
CURVE
100
AcDbLine
 62
250
  6
CONTINUOUS
 10
-2.4164465054
 20
-8.5293688475
 11
-2.4267873635
 21
-8.5303906418
  0
LINE
  5
30C
100
AcDbEntity
  8
CURVE
100
AcDbLine
 62
250
  6
CONTINUOUS
 10
-2.1939723992
 20
-9.5565379832
 11
-2.1832010796
 21
-9.5555452822
  0
LINE
  5
30D
100
AcDbEntity
  8
CURVE
100
AcDbLine
 62
250
  6
CONTINUOUS
 10
-3.1904853189
 20
-9.6355271638
 11
-3.1793702962
 21
-9.6350345106
  0
LINE
  5
30E
100
AcDbEntity
  8
CURVE
100
AcDbLine
 62
250
  6
CONTINUOUS
 10
-3.7588989601
 20
-8.6345233461
 11
-3.7701032518
 21
-8.6349336903
  0
LINE
  5
30F
100
AcDbEntity
  8
CURVE
100
AcDbLine
 62
250
  6
CONTINUOUS
 10
-2.405522972
 20
-8.5292934651
 11
-2.4164465054
 21
-8.5293688475
  0
LINE
  5
310
100
AcDbEntity
  8
CURVE
100
AcDbLine
 62
250
  6
CONTINUOUS
 10
-2.2051774123
 20
-9.5565664615
 11
-2.1939723992
 21
-9.5565379832
  0
LINE
  5
311
100
AcDbEntity
  8
CURVE
100
AcDbLine
 62
250
  6
CONTINUOUS
 10
-3.7472298294
 20
-8.6351485329
 11
-3.7588989601
 21
-8.6345233461
  0
LINE
  5
312
100
AcDbEntity
  8
CURVE
100
AcDbLine
 62
250
  6
CONTINUOUS
 10
-2.2125631503
 20
-9.5560737538
 11
-2.2051774123
 21
-9.5565664615
  0
LINE
  5
313
100
AcDbEntity
  8
CURVE
100
AcDbLine
 62
250
  6
CONTINUOUS
 10
-2.3941028598
 20
-8.5301842041
 11
-2.405522972
 21
-8.5292934651
  0
LINE
  5
314
100
AcDbEntity
  8
CURVE
100
AcDbLine
 62
250
  6
CONTINUOUS
 10
-3.7422372965
 20
-8.6357179293
 11
-3.7472298294
 21
-8.6351485329
  0
LINE
  5
315
100
AcDbEntity
  8
CURVE
100
AcDbLine
 62
250
  6
CONTINUOUS
 10
-2.3822879724
 20
-8.5320469487
 11
-2.3941028598
 21
-8.5301842041
  0
LINE
  5
316
100
AcDbEntity
  8
CURVE
100
AcDbLine
 62
250
  6
CONTINUOUS
 10
-3.7300818086
 20
-8.6378118818
 11
-3.7422372965
 21
-8.6357179293
  0
LINE
  5
317
100
AcDbEntity
  8
CURVE
100
AcDbLine
 62
250
  6
CONTINUOUS
 10
-2.3738584401
 20
-8.5339209136
 11
-2.3822879724
 21
-8.5320469487
  0
LINE
  5
318
100
AcDbEntity
  8
CURVE
100
AcDbLine
 62
250
  6
CONTINUOUS
 10
-3.7177432228
 20
-8.6409121895
 11
-3.7300818086
 21
-8.6378118818
  0
LINE
  5
319
100
AcDbEntity
  8
CURVE
100
AcDbLine
 62
250
  6
CONTINUOUS
 10
-2.361681866
 20
-8.5373900793
 11
-2.3738584401
 21
-8.5339209136
  0
LINE
  5
31A
100
AcDbEntity
  8
CURVE
100
AcDbLine
 62
250
  6
CONTINUOUS
 10
-3.7051726996
 20
-8.6451448131
 11
-3.7177432228
 21
-8.6409121895
  0
LINE
  5
31B
100
AcDbEntity
  8
CURVE
100
AcDbLine
 62
250
  6
CONTINUOUS
 10
-2.2607115254
 20
-9.5441265612
 11
-2.2483443725
 21
-9.5485676673
  0
LINE
  5
31C
100
AcDbEntity
  8
CURVE
100
AcDbLine
 62
250
  6
CONTINUOUS
 10
-2.3493187249
 20
-8.5418327329
 11
-2.361681866
 21
-8.5373900793
  0
LINE
  5
31D
100
AcDbEntity
  8
CURVE
100
AcDbLine
 62
250
  6
CONTINUOUS
 10
-3.6923533655
 20
-8.6503998827
 11
-3.7051726996
 21
-8.6451448131
  0
LINE
  5
31E
100
AcDbEntity
  8
CURVE
100
AcDbLine
 62
250
  6
CONTINUOUS
 10
-2.2693195483
 20
-9.5405247428
 11
-2.2607115254
 21
-9.5441265612
  0
LINE
  5
31F
100
AcDbEntity
  8
CURVE
100
AcDbLine
 62
250
  6
CONTINUOUS
 10
-2.3367946695
 20
-8.5472068354
 11
-2.3493187249
 21
-8.5418327329
  0
LINE
  5
320
100
AcDbEntity
  8
CURVE
100
AcDbLine
 62
250
  6
CONTINUOUS
 10
-0.9228191244
 20
-10.2485670128
 11
-0.9348046916
 21
-10.2433303022
  0
LINE
  5
321
100
AcDbEntity
  8
CURVE
100
AcDbLine
 62
250
  6
CONTINUOUS
 10
-2.2818674407
 20
-9.5345417178
 11
-2.2693195483
 21
-9.5405247428
  0
LINE
  5
322
100
AcDbEntity
  8
CURVE
100
AcDbLine
 62
250
  6
CONTINUOUS
 10
-3.6793461139
 20
-8.6566587114
 11
-3.6923533655
 21
-8.6503998827
  0
LINE
  5
323
100
AcDbEntity
  8
CURVE
100
AcDbLine
 62
250
  6
CONTINUOUS
 10
-2.324149523
 20
-8.5534975039
 11
-2.3367946695
 21
-8.5472068354
  0
LINE
  5
324
100
AcDbEntity
  8
CURVE
100
AcDbLine
 62
250
  6
CONTINUOUS
 10
-0.9103586268
 20
-10.2549213873
 11
-0.9228191244
 21
-10.2485670128
  0
LINE
  5
325
100
AcDbEntity
  8
CURVE
100
AcDbLine
 62
250
  6
CONTINUOUS
 10
-2.2944636186
 20
-9.5276752669
 11
-2.2818674407
 21
-9.5345417178
  0
LINE
  5
326
100
AcDbEntity
  8
CURVE
100
AcDbLine
 62
250
  6
CONTINUOUS
 10
-3.6662157726
 20
-8.6638953228
 11
-3.6793461139
 21
-8.6566587114
  0
LINE
  5
327
100
AcDbEntity
  8
CURVE
100
AcDbLine
 62
250
  6
CONTINUOUS
 10
-2.3114245531
 20
-8.5606867318
 11
-2.324149523
 21
-8.5534975039
  0
LINE
  5
328
100
AcDbEntity
  8
CURVE
100
AcDbLine
 62
250
  6
CONTINUOUS
 10
-0.8974645493
 20
-10.2624004478
 11
-0.9103586268
 21
-10.2549213873
  0
LINE
  5
329
100
AcDbEntity
  8
CURVE
100
AcDbLine
 62
250
  6
CONTINUOUS
 10
-3.661037301
 20
-8.6669994685
 11
-3.6662157726
 21
-8.6638953228
  0
LINE
  5
32A
100
AcDbEntity
  8
CURVE
100
AcDbLine
 62
250
  6
CONTINUOUS
 10
-2.3070675157
 20
-9.5199488499
 11
-2.2944636186
 21
-9.5276752669
  0
LINE
  5
32B
100
AcDbEntity
  8
CURVE
100
AcDbLine
 62
250
  6
CONTINUOUS
 10
-2.2547400065
 20
-10.1086155049
 11
-2.2766281519
 21
-10.0951103005
  0
LINE
  5
32C
100
AcDbEntity
  8
CURVE
100
AcDbLine
 62
250
  6
CONTINUOUS
 10
-2.3031545519
 20
-8.5658162733
 11
-2.3114245531
 21
-8.5606867318
  0
LINE
  5
32D
100
AcDbEntity
  8
CURVE
100
AcDbLine
 62
250
  6
CONTINUOUS
 10
-3.6478609526
 20
-8.6755326315
 11
-3.661037301
 21
-8.6669994685
  0
LINE
  5
32E
100
AcDbEntity
  8
CURVE
100
AcDbLine
 62
250
  6
CONTINUOUS
 10
-0.8841968898
 20
-10.2709970537
 11
-0.8974645493
 21
-10.2624004478
  0
LINE
  5
32F
100
AcDbEntity
  8
CURVE
100
AcDbLine
 62
250
  6
CONTINUOUS
 10
-1.2841707193
 20
-10.7602312166
 11
-1.2709461916
 21
-10.7688216126
  0
LINE
  5
330
100
AcDbEntity
  8
CURVE
100
AcDbLine
 62
250
  6
CONTINUOUS
 10
-3.3023215485
 20
-9.5948588228
 11
-3.2972940662
 21
-9.5981975021
  0
LINE
  5
331
100
AcDbEntity
  8
CURVE
100
AcDbLine
 62
250
  6
CONTINUOUS
 10
-2.2328396594
 20
-10.1232888475
 11
-2.2547400065
 21
-10.1086155049
  0
LINE
  5
332
100
AcDbEntity
  8
CURVE
100
AcDbLine
 62
250
  6
CONTINUOUS
 10
-2.2903961604
 20
-8.5744349654
 11
-2.3031545519
 21
-8.5658162733
  0
LINE
  5
333
100
AcDbEntity
  8
CURVE
100
AcDbLine
 62
250
  6
CONTINUOUS
 10
-2.3196395976
 20
-9.5113876367
 11
-2.3070675157
 21
-9.5199488499
  0
LINE
  5
334
100
AcDbEntity
  8
CURVE
100
AcDbLine
 62
250
  6
CONTINUOUS
 10
-0.8741125735
 20
-10.2781164189
 11
-0.8841968898
 21
-10.2709970537
  0
LINE
  5
335
100
AcDbEntity
  8
CURVE
100
AcDbLine
 62
250
  6
CONTINUOUS
 10
-3.6402103318
 20
-8.6809514199
 11
-3.6478609526
 21
-8.6755326315
  0
LINE
  5
336
100
AcDbEntity
  8
CURVE
100
AcDbLine
 62
250
  6
CONTINUOUS
 10
-1.294871988
 20
-10.7526451796
 11
-1.2841707193
 21
-10.7602312166
  0
LINE
  5
337
100
AcDbEntity
  8
CURVE
100
AcDbLine
 62
250
  6
CONTINUOUS
 10
-3.3153215052
 20
-9.585522647
 11
-3.3023215485
 21
-9.5948588228
  0
LINE
  5
338
100
AcDbEntity
  8
CURVE
100
AcDbLine
 62
250
  6
CONTINUOUS
 10
-2.210976963
 20
-10.1390997217
 11
-2.2328396594
 21
-10.1232888475
  0
LINE
  5
339
100
AcDbEntity
  8
CURVE
100
AcDbLine
 62
250
  6
CONTINUOUS
 10
-2.3318099363
 20
-9.502450559
 11
-2.3196395976
 21
-9.5113876367
  0
LINE
  5
33A
100
AcDbEntity
  8
CURVE
100
AcDbLine
 62
250
  6
CONTINUOUS
 10
-2.2778645404
 20
-8.5836951887
 11
-2.2903961604
 21
-8.5744349654
  0
LINE
  5
33B
100
AcDbEntity
  8
CURVE
100
AcDbLine
 62
250
  6
CONTINUOUS
 10
-0.8686480399
 20
-10.2822123296
 11
-0.8741125735
 21
-10.2781164189
  0
LINE
  5
33C
100
AcDbEntity
  8
CURVE
100
AcDbLine
 62
250
  6
CONTINUOUS
 10
-3.6272948927
 20
-8.6908136682
 11
-3.6402103318
 21
-8.6809514199
  0
LINE
  5
33D
100
AcDbEntity
  8
CURVE
100
AcDbLine
 62
250
  6
CONTINUOUS
 10
-3.3217875896
 20
-9.5805357265
 11
-3.3153215052
 21
-9.585522647
  0
LINE
  5
33E
100
AcDbEntity
  8
CURVE
100
AcDbLine
 62
250
  6
CONTINUOUS
 10
-2.1892032367
 20
-10.1560138301
 11
-2.210976963
 21
-10.1390997217
  0
LINE
  5
33F
100
AcDbEntity
  8
CURVE
100
AcDbLine
 62
250
  6
CONTINUOUS
 10
-1.3081076055
 20
-10.7423646828
 11
-1.294871988
 21
-10.7526451796
  0
LINE
  5
340
100
AcDbEntity
  8
CURVE
100
AcDbLine
 62
250
  6
CONTINUOUS
 10
-0.8551634266
 20
-10.2929569574
 11
-0.8686480399
 21
-10.2822123296
  0
LINE
  5
341
100
AcDbEntity
  8
CURVE
100
AcDbLine
 62
250
  6
CONTINUOUS
 10
-2.3439794263
 20
-9.4926554239
 11
-2.3318099363
 21
-9.502450559
  0
LINE
  5
342
100
AcDbEntity
  8
CURVE
100
AcDbLine
 62
250
  6
CONTINUOUS
 10
-3.3346066048
 20
-9.5699603711
 11
-3.3217875896
 21
-9.5805357265
  0
LINE
  5
343
100
AcDbEntity
  8
CURVE
100
AcDbLine
 62
250
  6
CONTINUOUS
 10
-2.1675708261
 20
-10.1739932736
 11
-2.1892032367
 21
-10.1560138301
  0
LINE
  5
344
100
AcDbEntity
  8
CURVE
100
AcDbLine
 62
250
  6
CONTINUOUS
 10
-3.6146811694
 20
-8.7013462193
 11
-3.6272948927
 21
-8.6908136682
  0
LINE
  5
345
100
AcDbEntity
  8
CURVE
100
AcDbLine
 62
250
  6
CONTINUOUS
 10
-1.3212664266
 20
-10.731220285
 11
-1.3081076055
 21
-10.7423646828
  0
LINE
  5
346
100
AcDbEntity
  8
CURVE
100
AcDbLine
 62
250
  6
CONTINUOUS
 10
-0.8419965657
 20
-10.3043639958
 11
-0.8551634266
 21
-10.2929569574
  0
LINE
  5
347
100
AcDbEntity
  8
CURVE
100
AcDbLine
 62
250
  6
CONTINUOUS
 10
-1.1768469131
 20
-11.6664517482
 11
-1.1894046088
 21
-11.6555378087
  0
LINE
  5
348
100
AcDbEntity
  8
CURVE
100
AcDbLine
 62
250
  6
CONTINUOUS
 10
-2.3560928872
 20
-9.4820382459
 11
-2.3439794263
 21
-9.4926554239
  0
LINE
  5
349
100
AcDbEntity
  8
CURVE
100
AcDbLine
 62
250
  6
CONTINUOUS
 10
-2.1461326175
 20
-10.1929967471
 11
-2.1675708261
 21
-10.1739932736
  0
LINE
  5
34A
100
AcDbEntity
  8
CURVE
100
AcDbLine
 62
250
  6
CONTINUOUS
 10
-3.3471703347
 20
-9.5586746151
 11
-3.3346066048
 21
-9.5699603711
  0
LINE
  5
34B
100
AcDbEntity
  8
CURVE
100
AcDbLine
 62
250
  6
CONTINUOUS
 10
-2.3965010358
 20
-11.0329293913
 11
-2.3746354924
 21
-11.0527278187
  0
LINE
  5
34C
100
AcDbEntity
  8
CURVE
100
AcDbLine
 62
250
  6
CONTINUOUS
 10
-3.6024602603
 20
-8.7124558588
 11
-3.6146811694
 21
-8.7013462193
  0
LINE
  5
34D
100
AcDbEntity
  8
CURVE
100
AcDbLine
 62
250
  6
CONTINUOUS
 10
-1.3342726768
 20
-10.7192697502
 11
-1.3212664266
 21
-10.731220285
  0
LINE
  5
34E
100
AcDbEntity
  8
CURVE
100
AcDbLine
 62
250
  6
CONTINUOUS
 10
-0.9256805535
 20
-12.4948368614
 11
-0.9136477399
 21
-12.5061470621
  0
LINE
  5
34F
100
AcDbEntity
  8
CURVE
100
AcDbLine
 62
250
  6
CONTINUOUS
 10
-3.193990952
 20
-10.5063013299
 11
-3.2066738248
 21
-10.4943355353
  0
LINE
  5
350
100
AcDbEntity
  8
CURVE
100
AcDbLine
 62
250
  6
CONTINUOUS
 10
-1.1647675465
 20
-11.6778591519
 11
-1.1768469131
 21
-11.6664517482
  0
LINE
  5
351
100
AcDbEntity
  8
CURVE
100
AcDbLine
 62
250
  6
CONTINUOUS
 10
-2.3680913867
 20
-9.4706428473
 11
-2.3560928872
 21
-9.4820382459
  0
LINE
  5
352
100
AcDbEntity
  8
CURVE
100
AcDbLine
 62
250
  6
CONTINUOUS
 10
-2.4175923544
 20
-11.0126130046
 11
-2.3965010358
 21
-11.0329293913
  0
LINE
  5
353
100
AcDbEntity
  8
CURVE
100
AcDbLine
 62
250
  6
CONTINUOUS
 10
-3.3593898001
 20
-9.5467691416
 11
-3.3471703347
 21
-9.5586746151
  0
LINE
  5
354
100
AcDbEntity
  8
CURVE
100
AcDbLine
 62
250
  6
CONTINUOUS
 10
-3.5907081274
 20
-8.7240534946
 11
-3.6024602603
 21
-8.7124558588
  0
LINE
  5
355
100
AcDbEntity
  8
CURVE
100
AcDbLine
 62
250
  6
CONTINUOUS
 10
-1.347047547
 20
-10.7065808887
 11
-1.3342726768
 21
-10.7192697502
  0
LINE
  5
356
100
AcDbEntity
  8
CURVE
100
AcDbLine
 62
250
  6
CONTINUOUS
 10
-3.1891995132
 20
-10.5110708036
 11
-3.193990952
 21
-10.5063013299
  0
LINE
  5
357
100
AcDbEntity
  8
CURVE
100
AcDbLine
 62
250
  6
CONTINUOUS
 10
-2.1577208453
 20
-11.7680549062
 11
-2.1697510523
 21
-11.7560501827
  0
LINE
  5
358
100
AcDbEntity
  8
CURVE
100
AcDbLine
 62
250
  6
CONTINUOUS
 10
-0.9372075919
 20
-12.4830769971
 11
-0.9256805535
 21
-12.4948368614
  0
LINE
  5
359
100
AcDbEntity
  8
CURVE
100
AcDbLine
 62
250
  6
CONTINUOUS
 10
-2.4382563613
 20
-10.9914873982
 11
-2.4175923544
 21
-11.0126130046
  0
LINE
  5
35A
100
AcDbEntity
  8
CURVE
100
AcDbLine
 62
250
  6
CONTINUOUS
 10
-1.1532290135
 20
-11.6896788885
 11
-1.1647675465
 21
-11.6778591519
  0
LINE
  5
35B
100
AcDbEntity
  8
CURVE
100
AcDbLine
 62
250
  6
CONTINUOUS
 10
-2.3799132983
 20
-9.4585207924
 11
-2.3680913867
 21
-9.4706428473
  0
LINE
  5
35C
100
AcDbEntity
  8
CURVE
100
AcDbLine
 62
250
  6
CONTINUOUS
 10
-1.3513327749
 20
-10.7021027201
 11
-1.347047547
 21
-10.7065808887
  0
LINE
  5
35D
100
AcDbEntity
  8
CURVE
100
AcDbLine
 62
250
  6
CONTINUOUS
 10
-3.1768405135
 20
-10.5240331401
 11
-3.1891995132
 21
-10.5110708036
  0
LINE
  5
35E
100
AcDbEntity
  8
CURVE
100
AcDbLine
 62
250
  6
CONTINUOUS
 10
-3.3711854845
 20
-9.5343352455
 11
-3.3593898001
 21
-9.5467691416
  0
LINE
  5
35F
100
AcDbEntity
  8
CURVE
100
AcDbLine
 62
250
  6
CONTINUOUS
 10
-3.5794855112
 20
-8.7360569502
 11
-3.5907081274
 21
-8.7240534946
  0
LINE
  5
360
100
AcDbEntity
  8
CURVE
100
AcDbLine
 62
250
  6
CONTINUOUS
 10
-2.1459870118
 20
-11.7806554683
 11
-2.1577208453
 21
-11.7680549062
  0
LINE
  5
361
100
AcDbEntity
  8
CURVE
100
AcDbLine
 62
250
  6
CONTINUOUS
 10
-2.0808853141
 20
-10.2589168762
 11
-2.1012990135
 21
-10.2369181701
  0
LINE
  5
362
100
AcDbEntity
  8
CURVE
100
AcDbLine
 62
250
  6
CONTINUOUS
 10
-2.4584178142
 20
-10.9696377958
 11
-2.4382563613
 21
-10.9914873982
  0
LINE
  5
363
100
AcDbEntity
  8
CURVE
100
AcDbLine
 62
250
  6
CONTINUOUS
 10
-1.1329580836
 20
-11.7124339535
 11
-1.1532290135
 21
-11.6896788885
  0
LINE
  5
364
100
AcDbEntity
  8
CURVE
100
AcDbLine
 62
250
  6
CONTINUOUS
 10
-3.164788999
 20
-10.537641033
 11
-3.1768405135
 21
-10.5240331401
  0
LINE
  5
365
100
AcDbEntity
  8
CURVE
100
AcDbLine
 62
250
  6
CONTINUOUS
 10
-2.0609192065
 20
-10.2816917219
 11
-2.0808853141
 21
-10.2589168762
  0
LINE
  5
366
100
AcDbEntity
  8
CURVE
100
AcDbLine
 62
250
  6
CONTINUOUS
 10
-2.134552786
 20
-11.7938485846
 11
-2.1459870118
 21
-11.7806554683
  0
LINE
  5
367
100
AcDbEntity
  8
CURVE
100
AcDbLine
 62
250
  6
CONTINUOUS
 10
-2.4780496023
 20
-10.9469859543
 11
-2.4584178142
 21
-10.9696377958
  0
LINE
  5
368
100
AcDbEntity
  8
CURVE
100
AcDbLine
 62
250
  6
CONTINUOUS
 10
-3.3909546029
 20
-9.5112904408
 11
-3.3711854845
 21
-9.5343352455
  0
LINE
  5
369
100
AcDbEntity
  8
CURVE
100
AcDbLine
 62
250
  6
CONTINUOUS
 10
-1.3363859422
 20
-12.009184214
 11
-0.9372075919
 21
-12.4830769971
  0
LINE
  5
36A
100
AcDbEntity
  8
CURVE
100
AcDbLine
 62
250
  6
CONTINUOUS
 10
-0.7535223809
 20
-12.163266648
 11
-1.1329580836
 21
-11.7124339535
  0
LINE
  5
36B
100
AcDbEntity
  8
CURVE
100
AcDbLine
 62
250
  6
CONTINUOUS
 10
-2.4972926775
 20
-10.9234830199
 11
-2.4780496023
 21
-10.9469859543
  0
LINE
  5
36C
100
AcDbEntity
  8
CURVE
100
AcDbLine
 62
250
  6
CONTINUOUS
 10
-3.1535014357
 20
-10.5514358191
 11
-3.164788999
 21
-10.537641033
  0
LINE
  5
36D
100
AcDbEntity
  8
CURVE
100
AcDbLine
 62
250
  6
CONTINUOUS
 10
-2.1269298241
 20
-11.8031842238
 11
-2.134552786
 21
-11.7938485846
  0
LINE
  5
36E
100
AcDbEntity
  8
CURVE
100
AcDbLine
 62
250
  6
CONTINUOUS
 10
-3.7172989971
 20
-10.8602058
 11
-3.7059189747
 21
-10.8742097174
  0
LINE
  5
36F
100
AcDbEntity
  8
CURVE
100
AcDbLine
 62
250
  6
CONTINUOUS
 10
-2.3274777851
 20
-12.5617739338
 11
-2.316490914
 21
-12.5753370367
  0
LINE
  5
370
100
AcDbEntity
  8
CURVE
100
AcDbLine
 62
250
  6
CONTINUOUS
 10
-3.1909104606
 20
-9.2160719456
 11
-3.5794855112
 21
-8.7360569502
  0
LINE
  5
371
100
AcDbEntity
  8
CURVE
100
AcDbLine
 62
250
  6
CONTINUOUS
 10
-3.7592602656
 20
-9.0540314008
 11
-3.3909546029
 21
-9.5112904408
  0
LINE
  5
372
100
AcDbEntity
  8
CURVE
100
AcDbLine
 62
250
  6
CONTINUOUS
 10
-2.516709524
 20
-10.8983901739
 11
-2.4972926775
 21
-10.9234830199
  0
LINE
  5
373
100
AcDbEntity
  8
CURVE
100
AcDbLine
 62
250
  6
CONTINUOUS
 10
-2.1161190583
 20
-11.8172333953
 11
-2.1269298241
 21
-11.8031842238
  0
LINE
  5
374
100
AcDbEntity
  8
CURVE
100
AcDbLine
 62
250
  6
CONTINUOUS
 10
-2.3351240794
 20
-12.5517394855
 11
-2.3274777851
 21
-12.5617739338
  0
LINE
  5
375
100
AcDbEntity
  8
CURVE
100
AcDbLine
 62
250
  6
CONTINUOUS
 10
-3.1424775773
 20
-10.5659323207
 11
-3.1535014357
 21
-10.5514358191
  0
LINE
  5
376
100
AcDbEntity
  8
CURVE
100
AcDbLine
 62
250
  6
CONTINUOUS
 10
-3.7283669013
 20
-10.8455578054
 11
-3.7172989971
 21
-10.8602058
  0
LINE
  5
377
100
AcDbEntity
  8
CURVE
100
AcDbLine
 62
250
  6
CONTINUOUS
 10
-1.3500303343
 20
-11.9907634337
 11
-1.3363859422
 21
-12.009184214
  0
LINE
  5
378
100
AcDbEntity
  8
CURVE
100
AcDbLine
 62
250
  6
CONTINUOUS
 10
-2.5355152294
 20
-10.8725765143
 11
-2.516709524
 21
-10.8983901739
  0
LINE
  5
379
100
AcDbEntity
  8
CURVE
100
AcDbLine
 62
250
  6
CONTINUOUS
 10
-3.7330742513
 20
-10.8389944234
 11
-3.7283669013
 21
-10.8455578054
  0
LINE
  5
37A
100
AcDbEntity
  8
CURVE
100
AcDbLine
 62
250
  6
CONTINUOUS
 10
-2.1057915246
 20
-11.8316410022
 11
-2.1161190583
 21
-11.8172333953
  0
LINE
  5
37B
100
AcDbEntity
  8
CURVE
100
AcDbLine
 62
250
  6
CONTINUOUS
 10
-2.3454012011
 20
-12.53739862
 11
-2.3351240794
 21
-12.5517394855
  0
LINE
  5
37C
100
AcDbEntity
  8
CURVE
100
AcDbLine
 62
250
  6
CONTINUOUS
 10
-3.7717346925
 20
-9.0364752311
 11
-3.7592602656
 21
-9.0540314008
  0
LINE
  5
37D
100
AcDbEntity
  8
CURVE
100
AcDbLine
 62
250
  6
CONTINUOUS
 10
-3.1318145594
 20
-10.581016241
 11
-3.1424775773
 21
-10.5659323207
  0
LINE
  5
37E
100
AcDbEntity
  8
CURVE
100
AcDbLine
 62
250
  6
CONTINUOUS
 10
-3.7856725826
 20
-9.0163492852
 11
-3.7717346925
 21
-9.0364752311
  0
LINE
  5
37F
100
AcDbEntity
  8
CURVE
100
AcDbLine
 62
250
  6
CONTINUOUS
 10
-2.5530612999
 20
-10.8470813352
 11
-2.5355152294
 21
-10.8725765143
  0
LINE
  5
380
100
AcDbEntity
  8
CURVE
100
AcDbLine
 62
250
  6
CONTINUOUS
 10
-3.7435526163
 20
-10.8235982089
 11
-3.7330742513
 21
-10.8389944234
  0
LINE
  5
381
100
AcDbEntity
  8
CURVE
100
AcDbLine
 62
250
  6
CONTINUOUS
 10
-3.1269952343
 20
-10.5882118757
 11
-3.1318145594
 21
-10.581016241
  0
LINE
  5
382
100
AcDbEntity
  8
CURVE
100
AcDbLine
 62
250
  6
CONTINUOUS
 10
-2.0960120504
 20
-11.8463061357
 11
-2.1057915246
 21
-11.8316410022
  0
LINE
  5
383
100
AcDbEntity
  8
CURVE
100
AcDbLine
 62
250
  6
CONTINUOUS
 10
-2.3551555595
 20
-12.5227623245
 11
-2.3454012011
 21
-12.53739862
  0
LINE
  5
384
100
AcDbEntity
  8
CURVE
100
AcDbLine
 62
250
  6
CONTINUOUS
 10
-3.1170601505
 20
-10.60388214
 11
-3.1269952343
 21
-10.5882118757
  0
LINE
  5
385
100
AcDbEntity
  8
CURVE
100
AcDbLine
 62
250
  6
CONTINUOUS
 10
-3.7535191341
 20
-10.8078278932
 11
-3.7435526163
 21
-10.8235982089
  0
LINE
  5
386
100
AcDbEntity
  8
CURVE
100
AcDbLine
 62
250
  6
CONTINUOUS
 10
-2.3643259364
 20
-12.5079346453
 11
-2.3551555595
 21
-12.5227623245
  0
LINE
  5
387
100
AcDbEntity
  8
CURVE
100
AcDbLine
 62
250
  6
CONTINUOUS
 10
-3.7629132919
 20
-10.7917855983
 11
-3.7535191341
 21
-10.8078278932
  0
LINE
  5
388
100
AcDbEntity
  8
CURVE
100
AcDbLine
 62
250
  6
CONTINUOUS
 10
-2.3731868181
 20
-12.4926022441
 11
-2.3643259364
 21
-12.5079346453
  0
LINE
  5
389
100
AcDbEntity
  8
CURVE
100
AcDbLine
 62
250
  6
CONTINUOUS
 10
-3.7715315448
 20
-10.775754281
 11
-3.7629132919
 21
-10.7917855983
  0
LINE
  5
38A
100
AcDbEntity
  8
CURVE
100
AcDbLine
 62
250
  6
CONTINUOUS
 10
-4.7028701486
 20
9.6771003205
 11
-4.7070287243
 21
9.6620111239
  0
LINE
  5
38B
100
AcDbEntity
  8
CURVE
100
AcDbLine
 62
250
  6
CONTINUOUS
 10
-4.0034658367
 20
11.165883875
 11
-4.0080647209
 21
11.1501811706
  0
LINE
  5
38C
100
AcDbEntity
  8
CURVE
100
AcDbLine
 62
250
  6
CONTINUOUS
 10
-4.6976670637
 20
9.691297766
 11
-4.7028701486
 21
9.6771003205
  0
LINE
  5
38D
100
AcDbEntity
  8
CURVE
100
AcDbLine
 62
250
  6
CONTINUOUS
 10
-3.9977368893
 20
11.1806119325
 11
-4.0034658367
 21
11.165883875
  0
LINE
  5
38E
100
AcDbEntity
  8
CURVE
100
AcDbLine
 62
250
  6
CONTINUOUS
 10
-4.0863895018
 20
7.4367947489
 11
-4.092475397
 21
7.4229564489
  0
LINE
  5
38F
100
AcDbEntity
  8
CURVE
100
AcDbLine
 62
250
  6
CONTINUOUS
 10
-3.4507047067
 20
8.7500556429
 11
-3.4445196956
 21
8.7633750476
  0
LINE
  5
390
100
AcDbEntity
  8
CURVE
100
AcDbLine
 62
250
  6
CONTINUOUS
 10
-3.0199447532
 20
9.6607923826
 11
-3.0166209641
 21
9.6678230897
  0
LINE
  5
391
100
AcDbEntity
  8
CURVE
100
AcDbLine
 62
250
  6
CONTINUOUS
 10
-2.384424429
 20
11.036133366
 11
-2.3905069683
 21
11.0235205682
  0
LINE
  5
392
100
AcDbEntity
  8
CURVE
100
AcDbLine
 62
250
  6
CONTINUOUS
 10
-2.8506322839
 20
8.8779167585
 11
-2.880480783
 21
8.8244003856
  0
LINE
  5
393
100
AcDbEntity
  8
CURVE
100
AcDbLine
 62
250
  6
CONTINUOUS
 10
-4.0792641433
 20
7.4494096476
 11
-4.0863895018
 21
7.4367947489
  0
LINE
  5
394
100
AcDbEntity
  8
CURVE
100
AcDbLine
 62
250
  6
CONTINUOUS
 10
-3.027305935
 20
9.6478017841
 11
-3.0199447532
 21
9.6607923826
  0
LINE
  5
395
100
AcDbEntity
  8
CURVE
100
AcDbLine
 62
250
  6
CONTINUOUS
 10
-3.4578405314
 20
8.7378923849
 11
-3.4507047067
 21
8.7500556429
  0
LINE
  5
396
100
AcDbEntity
  8
CURVE
100
AcDbLine
 62
250
  6
CONTINUOUS
 10
-2.3770603355
 20
11.0483349586
 11
-2.384424429
 21
11.036133366
  0
LINE
  5
397
100
AcDbEntity
  8
CURVE
100
AcDbLine
 62
250
  6
CONTINUOUS
 10
-2.0428302292
 20
9.5545750677
 11
-2.0354897487
 21
9.566706986
  0
LINE
  5
398
100
AcDbEntity
  8
CURVE
100
AcDbLine
 62
250
  6
CONTINUOUS
 10
-3.0356385794
 20
9.6361402166
 11
-3.027305935
 21
9.6478017841
  0
LINE
  5
399
100
AcDbEntity
  8
CURVE
100
AcDbLine
 62
250
  6
CONTINUOUS
 10
-3.0908996171
 20
7.3505965395
 11
-3.0826384493
 21
7.3621253692
  0
LINE
  5
39A
100
AcDbEntity
  8
CURVE
100
AcDbLine
 62
250
  6
CONTINUOUS
 10
-4.0711495555
 20
7.4607253501
 11
-4.0792641433
 21
7.4494096476
  0
LINE
  5
39B
100
AcDbEntity
  8
CURVE
100
AcDbLine
 62
250
  6
CONTINUOUS
 10
-3.4658685802
 20
8.7269662849
 11
-3.4578405314
 21
8.7378923849
  0
LINE
  5
39C
100
AcDbEntity
  8
CURVE
100
AcDbLine
 62
250
  6
CONTINUOUS
 10
-2.0510798041
 20
9.5436700118
 11
-2.0428302292
 21
9.5545750677
  0
LINE
  5
39D
100
AcDbEntity
  8
CURVE
100
AcDbLine
 62
250
  6
CONTINUOUS
 10
-2.8150462273
 20
8.9243378388
 11
-2.8506322839
 21
8.8779167585
  0
LINE
  5
39E
100
AcDbEntity
  8
CURVE
100
AcDbLine
 62
250
  6
CONTINUOUS
 10
-3.1001078951
 20
7.3404236285
 11
-3.0908996171
 21
7.3505965395
  0
LINE
  5
39F
100
AcDbEntity
  8
CURVE
100
AcDbLine
 62
250
  6
CONTINUOUS
 10
-4.0621005177
 20
7.4706785276
 11
-4.0711495555
 21
7.4607253501
  0
LINE
  5
3A0
100
AcDbEntity
  8
CURVE
100
AcDbLine
 62
250
  6
CONTINUOUS
 10
-1.4263872284
 20
8.9921784654
 11
-1.435864802
 21
8.9818122001
  0
LINE
  5
3A1
100
AcDbEntity
  8
CURVE
100
AcDbLine
 62
250
  6
CONTINUOUS
 10
-2.0601759753
 20
9.5340561857
 11
-2.0510798041
 21
9.5436700118
  0
LINE
  5
3A2
100
AcDbEntity
  8
CURVE
100
AcDbLine
 62
250
  6
CONTINUOUS
 10
-3.1101960341
 20
7.3316668715
 11
-3.1001078951
 21
7.3404236285
  0
LINE
  5
3A3
100
AcDbEntity
  8
CURVE
100
AcDbLine
 62
250
  6
CONTINUOUS
 10
-1.4160119774
 20
9.0011403338
 11
-1.4263872284
 21
8.9921784654
  0
LINE
  5
3A4
100
AcDbEntity
  8
CURVE
100
AcDbLine
 62
250
  6
CONTINUOUS
 10
-0.4444309306
 20
8.8705803064
 11
-0.4339901056
 21
8.8794168545
  0
LINE
  5
3A5
100
AcDbEntity
  8
CURVE
100
AcDbLine
 62
250
  6
CONTINUOUS
 10
-2.4620109503
 20
6.8036441148
 11
-2.4717649139
 21
6.7954056894
  0
LINE
  5
3A6
100
AcDbEntity
  8
CURVE
100
AcDbLine
 62
250
  6
CONTINUOUS
 10
-1.8049047799
 20
7.3330149286
 11
-1.759001498
 21
7.3647176774
  0
LWPOLYLINE
  5
3A7
100
AcDbEntity
  8
ASSI
100
AcDbPolyline
 62
250
  6
CONTINUOUS
 90
16
 70
0
 10
-9.1996770084
 20
3.2734100658
 10
-9.2060822408
 20
3.2690215662
 10
-9.2116533478
 20
3.264385823
 10
-9.2163903293
 20
3.2595028363
 10
-9.2203241621
 20
3.2543205446
 10
-9.2234238695
 20
3.2488910093
 10
-9.2255965207
 20
3.2433704144
 10
-9.2268137757
 20
3.2377576653
 10
-9.2271039745
 20
3.2320538567
 10
-9.2264592066
 20
3.2264184567
 10
-9.2248494808
 20
3.2208507343
 10
-9.2223047883
 20
3.2153514205
 10
-9.2189071919
 20
3.2100821773
 10
-9.2146840462
 20
3.2050968922
 10
-9.2096079966
 20
3.2003416776
 10
-9.2036790432
 20
3.1958165337
  0
LWPOLYLINE
  5
3A8
100
AcDbEntity
  8
ASSI
100
AcDbPolyline
 62
7
  6
CONTINUOUS
 90
11
 70
0
 10
-9.4078918304
 20
3.2882663407
 10
-9.4398067896
 20
3.266714078
 10
-9.478187613
 20
3.2352784141
 10
-9.5125976232
 20
3.2004268566
 10
-9.5425935605
 20
3.1627948139
 10
-9.5680664431
 20
3.1227548334
 10
-9.5890442195
 20
3.080404626
 10
-9.6052876523
 20
3.036315639
 10
-9.616642708
 20
2.9911090485
 10
-9.6230957731
 20
2.9449709757
 10
-9.6246654118
 20
2.9073300974
  0
LINE
  5
3A9
100
AcDbEntity
  8
CURVE
100
AcDbLine
 62
250
  6
CONTINUOUS
 10
-3.1210944214
 20
7.3243723627
 11
-3.1101960341
 21
7.3316668715
  0
LINE
  5
3AA
100
AcDbEntity
  8
CURVE
100
AcDbLine
 62
250
  6
CONTINUOUS
 10
-1.0266412602
 20
7.6334922461
 11
-1.037280168
 21
7.6263839399
  0
LINE
  5
3AB
100
AcDbEntity
  8
CURVE
100
AcDbLine
 62
250
  6
CONTINUOUS
 10
-0.4557201821
 20
8.8631790649
 11
-0.4444309306
 21
8.8705803064
  0
LINE
  5
3AC
100
AcDbEntity
  8
CURVE
100
AcDbLine
 62
250
  6
CONTINUOUS
 10
-2.4515295271
 20
6.8105116729
 11
-2.4620109503
 21
6.8036441148
  0
LINE
  5
3AD
100
AcDbEntity
  8
ASSI
100
AcDbLine
 62
7
  6
CONTINUOUS
 10
-9.2740010241
 20
3.3711280951
 11
-9.4076864432
 21
3.2884052967
  0
LINE
  5
3AE
100
AcDbEntity
  8
ASSI
100
AcDbLine
 62
250
  6
CONTINUOUS
 10
-9.1635765392
 20
3.2957485665
 11
-9.1996770084
 21
3.2734100658
  0
LINE
  5
3AF
100
AcDbEntity
  8
ASSI
100
AcDbLine
 62
250
  6
CONTINUOUS
 10
6.4899683956
 20
13.229422591
 11
8.3531522495
 21
14.3601691717
  0
LINE
  5
3B0
100
AcDbEntity
  8
ASSI
100
AcDbLine
 62
250
  6
CONTINUOUS
 10
6.8526492382
 20
12.6230196098
 11
8.737939337
 21
13.7671822369
  0
LINE
  5
3B1
100
AcDbEntity
  8
CURVE
100
AcDbLine
 62
250
  6
CONTINUOUS
 10
-3.7535237785
 20
6.9591447488
 11
-3.1210944214
 21
7.3243723627
  0
LINE
  5
3B2
100
AcDbEntity
  8
CURVE
100
AcDbLine
 62
250
  6
CONTINUOUS
 10
-1.1112183039
 20
8.4847724763
 11
-0.4557201821
 21
8.8631790649
  0
LWPOLYLINE
  5
3B3
100
AcDbEntity
  8
ASSI
100
AcDbPolyline
 62
250
  6
CONTINUOUS
 90
13
 70
0
 10
-9.2036790432
 20
3.1958165337
 10
-9.2434284578
 20
3.1733854179
 10
-9.2824624097
 20
3.1458241166
 10
-9.3201193905
 20
3.1135997112
 10
-9.3557612276
 20
3.0772583087
 10
-9.3887838987
 20
3.0374157866
 10
-9.4186277687
 20
2.9947473561
 10
-9.4447870737
 20
2.9499761191
 10
-9.4668184919
 20
2.9038608135
 10
-9.484348657
 20
2.8571829555
 10
-9.4970804852
 20
2.8107335946
 10
-9.5047982103
 20
2.7652999079
 10
-9.5073710401
 20
2.7216518601
  0
LINE
  5
3B4
100
AcDbEntity
  8
CURVE
100
AcDbLine
 62
250
  6
CONTINUOUS
 10
-1.4502424024
 20
6.7275185665
 11
-1.4618721409
 21
6.7216497052
  0
LINE
  5
3B5
100
AcDbEntity
  8
CURVE
100
AcDbLine
 62
250
  6
CONTINUOUS
 10
-2.4405316531
 20
6.8160444561
 11
-2.4515295271
 21
6.8105116729
  0
LINE
  5
3B6
100
AcDbEntity
  8
CURVE
100
AcDbLine
 62
250
  6
CONTINUOUS
 10
-1.1230224989
 20
8.4788416279
 11
-1.1112183039
 21
8.4847724763
  0
LINE
  5
3B7
100
AcDbEntity
  8
CURVE
100
AcDbLine
 62
250
  6
CONTINUOUS
 10
-3.7648566413
 20
6.9535241085
 11
-3.7535237785
 21
6.9591447488
  0
LINE
  5
3B8
100
AcDbEntity
  8
CURVE
100
AcDbLine
 62
250
  6
CONTINUOUS
 10
-1.014968046
 20
7.6392236018
 11
-1.0266412602
 21
7.6334922461
  0
LINE
  5
3B9
100
AcDbEntity
  8
CURVE
100
AcDbLine
 62
250
  6
CONTINUOUS
 10
-1.8550594773
 20
7.3092653888
 11
-1.8049047799
 21
7.3330149286
  0
LINE
  5
3BA
100
AcDbEntity
  8
CURVE
100
AcDbLine
 62
250
  6
CONTINUOUS
 10
-2.4286791989
 20
6.8202759266
 11
-2.4405316531
 21
6.8160444561
  0
LINE
  5
3BB
100
AcDbEntity
  8
CURVE
100
AcDbLine
 62
250
  6
CONTINUOUS
 10
-1.4377239424
 20
6.7319667353
 11
-1.4502424024
 21
6.7275185665
  0
LINE
  5
3BC
100
AcDbEntity
  8
CURVE
100
AcDbLine
 62
250
  6
CONTINUOUS
 10
-1.0025522638
 20
7.6435968612
 11
-1.014968046
 21
7.6392236018
  0
LINE
  5
3BD
100
AcDbEntity
  8
CURVE
100
AcDbLine
 62
250
  6
CONTINUOUS
 10
-3.7770622402
 20
6.949331377
 11
-3.7648566413
 21
6.9535241085
  0
LINE
  5
3BE
100
AcDbEntity
  8
CURVE
100
AcDbLine
 62
250
  6
CONTINUOUS
 10
-1.9089682263
 20
7.2933342523
 11
-1.8550594773
 21
7.3092653888
  0
LINE
  5
3BF
100
AcDbEntity
  8
CURVE
100
AcDbLine
 62
250
  6
CONTINUOUS
 10
-3.7807599746
 20
-8.6363635111
 11
-3.7863995963
 21
-8.6375652477
  0
LINE
  5
3C0
100
AcDbEntity
  8
CURVE
100
AcDbLine
 62
250
  6
CONTINUOUS
 10
-2.4267873635
 20
-8.5303906418
 11
-2.4371284143
 21
-8.5323417233
  0
LINE
  5
3C1
100
AcDbEntity
  8
CURVE
100
AcDbLine
 62
250
  6
CONTINUOUS
 10
-2.2694983918
 20
-8.590360627
 11
-2.2778645404
 21
-8.5836951887
  0
LINE
  5
3C2
100
AcDbEntity
  8
CURVE
100
AcDbLine
 62
250
  6
CONTINUOUS
 10
-2.2571758168
 20
-8.6009023683
 11
-2.2694983918
 21
-8.590360627
  0
LINE
  5
3C3
100
AcDbEntity
  8
CURVE
100
AcDbLine
 62
250
  6
CONTINUOUS
 10
-2.2450654709
 20
-8.6121358566
 11
-2.2571758168
 21
-8.6009023683
  0
LINE
  5
3C4
100
AcDbEntity
  8
CURVE
100
AcDbLine
 62
250
  6
CONTINUOUS
 10
-0.8291848139
 20
-10.3163910132
 11
-0.8419965657
 21
-10.3043639958
  0
LINE
  5
3C5
100
AcDbEntity
  8
CURVE
100
AcDbLine
 62
250
  6
CONTINUOUS
 10
-2.2332221261
 20
-8.6240069137
 11
-2.2450654709
 21
-8.6121358566
  0
LINE
  5
3C6
100
AcDbEntity
  8
CURVE
100
AcDbLine
 62
250
  6
CONTINUOUS
 10
-0.8167604339
 20
-10.328998368
 11
-0.8291848139
 21
-10.3163910132
  0
LINE
  5
3C7
100
AcDbEntity
  8
CURVE
100
AcDbLine
 62
250
  6
CONTINUOUS
 10
-2.2216970632
 20
-8.6364600196
 11
-2.2332221261
 21
-8.6240069137
  0
LINE
  5
3C8
100
AcDbEntity
  8
CURVE
100
AcDbLine
 62
250
  6
CONTINUOUS
 10
-2.3883079059
 20
-9.4493448054
 11
-2.3799132983
 21
-9.4585207924
  0
LINE
  5
3C9
100
AcDbEntity
  8
CURVE
100
AcDbLine
 62
250
  6
CONTINUOUS
 10
-0.8047509832
 20
-10.3421498005
 11
-0.8167604339
 21
-10.328998368
  0
LINE
  5
3CA
100
AcDbEntity
  8
CURVE
100
AcDbLine
 62
250
  6
CONTINUOUS
 10
-1.3636588837
 20
-10.6885612858
 11
-1.3513327749
 21
-10.7021027201
  0
LINE
  5
3CB
100
AcDbEntity
  8
CURVE
100
AcDbLine
 62
250
  6
CONTINUOUS
 10
-2.3994802604
 20
-9.4364062753
 11
-2.3883079059
 21
-9.4493448054
  0
LINE
  5
3CC
100
AcDbEntity
  8
CURVE
100
AcDbLine
 62
250
  6
CONTINUOUS
 10
-2.2104683517
 20
-8.6495177853
 11
-2.2216970632
 21
-8.6364600196
  0
LINE
  5
3CD
100
AcDbEntity
  8
CURVE
100
AcDbLine
 62
250
  6
CONTINUOUS
 10
-1.3749410298
 20
-10.6751984941
 11
-1.3636588837
 21
-10.6885612858
  0
LINE
  5
3CE
100
AcDbEntity
  8
CURVE
100
AcDbLine
 62
250
  6
CONTINUOUS
 10
-0.7928897953
 20
-10.3562283084
 11
-0.8047509832
 21
-10.3421498005
  0
LINE
  5
3CF
100
AcDbEntity
  8
CURVE
100
AcDbLine
 62
250
  6
CONTINUOUS
 10
-2.0414829924
 20
-10.3051443958
 11
-2.0609192065
 21
-10.2816917219
  0
LINE
  5
3D0
100
AcDbEntity
  8
CURVE
100
AcDbLine
 62
250
  6
CONTINUOUS
 10
-2.4103505194
 20
-9.422869468
 11
-2.3994802604
 21
-9.4364062753
  0
LINE
  5
3D1
100
AcDbEntity
  8
CURVE
100
AcDbLine
 62
250
  6
CONTINUOUS
 10
-2.1994748522
 20
-8.6632535209
 11
-2.2104683517
 21
-8.6495177853
  0
LINE
  5
3D2
100
AcDbEntity
  8
CURVE
100
AcDbLine
 62
250
  6
CONTINUOUS
 10
-0.7882181999
 20
-10.3620661562
 11
-0.7928897953
 21
-10.3562283084
  0
LINE
  5
3D3
100
AcDbEntity
  8
CURVE
100
AcDbLine
 62
250
  6
CONTINUOUS
 10
-2.0226534457
 20
-10.3291753421
 11
-2.0414829924
 21
-10.3051443958
  0
LINE
  5
3D4
100
AcDbEntity
  8
CURVE
100
AcDbLine
 62
250
  6
CONTINUOUS
 10
-1.3859569351
 20
-10.6611229371
 11
-1.3749410298
 21
-10.6751984941
  0
LINE
  5
3D5
100
AcDbEntity
  8
CURVE
100
AcDbLine
 62
250
  6
CONTINUOUS
 10
-0.7769099774
 20
-10.3769429905
 11
-0.7882181999
 21
-10.3620661562
  0
LINE
  5
3D6
100
AcDbEntity
  8
CURVE
100
AcDbLine
 62
250
  6
CONTINUOUS
 10
-2.4208925278
 20
-9.4087618865
 11
-2.4103505194
 21
-9.422869468
  0
LINE
  5
3D7
100
AcDbEntity
  8
CURVE
100
AcDbLine
 62
250
  6
CONTINUOUS
 10
-0.7397998443
 20
-12.1816423086
 11
-0.7535223809
 21
-12.163266648
  0
LINE
  5
3D8
100
AcDbEntity
  8
CURVE
100
AcDbLine
 62
250
  6
CONTINUOUS
 10
-2.1887894536
 20
-8.6775875655
 11
-2.1994748522
 21
-8.6632535209
  0
LINE
  5
3D9
100
AcDbEntity
  8
CURVE
100
AcDbLine
 62
250
  6
CONTINUOUS
 10
-2.0045007363
 20
-10.3536856732
 11
-2.0226534457
 21
-10.3291753421
  0
LINE
  5
3DA
100
AcDbEntity
  8
CURVE
100
AcDbLine
 62
250
  6
CONTINUOUS
 10
-0.7256403835
 20
-12.2011050359
 11
-0.7397998443
 21
-12.1816423086
  0
LINE
  5
3DB
100
AcDbEntity
  8
CURVE
100
AcDbLine
 62
250
  6
CONTINUOUS
 10
-1.3966728263
 20
-10.6463641941
 11
-1.3859569351
 21
-10.6611229371
  0
LINE
  5
3DC
100
AcDbEntity
  8
CURVE
100
AcDbLine
 62
250
  6
CONTINUOUS
 10
-1.3641050566
 20
-11.9712517795
 11
-1.3500303343
 21
-11.9907634337
  0
LINE
  5
3DD
100
AcDbEntity
  8
CURVE
100
AcDbLine
 62
250
  6
CONTINUOUS
 10
-3.1778206098
 20
-9.2342373165
 11
-3.1909104606
 21
-9.2160719456
  0
LINE
  5
3DE
100
AcDbEntity
  8
CURVE
100
AcDbLine
 62
250
  6
CONTINUOUS
 10
-0.7660968014
 20
-10.3922574285
 11
-0.7769099774
 21
-10.3769429905
  0
LINE
  5
3DF
100
AcDbEntity
  8
CURVE
100
AcDbLine
 62
250
  6
CONTINUOUS
 10
-3.1639978003
 20
-9.2539673784
 11
-3.1778206098
 21
-9.2342373165
  0
LINE
  5
3E0
100
AcDbEntity
  8
CURVE
100
AcDbLine
 62
250
  6
CONTINUOUS
 10
-1.987087667
 20
-10.3785789472
 11
-2.0045007363
 21
-10.3536856732
  0
LINE
  5
3E1
100
AcDbEntity
  8
CURVE
100
AcDbLine
 62
250
  6
CONTINUOUS
 10
-2.4310776722
 20
-9.3941151734
 11
-2.4208925278
 21
-9.4087618865
  0
LINE
  5
3E2
100
AcDbEntity
  8
CURVE
100
AcDbLine
 62
250
  6
CONTINUOUS
 10
-2.1784865155
 20
-8.6924292755
 11
-2.1887894536
 21
-8.6775875655
  0
LINE
  5
3E3
100
AcDbEntity
  8
CURVE
100
AcDbLine
 62
250
  6
CONTINUOUS
 10
-0.7142985354
 20
-12.2175130219
 11
-0.7256403835
 21
-12.2011050359
  0
LINE
  5
3E4
100
AcDbEntity
  8
CURVE
100
AcDbLine
 62
250
  6
CONTINUOUS
 10
-1.3753762582
 20
-11.954803003
 11
-1.3641050566
 21
-11.9712517795
  0
LINE
  5
3E5
100
AcDbEntity
  8
CURVE
100
AcDbLine
 62
250
  6
CONTINUOUS
 10
-1.4070502838
 20
-10.6309597244
 11
-1.3966728263
 21
-10.6463641941
  0
LINE
  5
3E6
100
AcDbEntity
  8
CURVE
100
AcDbLine
 62
250
  6
CONTINUOUS
 10
-3.1528351733
 20
-9.2707385109
 11
-3.1639978003
 21
-9.2539673784
  0
LINE
  5
3E7
100
AcDbEntity
  8
CURVE
100
AcDbLine
 62
250
  6
CONTINUOUS
 10
-1.9702370783
 20
-10.4041097563
 11
-1.987087667
 21
-10.3785789472
  0
LINE
  5
3E8
100
AcDbEntity
  8
CURVE
100
AcDbLine
 62
250
  6
CONTINUOUS
 10
-3.7968291536
 20
-8.9994097362
 11
-3.7856725826
 21
-9.0163492852
  0
LINE
  5
3E9
100
AcDbEntity
  8
CURVE
100
AcDbLine
 62
250
  6
CONTINUOUS
 10
-2.172206343
 20
-8.7020251958
 11
-2.1784865155
 21
-8.6924292755
  0
LINE
  5
3EA
100
AcDbEntity
  8
CURVE
100
AcDbLine
 62
250
  6
CONTINUOUS
 10
-2.5699014332
 20
-10.8211566034
 11
-2.5530612999
 21
-10.8470813352
  0
LINE
  5
3EB
100
AcDbEntity
  8
CURVE
100
AcDbLine
 62
250
  6
CONTINUOUS
 10
-0.704712638
 20
-12.2323280948
 11
-0.7142985354
 21
-12.2175130219
  0
LINE
  5
3EC
100
AcDbEntity
  8
CURVE
100
AcDbLine
 62
250
  6
CONTINUOUS
 10
-2.4408751349
 20
-9.3789655659
 11
-2.4310776722
 21
-9.3941151734
  0
LINE
  5
3ED
100
AcDbEntity
  8
CURVE
100
AcDbLine
 62
250
  6
CONTINUOUS
 10
-1.3849006734
 20
-11.9399524311
 11
-1.3753762582
 21
-11.954803003
  0
LINE
  5
3EE
100
AcDbEntity
  8
CURVE
100
AcDbLine
 62
250
  6
CONTINUOUS
 10
-1.4170465941
 20
-10.6149559752
 11
-1.4070502838
 21
-10.6309597244
  0
LINE
  5
3EF
100
AcDbEntity
  8
CURVE
100
AcDbLine
 62
250
  6
CONTINUOUS
 10
-3.1433795323
 20
-9.2859037968
 11
-3.1528351733
 21
-9.2707385109
  0
LINE
  5
3F0
100
AcDbEntity
  8
CURVE
100
AcDbLine
 62
250
  6
CONTINUOUS
 10
-1.953968957
 20
-10.4302534778
 11
-1.9702370783
 21
-10.4041097563
  0
LINE
  5
3F1
100
AcDbEntity
  8
CURVE
100
AcDbLine
 62
250
  6
CONTINUOUS
 10
-2.0868363075
 20
-11.8611314476
 11
-2.0960120504
 21
-11.8463061357
  0
LINE
  5
3F2
100
AcDbEntity
  8
CURVE
100
AcDbLine
 62
250
  6
CONTINUOUS
 10
-3.8062414622
 20
-8.9841622239
 11
-3.7968291536
 21
-8.9994097362
  0
LINE
  5
3F3
100
AcDbEntity
  8
CURVE
100
AcDbLine
 62
250
  6
CONTINUOUS
 10
-2.5859764768
 20
-10.7949025967
 11
-2.5699014332
 21
-10.8211566034
  0
LINE
  5
3F4
100
AcDbEntity
  8
CURVE
100
AcDbLine
 62
250
  6
CONTINUOUS
 10
-2.447255998
 20
-9.3684705311
 11
-2.4408751349
 21
-9.3789655659
  0
LINE
  5
3F5
100
AcDbEntity
  8
CURVE
100
AcDbLine
 62
250
  6
CONTINUOUS
 10
-0.6964206051
 20
-12.2461910956
 11
-0.704712638
 21
-12.2323280948
  0
LINE
  5
3F6
100
AcDbEntity
  8
CURVE
100
AcDbLine
 62
250
  6
CONTINUOUS
 10
-1.3931383124
 20
-11.9260580239
 11
-1.3849006734
 21
-11.9399524311
  0
LINE
  5
3F7
100
AcDbEntity
  8
CURVE
100
AcDbLine
 62
250
  6
CONTINUOUS
 10
-1.4219036518
 20
-10.6067185202
 11
-1.4170465941
 21
-10.6149559752
  0
LINE
  5
3F8
100
AcDbEntity
  8
CURVE
100
AcDbLine
 62
250
  6
CONTINUOUS
 10
-3.1077431633
 20
-10.619754097
 11
-3.1170601505
 21
-10.60388214
  0
LINE
  5
3F9
100
AcDbEntity
  8
CURVE
100
AcDbLine
 62
250
  6
CONTINUOUS
 10
-1.9383174701
 20
-10.4569648293
 11
-1.953968957
 21
-10.4302534778
  0
LINE
  5
3FA
100
AcDbEntity
  8
CURVE
100
AcDbLine
 62
250
  6
CONTINUOUS
 10
-2.0778802286
 20
-11.8766133383
 11
-2.0868363075
 21
-11.8611314476
  0
LINE
  5
3FB
100
AcDbEntity
  8
CURVE
100
AcDbLine
 62
250
  6
CONTINUOUS
 10
-3.1351987044
 20
-9.3000802824
 11
-3.1433795323
 21
-9.2859037968
  0
LINE
  5
3FC
100
AcDbEntity
  8
CURVE
100
AcDbLine
 62
250
  6
CONTINUOUS
 10
-2.6013413125
 20
-10.7681758256
 11
-2.5859764768
 21
-10.7949025967
  0
LINE
  5
3FD
100
AcDbEntity
  8
CURVE
100
AcDbLine
 62
250
  6
CONTINUOUS
 10
-3.8143622619
 20
-8.9699523056
 11
-3.8062414622
 21
-8.9841622239
  0
LINE
  5
3FE
100
AcDbEntity
  8
CURVE
100
AcDbLine
 62
250
  6
CONTINUOUS
 10
-2.4560262106
 20
-9.3530862841
 11
-2.447255998
 21
-9.3684705311
  0
LINE
  5
3FF
100
AcDbEntity
  8
CURVE
100
AcDbLine
 62
250
  6
CONTINUOUS
 10
-1.9233178772
 20
-10.4841943553
 11
-1.9383174701
 21
-10.4569648293
  0
LINE
  5
400
100
AcDbEntity
  8
CURVE
100
AcDbLine
 62
250
  6
CONTINUOUS
 10
-3.0989820483
 20
-10.6358487055
 11
-3.1077431633
 21
-10.619754097
  0
LINE
  5
401
100
AcDbEntity
  8
CURVE
100
AcDbLine
 62
250
  6
CONTINUOUS
 10
-1.4009516817
 20
-11.9117037381
 11
-1.3931383124
 21
-11.9260580239
  0
LINE
  5
402
100
AcDbEntity
  8
CURVE
100
AcDbLine
 62
250
  6
CONTINUOUS
 10
-2.6160370807
 20
-10.7409583618
 11
-2.6013413125
 21
-10.7681758256
  0
LINE
  5
403
100
AcDbEntity
  8
CURVE
100
AcDbLine
 62
250
  6
CONTINUOUS
 10
-2.0694613351
 20
-11.8923639411
 11
-2.0778802286
 21
-11.8766133383
  0
LINE
  5
404
100
AcDbEntity
  8
CURVE
100
AcDbLine
 62
250
  6
CONTINUOUS
 10
-2.3815699568
 20
-12.4769037523
 11
-2.3731868181
 21
-12.4926022441
  0
LINE
  5
405
100
AcDbEntity
  8
CURVE
100
AcDbLine
 62
250
  6
CONTINUOUS
 10
-3.1276249038
 20
-9.314434588
 11
-3.1351987044
 21
-9.3000802824
  0
LINE
  5
406
100
AcDbEntity
  8
CURVE
100
AcDbLine
 62
250
  6
CONTINUOUS
 10
-3.8220265307
 20
-8.9552945001
 11
-3.8143622619
 21
-8.9699523056
  0
LINE
  5
407
100
AcDbEntity
  8
CURVE
100
AcDbLine
 62
250
  6
CONTINUOUS
 10
-2.6300002627
 20
-10.7133578973
 11
-2.6160370807
 21
-10.7409583618
  0
LINE
  5
408
100
AcDbEntity
  8
CURVE
100
AcDbLine
 62
250
  6
CONTINUOUS
 10
-3.0908005588
 20
-10.6522078206
 11
-3.0989820483
 21
-10.6358487055
  0
LINE
  5
409
100
AcDbEntity
  8
CURVE
100
AcDbLine
 62
250
  6
CONTINUOUS
 10
-2.0642920287
 20
-11.90272089
 11
-2.0694613351
 21
-11.8923639411
  0
LINE
  5
40A
100
AcDbEntity
  8
CURVE
100
AcDbLine
 62
250
  6
CONTINUOUS
 10
-3.7796521863
 20
-10.7593140478
 11
-3.7715315448
 21
-10.775754281
  0
LINE
  5
40B
100
AcDbEntity
  8
CURVE
100
AcDbLine
 62
250
  6
CONTINUOUS
 10
-2.3894221767
 20
-12.4609275218
 11
-2.3815699568
 21
-12.4769037523
  0
LINE
  5
40C
100
AcDbEntity
  8
CURVE
100
AcDbLine
 62
250
  6
CONTINUOUS
 10
-3.1203926562
 20
-9.3294970391
 11
-3.1276249038
 21
-9.314434588
  0
LINE
  5
40D
100
AcDbEntity
  8
CURVE
100
AcDbLine
 62
250
  6
CONTINUOUS
 10
-3.8293035321
 20
-8.9400128754
 11
-3.8220265307
 21
-8.9552945001
  0
LINE
  5
40E
100
AcDbEntity
  8
CURVE
100
AcDbLine
 62
250
  6
CONTINUOUS
 10
-2.6436733516
 20
-10.6844221604
 11
-2.6300002627
 21
-10.7133578973
  0
LINE
  5
40F
100
AcDbEntity
  8
CURVE
100
AcDbLine
 62
250
  6
CONTINUOUS
 10
-2.0568557954
 20
-11.9187365183
 11
-2.0642920287
 21
-11.90272089
  0
LINE
  5
410
100
AcDbEntity
  8
CURVE
100
AcDbLine
 62
250
  6
CONTINUOUS
 10
-3.0832328148
 20
-10.6687688341
 11
-3.0908005588
 21
-10.6522078206
  0
LINE
  5
411
100
AcDbEntity
  8
CURVE
100
AcDbLine
 62
250
  6
CONTINUOUS
 10
-3.7872131222
 20
-10.7425723395
 11
-3.7796521863
 21
-10.7593140478
  0
LINE
  5
412
100
AcDbEntity
  8
CURVE
100
AcDbLine
 62
250
  6
CONTINUOUS
 10
-2.3966919189
 20
-12.4447693748
 11
-2.3894221767
 21
-12.4609275218
  0
LINE
  5
413
100
AcDbEntity
  8
CURVE
100
AcDbLine
 62
250
  6
CONTINUOUS
 10
-2.6563764056
 20
-10.6553619516
 11
-2.6436733516
 21
-10.6844221604
  0
LINE
  5
414
100
AcDbEntity
  8
CURVE
100
AcDbLine
 62
250
  6
CONTINUOUS
 10
-3.1135373651
 20
-9.3452440523
 11
-3.1203926562
 21
-9.3294970391
  0
LINE
  5
415
100
AcDbEntity
  8
CURVE
100
AcDbLine
 62
250
  6
CONTINUOUS
 10
-3.8361308703
 20
-8.9241961882
 11
-3.8293035321
 21
-8.9400128754
  0
LINE
  5
416
100
AcDbEntity
  8
CURVE
100
AcDbLine
 62
250
  6
CONTINUOUS
 10
-2.4010024517
 20
-12.4344138392
 11
-2.3966919189
 21
-12.4447693748
  0
LINE
  5
417
100
AcDbEntity
  8
CURVE
100
AcDbLine
 62
250
  6
CONTINUOUS
 10
-3.0763118088
 20
-10.6854656378
 11
-3.0832328148
 21
-10.6687688341
  0
LINE
  5
418
100
AcDbEntity
  8
CURVE
100
AcDbLine
 62
250
  6
CONTINUOUS
 10
-3.7941541964
 20
-10.7256470706
 11
-3.7872131222
 21
-10.7425723395
  0
LINE
  5
419
100
AcDbEntity
  8
CURVE
100
AcDbLine
 62
250
  6
CONTINUOUS
 10
-3.8424410647
 20
-8.9079584095
 11
-3.8361308703
 21
-8.9241961882
  0
LINE
  5
41A
100
AcDbEntity
  8
CURVE
100
AcDbLine
 62
250
  6
CONTINUOUS
 10
-2.4072056131
 20
-12.4182064954
 11
-2.4010024517
 21
-12.4344138392
  0
LINE
  5
41B
100
AcDbEntity
  8
CURVE
100
AcDbLine
 62
250
  6
CONTINUOUS
 10
-3.7969460093
 20
-10.718311906
 11
-3.7941541964
 21
-10.7256470706
  0
LINE
  5
41C
100
AcDbEntity
  8
CURVE
100
AcDbLine
 62
250
  6
CONTINUOUS
 10
-3.0700686778
 20
-10.7022295075
 11
-3.0763118088
 21
-10.6854656378
  0
LINE
  5
41D
100
AcDbEntity
  8
CURVE
100
AcDbLine
 62
250
  6
CONTINUOUS
 10
-3.8028951159
 20
-10.7013689962
 11
-3.7969460093
 21
-10.718311906
  0
LINE
  5
41E
100
AcDbEntity
  8
CURVE
100
AcDbLine
 62
250
  6
CONTINUOUS
 10
-3.8079202123
 20
-10.6853497463
 11
-3.8028951159
 21
-10.7013689962
  0
LINE
  5
41F
100
AcDbEntity
  8
CURVE
100
AcDbLine
 62
250
  6
CONTINUOUS
 10
-4.7121464212
 20
9.6296154823
 11
-4.7130973855
 21
9.6125313923
  0
LINE
  5
420
100
AcDbEntity
  8
CURVE
100
AcDbLine
 62
250
  6
CONTINUOUS
 10
-4.1029985626
 20
7.3828302106
 11
-4.1050941731
 21
7.3655163996
  0
LINE
  5
421
100
AcDbEntity
  8
CURVE
100
AcDbLine
 62
250
  6
CONTINUOUS
 10
-4.7101236904
 20
9.646144985
 11
-4.7121464212
 21
9.6296154823
  0
LINE
  5
422
100
AcDbEntity
  8
CURVE
100
AcDbLine
 62
250
  6
CONTINUOUS
 10
-4.0115062179
 20
11.1336500106
 11
-4.013778074
 21
11.1164352533
  0
LINE
  5
423
100
AcDbEntity
  8
CURVE
100
AcDbLine
 62
250
  6
CONTINUOUS
 10
-4.7070287243
 20
9.6620111239
 11
-4.7101236904
 21
9.646144985
  0
LINE
  5
424
100
AcDbEntity
  8
CURVE
100
AcDbLine
 62
250
  6
CONTINUOUS
 10
-3.435501795
 20
8.791777617
 11
-3.4323626533
 21
8.8077861029
  0
LINE
  5
425
100
AcDbEntity
  8
CURVE
100
AcDbLine
 62
250
  6
CONTINUOUS
 10
-4.0997528029
 20
7.3993033595
 11
-4.1029985626
 21
7.3828302106
  0
LINE
  5
426
100
AcDbEntity
  8
CURVE
100
AcDbLine
 62
250
  6
CONTINUOUS
 10
-4.0080647209
 20
11.1501811706
 11
-4.0115062179
 21
11.1336500106
  0
LINE
  5
427
100
AcDbEntity
  8
CURVE
100
AcDbLine
 62
250
  6
CONTINUOUS
 10
-2.9045736356
 20
8.7646430108
 11
-2.9224085139
 21
8.6992158995
  0
LINE
  5
428
100
AcDbEntity
  8
CURVE
100
AcDbLine
 62
250
  6
CONTINUOUS
 10
-3.4397131013
 20
8.776569264
 11
-3.435501795
 21
8.791777617
  0
LINE
  5
429
100
AcDbEntity
  8
CURVE
100
AcDbLine
 62
250
  6
CONTINUOUS
 10
-4.0953720625
 20
7.414828769
 11
-4.0997528029
 21
7.3993033595
  0
LINE
  5
42A
100
AcDbEntity
  8
CURVE
100
AcDbLine
 62
250
  6
CONTINUOUS
 10
-2.3959207957
 20
11.0092303555
 11
-2.4002788387
 21
10.9940196615
  0
LINE
  5
42B
100
AcDbEntity
  8
CURVE
100
AcDbLine
 62
250
  6
CONTINUOUS
 10
-3.0664269373
 20
7.3966378987
 11
-3.0619604163
 21
7.4121841906
  0
LINE
  5
42C
100
AcDbEntity
  8
CURVE
100
AcDbLine
 62
250
  6
CONTINUOUS
 10
-3.0108720893
 20
9.6825626529
 11
-3.0062640569
 21
9.6982706395
  0
LINE
  5
42D
100
AcDbEntity
  8
CURVE
100
AcDbLine
 62
250
  6
CONTINUOUS
 10
-4.092475397
 20
7.4229564489
 11
-4.0953720625
 21
7.414828769
  0
LINE
  5
42E
100
AcDbEntity
  8
CURVE
100
AcDbLine
 62
250
  6
CONTINUOUS
 10
-3.4445196956
 20
8.7633750476
 11
-3.4397131013
 21
8.776569264
  0
LINE
  5
42F
100
AcDbEntity
  8
CURVE
100
AcDbLine
 62
250
  6
CONTINUOUS
 10
-2.0293023431
 20
9.5795495501
 11
-2.0239222378
 21
9.5938219505
  0
LINE
  5
430
100
AcDbEntity
  8
CURVE
100
AcDbLine
 62
250
  6
CONTINUOUS
 10
-2.3905069683
 20
11.0235205682
 11
-2.3959207957
 21
11.0092303555
  0
LINE
  5
431
100
AcDbEntity
  8
CURVE
100
AcDbLine
 62
250
  6
CONTINUOUS
 10
-3.0720244597
 20
7.3820955753
 11
-3.0664269373
 21
7.3966378987
  0
LINE
  5
432
100
AcDbEntity
  8
CURVE
100
AcDbLine
 62
250
  6
CONTINUOUS
 10
-3.0166209641
 20
9.6678230897
 11
-3.0108720893
 21
9.6825626529
  0
LWPOLYLINE
  5
433
100
AcDbEntity
  8
ASSI
100
AcDbPolyline
 62
250
  6
CONTINUOUS
 90
6
 70
0
 10
-5.3170772179
 20
1.1807534116
 10
-5.3276270348
 20
1.1542467622
 10
-5.341051757
 20
1.1308795921
 10
-5.3572013059
 20
1.1109132586
 10
-5.3758951885
 20
1.0945710509
 10
-5.3892690124
 20
1.0860048788
  0
LINE
  5
434
100
AcDbEntity
  8
CURVE
100
AcDbLine
 62
250
  6
CONTINUOUS
 10
-2.880480783
 20
8.8244003856
 11
-2.9045736356
 21
8.7646430108
  0
LINE
  5
435
100
AcDbEntity
  8
CURVE
100
AcDbLine
 62
250
  6
CONTINUOUS
 10
-2.4960193852
 20
6.7629035026
 11
-2.5020102826
 21
6.7502261511
  0
LINE
  5
436
100
AcDbEntity
  8
CURVE
100
AcDbLine
 62
250
  6
CONTINUOUS
 10
-2.0354897487
 20
9.566706986
 11
-2.0293023431
 21
9.5795495501
  0
LINE
  5
437
100
AcDbEntity
  8
CURVE
100
AcDbLine
 62
250
  6
CONTINUOUS
 10
-3.0787203434
 20
7.3686632554
 11
-3.0720244597
 21
7.3820955753
  0
LINE
  5
438
100
AcDbEntity
  8
CURVE
100
AcDbLine
 62
250
  6
CONTINUOUS
 10
-1.4483369977
 20
8.9636167433
 11
-1.4552608376
 21
8.9500457675
  0
LINE
  5
439
100
AcDbEntity
  8
CURVE
100
AcDbLine
 62
250
  6
CONTINUOUS
 10
-1.6824633136
 20
7.451375291
 11
-1.6523672847
 21
7.5048939433
  0
LINE
  5
43A
100
AcDbEntity
  8
CURVE
100
AcDbLine
 62
250
  6
CONTINUOUS
 10
-2.4888314535
 20
6.7749780887
 11
-2.4960193852
 21
6.7629035026
  0
LINE
  5
43B
100
AcDbEntity
  8
CURVE
100
AcDbLine
 62
250
  6
CONTINUOUS
 10
-3.0826384493
 20
7.3621253692
 11
-3.0787203434
 21
7.3686632554
  0
LINE
  5
43C
100
AcDbEntity
  8
CURVE
100
AcDbLine
 62
250
  6
CONTINUOUS
 10
-1.4443758542
 20
8.9701039534
 11
-1.4483369977
 21
8.9636167433
  0
LINE
  5
43D
100
AcDbEntity
  8
CURVE
100
AcDbLine
 62
250
  6
CONTINUOUS
 10
-1.435864802
 20
8.9818122001
 11
-1.4443758542
 21
8.9701039534
  0
LINE
  5
43E
100
AcDbEntity
  8
CURVE
100
AcDbLine
 62
250
  6
CONTINUOUS
 10
-1.4922526806
 20
6.6956546318
 11
-1.5006640954
 21
6.684115466
  0
LINE
  5
43F
100
AcDbEntity
  8
CURVE
100
AcDbLine
 62
250
  6
CONTINUOUS
 10
-0.4244573498
 20
8.8896472999
 11
-0.4158918494
 21
8.9012188872
  0
LINE
  5
440
100
AcDbEntity
  8
CURVE
100
AcDbLine
 62
250
  6
CONTINUOUS
 10
-1.0562907741
 20
7.6081079504
 11
-1.0645333489
 21
7.5970275316
  0
LINE
  5
441
100
AcDbEntity
  8
CURVE
100
AcDbLine
 62
250
  6
CONTINUOUS
 10
-2.4807264186
 20
6.785833533
 11
-2.4888314535
 21
6.7749780887
  0
LINE
  5
442
100
AcDbEntity
  8
CURVE
100
AcDbLine
 62
250
  6
CONTINUOUS
 10
-1.7183440404
 20
7.4045027897
 11
-1.6824633136
 21
7.451375291
  0
LINE
  5
443
100
AcDbEntity
  8
CURVE
100
AcDbLine
 62
250
  6
CONTINUOUS
 10
-1.4829286468
 20
6.7057940108
 11
-1.4922526806
 21
6.6956546318
  0
LINE
  5
444
100
AcDbEntity
  8
CURVE
100
AcDbLine
 62
250
  6
CONTINUOUS
 10
-1.0471848302
 20
7.6179102798
 11
-1.0562907741
 21
7.6081079504
  0
LINE
  5
445
100
AcDbEntity
  8
CURVE
100
AcDbLine
 62
250
  6
CONTINUOUS
 10
-0.4339901056
 20
8.8794168545
 11
-0.4244573498
 21
8.8896472999
  0
LINE
  5
446
100
AcDbEntity
  8
CURVE
100
AcDbLine
 62
250
  6
CONTINUOUS
 10
-2.4717649139
 20
6.7954056894
 11
-2.4807264186
 21
6.785833533
  0
LINE
  5
447
100
AcDbEntity
  8
CURVE
100
AcDbLine
 62
250
  6
CONTINUOUS
 10
-2.1576999131
 20
5.2686435185
 11
-2.1487696691
 21
5.2781630225
  0
LINE
  5
448
100
AcDbEntity
  8
CURVE
100
AcDbLine
 62
250
  6
CONTINUOUS
 10
-1.759001498
 20
7.3647176774
 11
-1.7183440404
 21
7.4045027897
  0
LINE
  5
449
100
AcDbEntity
  8
CURVE
100
AcDbLine
 62
250
  6
CONTINUOUS
 10
-1.037280168
 20
7.6263839399
 11
-1.0471848302
 21
7.6179102798
  0
LINE
  5
44A
100
AcDbEntity
  8
CURVE
100
AcDbLine
 62
250
  6
CONTINUOUS
 10
-1.4727743943
 20
6.7144727896
 11
-1.4829286468
 21
6.7057940108
  0
LINE
  5
44B
100
AcDbEntity
  8
CURVE
100
AcDbLine
 62
250
  6
CONTINUOUS
 10
-2.1674146983
 20
5.2604648808
 11
-2.1576999131
 21
5.2686435185
  0
LINE
  5
44C
100
AcDbEntity
  8
CURVE
100
AcDbLine
 62
250
  6
CONTINUOUS
 10
0.1843916259
 20
6.6182560405
 11
0.1944174667
 21
6.626609767
  0
LINE
  5
44D
100
AcDbEntity
  8
CURVE
100
AcDbLine
 62
250
  6
CONTINUOUS
 10
-1.4618721409
 20
6.7216497052
 11
-1.4727743943
 21
6.7144727896
  0
LINE
  5
44E
100
AcDbEntity
  8
CURVE
100
AcDbLine
 62
250
  6
CONTINUOUS
 10
-2.1778476469
 20
5.2536630041
 11
-2.1674146983
 21
5.2604648808
  0
LINE
  5
44F
100
AcDbEntity
  8
CURVE
100
AcDbLine
 62
250
  6
CONTINUOUS
 10
0.1736271874
 20
6.6112629753
 11
0.1843916259
 21
6.6182560405
  0
LINE
  5
450
100
AcDbEntity
  8
CURVE
100
AcDbLine
 62
250
  6
CONTINUOUS
 10
0.1620598944
 20
6.6054022517
 11
0.1736271874
 21
6.6112629753
  0
LINE
  5
451
100
AcDbEntity
  8
CURVE
100
AcDbLine
 62
250
  6
CONTINUOUS
 10
-2.1888793822
 20
5.2481482244
 11
-2.1778476469
 21
5.2536630041
  0
LINE
  5
452
100
AcDbEntity
  8
CURVE
100
AcDbLine
 62
250
  6
CONTINUOUS
 10
0.1497217852
 20
6.6008841412
 11
0.1620598944
 21
6.6054022517
  0
LINE
  5
453
100
AcDbEntity
  8
CURVE
100
AcDbLine
 62
250
  6
CONTINUOUS
 10
-2.2007720857
 20
5.2439323847
 11
-2.1888793822
 21
5.2481482244
  0
LINE
  5
454
100
AcDbEntity
  8
CURVE
100
AcDbLine
 62
250
  6
CONTINUOUS
 10
-0.5697078354
 20
5.1023865195
 11
-0.5568104213
 21
5.1068565376
  0
LINE
  5
455
100
AcDbEntity
  8
CURVE
100
AcDbLine
 62
250
  6
CONTINUOUS
 10
-0.7558423659
 20
-10.4079135067
 11
-0.7660968014
 21
-10.3922574285
  0
LINE
  5
456
100
AcDbEntity
  8
CURVE
100
AcDbLine
 62
250
  6
CONTINUOUS
 10
-2.1627021356
 20
-8.7174478926
 11
-2.172206343
 21
-8.7020251958
  0
LINE
  5
457
100
AcDbEntity
  8
CURVE
100
AcDbLine
 62
250
  6
CONTINUOUS
 10
-0.7462026314
 20
-10.4238172806
 11
-0.7558423659
 21
-10.4079135067
  0
LINE
  5
458
100
AcDbEntity
  8
CURVE
100
AcDbLine
 62
250
  6
CONTINUOUS
 10
-2.1565166803
 20
-8.728192711
 11
-2.1627021356
 21
-8.7174478926
  0
LINE
  5
459
100
AcDbEntity
  8
CURVE
100
AcDbLine
 62
250
  6
CONTINUOUS
 10
-1.4262382015
 20
-10.5990063176
 11
-1.4219036518
 21
-10.6067185202
  0
LINE
  5
45A
100
AcDbEntity
  8
CURVE
100
AcDbLine
 62
250
  6
CONTINUOUS
 10
-0.7372774834
 20
-10.439952319
 11
-0.7462026314
 21
-10.4238172806
  0
LINE
  5
45B
100
AcDbEntity
  8
CURVE
100
AcDbLine
 62
250
  6
CONTINUOUS
 10
-0.6883989513
 20
-12.2607890541
 11
-0.6964206051
 21
-12.2461910956
  0
LINE
  5
45C
100
AcDbEntity
  8
CURVE
100
AcDbLine
 62
250
  6
CONTINUOUS
 10
-2.1479691161
 20
-8.7440492138
 11
-2.1565166803
 21
-8.728192711
  0
LINE
  5
45D
100
AcDbEntity
  8
CURVE
100
AcDbLine
 62
250
  6
CONTINUOUS
 10
-1.4350460313
 20
-10.5823671158
 11
-1.4262382015
 21
-10.5990063176
  0
LINE
  5
45E
100
AcDbEntity
  8
CURVE
100
AcDbLine
 62
250
  6
CONTINUOUS
 10
-2.4642994057
 20
-9.3373555936
 11
-2.4560262106
 21
-9.3530862841
  0
LINE
  5
45F
100
AcDbEntity
  8
CURVE
100
AcDbLine
 62
250
  6
CONTINUOUS
 10
-1.9090061508
 20
-10.5118884583
 11
-1.9233178772
 21
-10.4841943553
  0
LINE
  5
460
100
AcDbEntity
  8
CURVE
100
AcDbLine
 62
250
  6
CONTINUOUS
 10
-0.7289138059
 20
-10.4564305339
 11
-0.7372774834
 21
-10.439952319
  0
LINE
  5
461
100
AcDbEntity
  8
CURVE
100
AcDbLine
 62
250
  6
CONTINUOUS
 10
-0.6808022322
 20
-12.2759637178
 11
-0.6883989513
 21
-12.2607890541
  0
LINE
  5
462
100
AcDbEntity
  8
CURVE
100
AcDbLine
 62
250
  6
CONTINUOUS
 10
-2.1400723162
 20
-8.7599631469
 11
-2.1479691161
 21
-8.7440492138
  0
LINE
  5
463
100
AcDbEntity
  8
CURVE
100
AcDbLine
 62
250
  6
CONTINUOUS
 10
-1.4083933074
 20
-11.8966854088
 11
-1.4009516817
 21
-11.9117037381
  0
LINE
  5
464
100
AcDbEntity
  8
CURVE
100
AcDbLine
 62
250
  6
CONTINUOUS
 10
-1.4431440286
 20
-10.5656873714
 11
-1.4350460313
 21
-10.5823671158
  0
LINE
  5
465
100
AcDbEntity
  8
CURVE
100
AcDbLine
 62
250
  6
CONTINUOUS
 10
-1.8954185541
 20
-10.5399895442
 11
-1.9090061508
 21
-10.5118884583
  0
LINE
  5
466
100
AcDbEntity
  8
CURVE
100
AcDbLine
 62
250
  6
CONTINUOUS
 10
-2.4720273685
 20
-9.3213605326
 11
-2.4642994057
 21
-9.3373555936
  0
LINE
  5
467
100
AcDbEntity
  8
CURVE
100
AcDbLine
 62
250
  6
CONTINUOUS
 10
-0.7211669216
 20
-10.4731552833
 11
-0.7289138059
 21
-10.4564305339
  0
LINE
  5
468
100
AcDbEntity
  8
CURVE
100
AcDbLine
 62
250
  6
CONTINUOUS
 10
-0.6736912387
 20
-12.2916306744
 11
-0.6808022322
 21
-12.2759637178
  0
LINE
  5
469
100
AcDbEntity
  8
CURVE
100
AcDbLine
 62
250
  6
CONTINUOUS
 10
-2.132835401
 20
-8.7759053431
 11
-2.1400723162
 21
-8.7599631469
  0
LINE
  5
46A
100
AcDbEntity
  8
CURVE
100
AcDbLine
 62
250
  6
CONTINUOUS
 10
-1.8825911891
 20
-10.5684362881
 11
-1.8954185541
 21
-10.5399895442
  0
LINE
  5
46B
100
AcDbEntity
  8
CURVE
100
AcDbLine
 62
250
  6
CONTINUOUS
 10
-1.4154300379
 20
-11.8810248757
 11
-1.4083933074
 21
-11.8966854088
  0
LINE
  5
46C
100
AcDbEntity
  8
CURVE
100
AcDbLine
 62
250
  6
CONTINUOUS
 10
-1.4504949265
 20
-10.5490617648
 11
-1.4431440286
 21
-10.5656873714
  0
LINE
  5
46D
100
AcDbEntity
  8
CURVE
100
AcDbLine
 62
250
  6
CONTINUOUS
 10
-2.4791639104
 20
-9.3051887837
 11
-2.4720273685
 21
-9.3213605326
  0
LINE
  5
46E
100
AcDbEntity
  8
CURVE
100
AcDbLine
 62
250
  6
CONTINUOUS
 10
-1.8776884121
 20
-10.5799483392
 11
-1.8825911891
 21
-10.5684362881
  0
LINE
  5
46F
100
AcDbEntity
  8
CURVE
100
AcDbLine
 62
250
  6
CONTINUOUS
 10
-2.0500643736
 20
-11.9348046922
 11
-2.0568557954
 21
-11.9187365183
  0
LINE
  5
470
100
AcDbEntity
  8
CURVE
100
AcDbLine
 62
250
  6
CONTINUOUS
 10
-2.1262661115
 20
-8.7918499564
 11
-2.132835401
 21
-8.7759053431
  0
LINE
  5
471
100
AcDbEntity
  8
CURVE
100
AcDbLine
 62
250
  6
CONTINUOUS
 10
-0.6671307211
 20
-12.3076845602
 11
-0.6736912387
 21
-12.2916306744
  0
LINE
  5
472
100
AcDbEntity
  8
CURVE
100
AcDbLine
 62
250
  6
CONTINUOUS
 10
-2.4835150777
 20
-9.2944985197
 11
-2.4791639104
 21
-9.3051887837
  0
LINE
  5
473
100
AcDbEntity
  8
CURVE
100
AcDbLine
 62
250
  6
CONTINUOUS
 10
-1.4220215364
 20
-11.8647605018
 11
-1.4154300379
 21
-11.8810248757
  0
LINE
  5
474
100
AcDbEntity
  8
CURVE
100
AcDbLine
 62
250
  6
CONTINUOUS
 10
-2.6676919288
 20
-10.6273878376
 11
-2.6563764056
 21
-10.6553619516
  0
LINE
  5
475
100
AcDbEntity
  8
CURVE
100
AcDbLine
 62
250
  6
CONTINUOUS
 10
-1.866273333
 20
-10.6082509746
 11
-1.8776884121
 21
-10.5799483392
  0
LINE
  5
476
100
AcDbEntity
  8
CURVE
100
AcDbLine
 62
250
  6
CONTINUOUS
 10
-1.4570710943
 20
-10.5325744073
 11
-1.4504949265
 21
-10.5490617648
  0
LINE
  5
477
100
AcDbEntity
  8
CURVE
100
AcDbLine
 62
250
  6
CONTINUOUS
 10
-3.107102282
 20
-9.361632703
 11
-3.1135373651
 21
-9.3452440523
  0
LINE
  5
478
100
AcDbEntity
  8
CURVE
100
AcDbLine
 62
250
  6
CONTINUOUS
 10
-2.0439456539
 20
-11.9508532597
 11
-2.0500643736
 21
-11.9348046922
  0
LINE
  5
479
100
AcDbEntity
  8
CURVE
100
AcDbLine
 62
250
  6
CONTINUOUS
 10
-2.4895660308
 20
-9.278272835
 11
-2.4835150777
 21
-9.2944985197
  0
LINE
  5
47A
100
AcDbEntity
  8
CURVE
100
AcDbLine
 62
250
  6
CONTINUOUS
 10
-2.6780485155
 20
-10.5995413027
 11
-2.6676919288
 21
-10.6273878376
  0
LINE
  5
47B
100
AcDbEntity
  8
CURVE
100
AcDbLine
 62
250
  6
CONTINUOUS
 10
-1.8559366732
 20
-10.6360995379
 11
-1.866273333
 21
-10.6082509746
  0
LINE
  5
47C
100
AcDbEntity
  8
CURVE
100
AcDbLine
 62
250
  6
CONTINUOUS
 10
-2.1203713127
 20
-8.8077742259
 11
-2.1262661115
 21
-8.7918499564
  0
LINE
  5
47D
100
AcDbEntity
  8
CURVE
100
AcDbLine
 62
250
  6
CONTINUOUS
 10
-1.4281207404
 20
-11.8479513041
 11
-1.4220215364
 21
-11.8647605018
  0
LINE
  5
47E
100
AcDbEntity
  8
CURVE
100
AcDbLine
 62
250
  6
CONTINUOUS
 10
-3.1011381148
 20
-9.3785956387
 11
-3.107102282
 21
-9.361632703
  0
LINE
  5
47F
100
AcDbEntity
  8
CURVE
100
AcDbLine
 62
250
  6
CONTINUOUS
 10
-3.8481642333
 20
-8.89143903
 11
-3.8424410647
 21
-8.9079584095
  0
LINE
  5
480
100
AcDbEntity
  8
CURVE
100
AcDbLine
 62
250
  6
CONTINUOUS
 10
-2.0394743503
 20
-11.9638701317
 11
-2.0439456539
 21
-11.9508532597
  0
LINE
  5
481
100
AcDbEntity
  8
CURVE
100
AcDbLine
 62
250
  6
CONTINUOUS
 10
-2.411598249
 20
-12.4053940067
 11
-2.4072056131
 21
-12.4182064954
  0
LINE
  5
482
100
AcDbEntity
  8
CURVE
100
AcDbLine
 62
250
  6
CONTINUOUS
 10
-3.0673048189
 20
-10.7103290602
 11
-3.0700686778
 21
-10.7022295075
  0
LINE
  5
483
100
AcDbEntity
  8
CURVE
100
AcDbLine
 62
250
  6
CONTINUOUS
 10
-2.6873907971
 20
-10.5719883721
 11
-2.6780485155
 21
-10.5995413027
  0
LINE
  5
484
100
AcDbEntity
  8
CURVE
100
AcDbLine
 62
250
  6
CONTINUOUS
 10
-1.8466995833
 20
-10.6633922163
 11
-1.8559366732
 21
-10.6360995379
  0
LINE
  5
485
100
AcDbEntity
  8
CURVE
100
AcDbLine
 62
250
  6
CONTINUOUS
 10
-2.4939498969
 20
-9.2651995164
 11
-2.4895660308
 21
-9.278272835
  0
LINE
  5
486
100
AcDbEntity
  8
CURVE
100
AcDbLine
 62
250
  6
CONTINUOUS
 10
-1.4321506122
 20
-11.8356444121
 11
-1.4281207404
 21
-11.8479513041
  0
LINE
  5
487
100
AcDbEntity
  8
CURVE
100
AcDbLine
 62
250
  6
CONTINUOUS
 10
-3.0647797539
 20
-10.7181886326
 11
-3.0673048189
 21
-10.7103290602
  0
LINE
  5
488
100
AcDbEntity
  8
CURVE
100
AcDbLine
 62
250
  6
CONTINUOUS
 10
-3.0971443221
 20
-9.3911876247
 11
-3.1011381148
 21
-9.3785956387
  0
LINE
  5
489
100
AcDbEntity
  8
CURVE
100
AcDbLine
 62
250
  6
CONTINUOUS
 10
-3.8521153175
 20
-8.8786709809
 11
-3.8481642333
 21
-8.89143903
  0
LINE
  5
48A
100
AcDbEntity
  8
CURVE
100
AcDbLine
 62
250
  6
CONTINUOUS
 10
-2.416626066
 20
-12.3890621497
 11
-2.411598249
 21
-12.4053940067
  0
LINE
  5
48B
100
AcDbEntity
  8
CURVE
100
AcDbLine
 62
250
  6
CONTINUOUS
 10
-2.0344881806
 20
-11.9800778787
 11
-2.0394743503
 21
-11.9638701317
  0
LINE
  5
48C
100
AcDbEntity
  8
CURVE
100
AcDbLine
 62
250
  6
CONTINUOUS
 10
-2.6958530369
 20
-10.5443443356
 11
-2.6873907971
 21
-10.5719883721
  0
LINE
  5
48D
100
AcDbEntity
  8
CURVE
100
AcDbLine
 62
250
  6
CONTINUOUS
 10
-2.4988235285
 20
-9.2489281954
 11
-2.4939498969
 21
-9.2651995164
  0
LINE
  5
48E
100
AcDbEntity
  8
CURVE
100
AcDbLine
 62
250
  6
CONTINUOUS
 10
-3.0599150976
 20
-10.7349427443
 11
-3.0647797539
 21
-10.7181886326
  0
LINE
  5
48F
100
AcDbEntity
  8
CURVE
100
AcDbLine
 62
250
  6
CONTINUOUS
 10
-3.8543908288
 20
-8.8706667117
 11
-3.8521153175
 21
-8.8786709809
  0
LINE
  5
490
100
AcDbEntity
  8
CURVE
100
AcDbLine
 62
250
  6
CONTINUOUS
 10
-3.0924597772
 20
-9.4081179567
 11
-3.0971443221
 21
-9.3911876247
  0
LINE
  5
491
100
AcDbEntity
  8
CURVE
100
AcDbLine
 62
250
  6
CONTINUOUS
 10
-2.70340065
 20
-10.516700736
 11
-2.6958530369
 21
-10.5443443356
  0
LINE
  5
492
100
AcDbEntity
  8
CURVE
100
AcDbLine
 62
250
  6
CONTINUOUS
 10
-3.8122608145
 20
-10.6692902122
 11
-3.8079202123
 21
-10.6853497463
  0
LINE
  5
493
100
AcDbEntity
  8
CURVE
100
AcDbLine
 62
250
  6
CONTINUOUS
 10
-2.4208550697
 20
-12.3732214023
 11
-2.416626066
 21
-12.3890621497
  0
LINE
  5
494
100
AcDbEntity
  8
CURVE
100
AcDbLine
 62
250
  6
CONTINUOUS
 10
-2.0302902365
 20
-11.9958417563
 11
-2.0344881806
 21
-11.9800778787
  0
LINE
  5
495
100
AcDbEntity
  8
CURVE
100
AcDbLine
 62
250
  6
CONTINUOUS
 10
-3.8587688258
 20
-8.8534965278
 11
-3.8543908288
 21
-8.8706667117
  0
LWPOLYLINE
  5
496
100
AcDbEntity
  8
ASSI
100
AcDbPolyline
 62
250
  6
CONTINUOUS
 90
19
 70
0
 10
-5.8790031602
 20
0.338077446
 10
-5.8479852429
 20
0.2128661722
 10
-5.8111813777
 20
0.0877843649
 10
-5.7685861956
 20
-0.0371651043
 10
-5.719904783
 20
-0.1626625452
 10
-5.6654165417
 20
-0.2880192305
 10
-5.6059783973
 20
-0.4111791904
 10
-5.5415393945
 20
-0.5320228181
 10
-5.4721338576
 20
-0.6506606361
 10
-5.3987511508
 20
-0.7653843711
 10
-5.3213349737
 20
-0.8761370932
 10
-5.239925646
 20
-0.9829669036
 10
-5.1556633829
 20
-1.0843263437
 10
-5.0684310688
 20
-1.1801937344
 10
-4.978332971
 20
-1.2705835434
 10
-4.886849493
 20
-1.3540070237
 10
-4.7944744904
 20
-1.429968092
 10
-4.700709502
 20
-1.4989601095
 10
-4.6055508624
 20
-1.5609809303
  0
LINE
  5
497
100
AcDbEntity
  8
CURVE
100
AcDbLine
 62
250
  6
CONTINUOUS
 10
-3.0558175995
 20
-10.7514924955
 11
-3.0599150976
 21
-10.7349427443
  0
LWPOLYLINE
  5
498
100
AcDbEntity
  8
ASSI
100
AcDbPolyline
 62
250
  6
CONTINUOUS
 90
19
 70
0
 10
-5.3170772177
 20
0.4344445355
 10
-5.2930561659
 20
0.335876371
 10
-5.2641861171
 20
0.2364100156
 10
-5.2305945055
 20
0.1365304062
 10
-5.1924277692
 20
0.0366594277
 10
-5.1498649443
 20
-0.0626409024
 10
-5.1031429585
 20
-0.1606770256
 10
-5.0525507214
 20
-0.256899172
 10
-4.9983182968
 20
-0.3509089732
 10
-4.9406421042
 20
-0.4422563823
 10
-4.8798219418
 20
-0.5304892324
 10
-4.8161688695
 20
-0.6151781265
 10
-4.7499106777
 20
-0.6959193658
 10
-4.6813305222
 20
-0.7723633462
 10
-4.6108311284
 20
-0.8440630724
 10
-4.5388426139
 20
-0.9105171011
 10
-4.4657649111
 20
-0.9713721169
 10
-4.3919562181
 20
-1.0263965168
 10
-4.3177982719
 20
-1.0753397143
  0
LINE
  5
499
100
AcDbEntity
  8
CURVE
100
AcDbLine
 62
250
  6
CONTINUOUS
 10
-2.7100017264
 20
-10.4891536657
 11
-2.70340065
 21
-10.516700736
  0
LINE
  5
49A
100
AcDbEntity
  8
CURVE
100
AcDbLine
 62
250
  6
CONTINUOUS
 10
-3.0885246421
 20
-9.4249147564
 11
-3.0924597772
 21
-9.4081179567
  0
LINE
  5
49B
100
AcDbEntity
  8
CURVE
100
AcDbLine
 62
250
  6
CONTINUOUS
 10
-3.8158958609
 20
-10.6532400288
 11
-3.8122608145
 21
-10.6692902122
  0
LINE
  5
49C
100
AcDbEntity
  8
CURVE
100
AcDbLine
 62
250
  6
CONTINUOUS
 10
-2.4242864727
 20
-12.3579259771
 11
-2.4208550697
 21
-12.3732214023
  0
LINE
  5
49D
100
AcDbEntity
  8
CURVE
100
AcDbLine
 62
250
  6
CONTINUOUS
 10
-3.8623197191
 20
-8.8368547742
 11
-3.8587688258
 21
-8.8534965278
  0
LINE
  5
49E
100
AcDbEntity
  8
CURVE
100
AcDbLine
 62
250
  6
CONTINUOUS
 10
-3.0525055031
 20
-10.7677494838
 11
-3.0558175995
 21
-10.7514924955
  0
LINE
  5
49F
100
AcDbEntity
  8
CURVE
100
AcDbLine
 62
250
  6
CONTINUOUS
 10
-3.8188040747
 20
-10.6372560611
 11
-3.8158958609
 21
-10.6532400288
  0
LINE
  5
4A0
100
AcDbEntity
  8
CURVE
100
AcDbLine
 62
250
  6
CONTINUOUS
 10
-3.8650443319
 20
-8.8208069666
 11
-3.8623197191
 21
-8.8368547742
  0
LINE
  5
4A1
100
AcDbEntity
  8
CURVE
100
AcDbLine
 62
250
  6
CONTINUOUS
 10
-3.8209649661
 20
-10.6214022696
 11
-3.8188040747
 21
-10.6372560611
  0
LINE
  5
4A2
100
AcDbEntity
  8
CURVE
100
AcDbLine
 62
250
  6
CONTINUOUS
 10
-3.8218428168
 20
-10.612592792
 11
-3.8209649661
 21
-10.6214022696
  0
LINE
  5
4A3
100
AcDbEntity
  8
CURVE
100
AcDbLine
 62
250
  6
CONTINUOUS
 10
-2.7264454474
 20
-10.3804044364
 11
-2.7240869177
 21
-10.4061561056
  0
LINE
  5
4A4
100
AcDbEntity
  8
CURVE
100
AcDbLine
 62
250
  6
CONTINUOUS
 10
-3.0810496144
 20
-9.4790792743
 11
-3.0823445064
 21
-9.4633584541
  0
LINE
  5
4A5
100
AcDbEntity
  8
CURVE
100
AcDbLine
 62
250
  6
CONTINUOUS
 10
-3.8680446631
 20
-8.7906838533
 11
-3.8669491931
 21
-8.8054039944
  0
LINE
  5
4A6
100
AcDbEntity
  8
CURVE
100
AcDbLine
 62
250
  6
CONTINUOUS
 10
-3.0477099303
 20
-10.8067666517
 11
-3.0482803625
 21
-10.7990609466
  0
LINE
  5
4A7
100
AcDbEntity
  8
CURVE
100
AcDbLine
 62
250
  6
CONTINUOUS
 10
-4.1058113678
 20
7.3289122021
 11
-4.104431835
 21
7.3096242517
  0
LINE
  5
4A8
100
AcDbEntity
  8
CURVE
100
AcDbLine
 62
250
  6
CONTINUOUS
 10
-3.8228507937
 20
-10.5979094141
 11
-3.8218428168
 21
-10.612592792
  0
LINE
  5
4A9
100
AcDbEntity
  8
CURVE
100
AcDbLine
 62
250
  6
CONTINUOUS
 10
-4.7129812375
 20
9.594976643
 11
-4.7117987384
 21
9.5766172684
  0
LINE
  5
4AA
100
AcDbEntity
  8
CURVE
100
AcDbLine
 62
250
  6
CONTINUOUS
 10
-4.0148325431
 20
11.0800361904
 11
-4.0136223769
 21
11.0606426154
  0
LINE
  5
4AB
100
AcDbEntity
  8
CURVE
100
AcDbLine
 62
250
  6
CONTINUOUS
 10
-2.7277789118
 20
-10.3550993094
 11
-2.7264454474
 21
-10.3804044364
  0
LINE
  5
4AC
100
AcDbEntity
  8
CURVE
100
AcDbLine
 62
250
  6
CONTINUOUS
 10
-3.0807997594
 20
-9.4855787913
 11
-3.0810496144
 21
-9.4790792743
  0
LINE
  5
4AD
100
AcDbEntity
  8
CURVE
100
AcDbLine
 62
250
  6
CONTINUOUS
 10
-3.0471594044
 20
-10.821929825
 11
-3.0477099303
 21
-10.8067666517
  0
LINE
  5
4AE
100
AcDbEntity
  8
ASSI
100
AcDbLine
 62
7
  6
CONTINUOUS
 10
-4.649257495
 20
21.8675975997
 11
-4.627923116
 21
21.2473722516
  0
LINE
  5
4AF
100
AcDbEntity
  8
CURVE
100
AcDbLine
 62
250
  6
CONTINUOUS
 10
-3.8684782122
 20
-8.7762613794
 11
-3.8680446631
 21
-8.7906838533
  0
LINE
  5
4B0
100
AcDbEntity
  8
CURVE
100
AcDbLine
 62
250
  6
CONTINUOUS
 10
-3.8230752777
 20
-10.5835165793
 11
-3.8228507937
 21
-10.5979094141
  0
LINE
  5
4B1
100
AcDbEntity
  8
CURVE
100
AcDbLine
 62
250
  6
CONTINUOUS
 10
-4.1060327497
 20
7.3474682496
 11
-4.1058113678
 21
7.3289122021
  0
LINE
  5
4B2
100
AcDbEntity
  8
CURVE
100
AcDbLine
 62
250
  6
CONTINUOUS
 10
-4.7130973855
 20
9.6125313923
 11
-4.7129812375
 21
9.594976643
  0
LINE
  5
4B3
100
AcDbEntity
  8
CURVE
100
AcDbLine
 62
250
  6
CONTINUOUS
 10
-3.4293387965
 20
8.8417206576
 11
-3.4294516905
 21
8.8594608809
  0
LINE
  5
4B4
100
AcDbEntity
  8
CURVE
100
AcDbLine
 62
250
  6
CONTINUOUS
 10
-4.0148812171
 20
11.098674915
 11
-4.0148325431
 21
11.0800361904
  0
LINE
  5
4B5
100
AcDbEntity
  8
CURVE
100
AcDbLine
 62
250
  6
CONTINUOUS
 10
-3.8681242421
 20
-8.7621163815
 11
-3.8684782122
 21
-8.7762613794
  0
LINE
  5
4B6
100
AcDbEntity
  8
CURVE
100
AcDbLine
 62
250
  6
CONTINUOUS
 10
-3.8225052016
 20
-10.5695131399
 11
-3.8230752777
 21
-10.5835165793
  0
LINE
  5
4B7
100
AcDbEntity
  8
CURVE
100
AcDbLine
 62
250
  6
CONTINUOUS
 10
-4.1050941731
 20
7.3655163996
 11
-4.1060327497
 21
7.3474682496
  0
LINE
  5
4B8
100
AcDbEntity
  8
CURVE
100
AcDbLine
 62
250
  6
CONTINUOUS
 10
-3.056499264
 20
7.4458553919
 11
-3.0555211106
 21
7.4637694103
  0
LINE
  5
4B9
100
AcDbEntity
  8
CURVE
100
AcDbLine
 62
250
  6
CONTINUOUS
 10
-3.4303077332
 20
8.8244733461
 11
-3.4293387965
 21
8.8417206576
  0
LINE
  5
4BA
100
AcDbEntity
  8
CURVE
100
AcDbLine
 62
250
  6
CONTINUOUS
 10
-3.0005654391
 20
9.7320080489
 11
-2.9994861252
 21
9.7497546284
  0
LINE
  5
4BB
100
AcDbEntity
  8
CURVE
100
AcDbLine
 62
250
  6
CONTINUOUS
 10
-4.013778074
 20
11.1164352533
 11
-4.0148812171
 21
11.098674915
  0
LINE
  5
4BC
100
AcDbEntity
  8
CURVE
100
AcDbLine
 62
250
  6
CONTINUOUS
 10
-2.9334934364
 20
8.62826242
 11
-2.9387900165
 21
8.5526338677
  0
LINE
  5
4BD
100
AcDbEntity
  8
CURVE
100
AcDbLine
 62
250
  6
CONTINUOUS
 10
-2.5144908816
 20
6.7049892241
 11
-2.5164887627
 21
6.6883448093
  0
LINE
  5
4BE
100
AcDbEntity
  8
CURVE
100
AcDbLine
 62
250
  6
CONTINUOUS
 10
-3.4323626533
 20
8.8077861029
 11
-3.4303077332
 21
8.8244733461
  0
LINE
  5
4BF
100
AcDbEntity
  8
CURVE
100
AcDbLine
 62
250
  6
CONTINUOUS
 10
-3.0586470516
 20
7.4286258721
 11
-3.056499264
 21
7.4458553919
  0
LINE
  5
4C0
100
AcDbEntity
  8
CURVE
100
AcDbLine
 62
250
  6
CONTINUOUS
 10
-2.4035599182
 20
10.9779903721
 11
-2.405751848
 21
10.961243599
  0
LINE
  5
4C1
100
AcDbEntity
  8
CURVE
100
AcDbLine
 62
250
  6
CONTINUOUS
 10
-3.0028244062
 20
9.7148007334
 11
-3.0005654391
 21
9.7320080489
  0
LINE
  5
4C2
100
AcDbEntity
  8
CURVE
100
AcDbLine
 62
250
  6
CONTINUOUS
 10
-2.9224085139
 20
8.6992158995
 11
-2.9334934364
 21
8.62826242
  0
LINE
  5
4C3
100
AcDbEntity
  8
CURVE
100
AcDbLine
 62
250
  6
CONTINUOUS
 10
-2.5114026433
 20
6.720920385
 11
-2.5144908816
 21
6.7049892241
  0
LINE
  5
4C4
100
AcDbEntity
  8
CURVE
100
AcDbLine
 62
250
  6
CONTINUOUS
 10
-3.0619604163
 20
7.4121841906
 11
-3.0586470516
 21
7.4286258721
  0
LINE
  5
4C5
100
AcDbEntity
  8
CURVE
100
AcDbLine
 62
250
  6
CONTINUOUS
 10
-2.0195994153
 20
9.6090202446
 11
-2.0163564616
 21
9.6250382662
  0
LINE
  5
4C6
100
AcDbEntity
  8
CURVE
100
AcDbLine
 62
250
  6
CONTINUOUS
 10
-2.4002788387
 20
10.9940196615
 11
-2.4035599182
 21
10.9779903721
  0
LINE
  5
4C7
100
AcDbEntity
  8
CURVE
100
AcDbLine
 62
250
  6
CONTINUOUS
 10
-3.0062640569
 20
9.6982706395
 11
-3.0028244062
 21
9.7148007334
  0
LINE
  5
4C8
100
AcDbEntity
  8
CURVE
100
AcDbLine
 62
250
  6
CONTINUOUS
 10
-1.4657150639
 20
8.9197385092
 11
-1.4691900747
 21
8.9032194179
  0
LINE
  5
4C9
100
AcDbEntity
  8
CURVE
100
AcDbLine
 62
250
  6
CONTINUOUS
 10
-2.1222827981
 20
5.3280183308
 11
-2.1181489602
 21
5.3431265815
  0
LINE
  5
4CA
100
AcDbEntity
  8
CURVE
100
AcDbLine
 62
250
  6
CONTINUOUS
 10
-1.6285638045
 20
7.5647655745
 11
-1.6105719735
 21
7.6304239495
  0
LINE
  5
4CB
100
AcDbEntity
  8
CURVE
100
AcDbLine
 62
250
  6
CONTINUOUS
 10
-2.507235492
 20
6.7360342079
 11
-2.5114026433
 21
6.720920385
  0
LINE
  5
4CC
100
AcDbEntity
  8
CURVE
100
AcDbLine
 62
250
  6
CONTINUOUS
 10
-2.0239222378
 20
9.5938219505
 11
-2.0195994153
 21
9.6090202446
  0
LINE
  5
4CD
100
AcDbEntity
  8
CURVE
100
AcDbLine
 62
250
  6
CONTINUOUS
 10
-1.5174880069
 20
6.6488901844
 11
-1.5220580449
 21
6.6332415868
  0
LINE
  5
4CE
100
AcDbEntity
  8
CURVE
100
AcDbLine
 62
250
  6
CONTINUOUS
 10
-1.4610645481
 20
8.93538386
 11
-1.4657150639
 21
8.9197385092
  0
LINE
  5
4CF
100
AcDbEntity
  8
CURVE
100
AcDbLine
 62
250
  6
CONTINUOUS
 10
-2.1274776778
 20
5.3138330945
 11
-2.1222827981
 21
5.3280183308
  0
LINE
  5
4D0
100
AcDbEntity
  8
CURVE
100
AcDbLine
 62
250
  6
CONTINUOUS
 10
-2.5020102826
 20
6.7502261511
 11
-2.507235492
 21
6.7360342079
  0
LINE
  5
4D1
100
AcDbEntity
  8
CURVE
100
AcDbLine
 62
250
  6
CONTINUOUS
 10
-1.0781840059
 20
7.5713088133
 11
-1.0830543055
 21
7.5581758673
  0
LINE
  5
4D2
100
AcDbEntity
  8
CURVE
100
AcDbLine
 62
250
  6
CONTINUOUS
 10
-0.4018844975
 20
8.928114698
 11
-0.3988191009
 21
8.9362769349
  0
LINE
  5
4D3
100
AcDbEntity
  8
CURVE
100
AcDbLine
 62
250
  6
CONTINUOUS
 10
-1.5117585054
 20
6.663565385
 11
-1.5174880069
 21
6.6488901844
  0
LINE
  5
4D4
100
AcDbEntity
  8
CURVE
100
AcDbLine
 62
250
  6
CONTINUOUS
 10
-1.4552608376
 20
8.9500457675
 11
-1.4610645481
 21
8.93538386
  0
LINE
  5
4D5
100
AcDbEntity
  8
CURVE
100
AcDbLine
 62
250
  6
CONTINUOUS
 10
-1.6523672847
 20
7.5048939433
 11
-1.6285638045
 21
7.5647655745
  0
LINE
  5
4D6
100
AcDbEntity
  8
ASSI
100
AcDbLine
 62
7
  6
CONTINUOUS
 10
3.058922121
 20
16.8090841506
 11
3.2703384543
 21
17.2949221544
  0
LINE
  5
4D7
100
AcDbEntity
  8
CURVE
100
AcDbLine
 62
250
  6
CONTINUOUS
 10
-0.4083502371
 20
8.9140668708
 11
-0.4018844975
 21
8.928114698
  0
LINE
  5
4D8
100
AcDbEntity
  8
CURVE
100
AcDbLine
 62
250
  6
CONTINUOUS
 10
-2.1335226933
 20
5.3010115201
 11
-2.1274776778
 21
5.3138330945
  0
LINE
  5
4D9
100
AcDbEntity
  8
CURVE
100
AcDbLine
 62
250
  6
CONTINUOUS
 10
-1.0718502303
 20
7.5847344352
 11
-1.0781840059
 21
7.5713088133
  0
LINE
  5
4DA
100
AcDbEntity
  8
CURVE
100
AcDbLine
 62
250
  6
CONTINUOUS
 10
-1.5080840497
 20
6.6712579994
 11
-1.5117585054
 21
6.663565385
  0
LINE
  5
4DB
100
AcDbEntity
  8
CURVE
100
AcDbLine
 62
250
  6
CONTINUOUS
 10
-1.5006640954
 20
6.684115466
 11
-1.5080840497
 21
6.6712579994
  0
LINE
  5
4DC
100
AcDbEntity
  8
CURVE
100
AcDbLine
 62
250
  6
CONTINUOUS
 10
-0.4158918494
 20
8.9012188872
 11
-0.4083502371
 21
8.9140668708
  0
LINE
  5
4DD
100
AcDbEntity
  8
CURVE
100
AcDbLine
 62
250
  6
CONTINUOUS
 10
-1.0645333489
 20
7.5970275316
 11
-1.0718502303
 21
7.5847344352
  0
LINE
  5
4DE
100
AcDbEntity
  8
CURVE
100
AcDbLine
 62
250
  6
CONTINUOUS
 10
-2.1406897207
 20
5.2889737055
 11
-2.1335226933
 21
5.3010115201
  0
LINE
  5
4DF
100
AcDbEntity
  8
CURVE
100
AcDbLine
 62
250
  6
CONTINUOUS
 10
0.2120019085
 20
6.6472487867
 11
0.2194345444
 21
6.6594240789
  0
LINE
  5
4E0
100
AcDbEntity
  8
CURVE
100
AcDbLine
 62
250
  6
CONTINUOUS
 10
-0.51429671
 20
5.1392953207
 11
-0.5058707249
 21
5.1510110499
  0
LINE
  5
4E1
100
AcDbEntity
  8
CURVE
100
AcDbLine
 62
250
  6
CONTINUOUS
 10
-2.1487696691
 20
5.2781630225
 11
-2.1406897207
 21
5.2889737055
  0
LINE
  5
4E2
100
AcDbEntity
  8
CURVE
100
AcDbLine
 62
250
  6
CONTINUOUS
 10
0.2036421156
 20
6.6362898966
 11
0.2120019085
 21
6.6472487867
  0
LINE
  5
4E3
100
AcDbEntity
  8
CURVE
100
AcDbLine
 62
250
  6
CONTINUOUS
 10
-0.5236446823
 20
5.1289769683
 11
-0.51429671
 21
5.1392953207
  0
LINE
  5
4E4
100
AcDbEntity
  8
CURVE
100
AcDbLine
 62
250
  6
CONTINUOUS
 10
0.1944174667
 20
6.626609767
 11
0.2036421156
 21
6.6362898966
  0
LINE
  5
4E5
100
AcDbEntity
  8
CURVE
100
AcDbLine
 62
250
  6
CONTINUOUS
 10
-0.5338266585
 20
5.1201214305
 11
-0.5236446823
 21
5.1289769683
  0
LINE
  5
4E6
100
AcDbEntity
  8
CURVE
100
AcDbLine
 62
250
  6
CONTINUOUS
 10
-0.5447541715
 20
5.112773065
 11
-0.5338266585
 21
5.1201214305
  0
LWPOLYLINE
  5
4E7
100
AcDbEntity
  8
ASSI
100
AcDbPolyline
 62
250
  6
CONTINUOUS
 90
8
 70
0
 10
-5.0579046675
 20
1.5350565949
 10
-5.103014501
 20
1.5056345705
 10
-5.1497496904
 20
1.4664943616
 10
-5.19232972
 20
1.4209547995
 10
-5.2305191131
 20
1.3693039675
 10
-5.2641370439
 20
1.3118507658
 10
-5.2930331904
 20
1.2488886923
 10
-5.3170772177
 20
1.1807534125
  0
LWPOLYLINE
  5
4E8
100
AcDbEntity
  8
ASSI
100
AcDbPolyline
 62
250
  6
CONTINUOUS
 90
13
 70
0
 10
-5.5871786974
 20
0.8200979454
 10
-5.6257654844
 20
0.7958832514
 10
-5.6631960604
 20
0.7674199124
 10
-5.6991157394
 20
0.7348936287
 10
-5.7330649458
 20
0.6979609736
 10
-5.7647553007
 20
0.6569892929
 10
-5.7937919091
 20
0.6134962448
 10
-5.818993117
 20
0.5682412875
 10
-5.8398929028
 20
0.5214151146
 10
-5.8569272668
 20
0.4742219838
 10
-5.869736153
 20
0.4275938495
 10
-5.8772595473
 20
0.3819988564
 10
-5.8790031602
 20
0.338077446
  0
LINE
  5
4E9
100
AcDbEntity
  8
ASSI
100
AcDbLine
 62
250
  6
CONTINUOUS
 10
-5.5871787007
 20
0.8200979475
 11
-4.531503183
 21
1.4323956598
  0
LINE
  5
4EA
100
AcDbEntity
  8
ASSI
100
AcDbLine
 62
250
  6
CONTINUOUS
 10
-5.0546348229
 20
1.5369155121
 11
-5.0579046675
 21
1.5350565949
  0
LINE
  5
4EB
100
AcDbEntity
  8
ASSI
100
AcDbLine
 62
250
  6
CONTINUOUS
 10
-4.7106751796
 20
1.5209465792
 11
-5.3170772177
 21
1.1807534125
  0
LINE
  5
4EC
100
AcDbEntity
  8
ASSI
100
AcDbLine
 62
7
  6
CONTINUOUS
 10
-5.3892690125
 20
1.0860048787
 11
-4.6547433904
 21
1.4973299203
  0
LWPOLYLINE
  5
4ED
100
AcDbEntity
  8
ASSI
100
AcDbPolyline
 62
250
  6
CONTINUOUS
 90
16
 70
0
 10
-5.3170772179
 20
1.1807534116
 10
-5.3496119863
 20
1.1643213287
 10
-5.384231486
 20
1.1514941743
 10
-5.4208042399
 20
1.142049261
 10
-5.4594542197
 20
1.1356855741
 10
-5.4998960235
 20
1.1325855518
 10
-5.5412124481
 20
1.1331645228
 10
-5.5828554441
 20
1.1371224203
 10
-5.6246711097
 20
1.1442838097
 10
-5.666043884
 20
1.1550012347
 10
-5.7064035169
 20
1.1688900052
 10
-5.7453968573
 20
1.1855636688
 10
-5.7825937012
 20
1.2053339167
 10
-5.8175271421
 20
1.2279923346
 10
-5.8497807007
 20
1.2527530342
 10
-5.8790031602
 20
1.279038648
  0
LWPOLYLINE
  5
4EE
100
AcDbEntity
  8
ASSI
100
AcDbPolyline
 62
7
  6
CONTINUOUS
 90
12
 70
0
 10
-5.0579499054
 20
1.5350167399
 10
-5.0341512509
 20
1.5469863332
 10
-4.9979133533
 20
1.5587984819
 10
-4.9584955133
 20
1.5651487493
 10
-4.9158655197
 20
1.566462532
 10
-4.8689984256
 20
1.562754976
 10
-4.8187581933
 20
1.5539067896
 10
-4.7659701133
 20
1.540015078
 10
-4.7086469395
 20
1.5202471391
 10
-4.6461249537
 20
1.493665772
 10
-4.5798821913
 20
1.4602516589
 10
-4.5232827929
 20
1.4276624669
  0
LINE
  5
4EF
100
AcDbEntity
  8
CURVE
100
AcDbLine
 62
250
  6
CONTINUOUS
 10
-0.5568104213
 20
5.1068565376
 11
-0.5447541715
 21
5.112773065
  0
LWPOLYLINE
  5
4F0
100
AcDbEntity
  8
ASSI
100
AcDbPolyline
 62
250
  6
CONTINUOUS
 90
16
 70
0
 10
5.3792972086
 20
-5.8737238903
 10
5.4179909619
 20
-5.8907094851
 10
5.4593519705
 20
-5.9054316867
 10
5.5029875544
 20
-5.9177528116
 10
5.548479405
 20
-5.9275568273
 10
5.595401071
 20
-5.9347543337
 10
5.643323264
 20
-5.9392807652
 10
5.6918006048
 20
-5.9410925043
 10
5.740368753
 20
-5.9401708013
 10
5.7885631794
 20
-5.9365251629
 10
5.8359236085
 20
-5.9301907561
 10
5.882008597
 20
-5.921227201
 10
5.9263927902
 20
-5.9097177817
 10
5.9686591514
 20
-5.8957688546
 10
6.0084040253
 20
-5.8795107327
 10
6.0452505342
 20
-5.86109541
  0
LWPOLYLINE
  5
4F1
100
AcDbEntity
  8
ASSI
100
AcDbPolyline
 62
250
  6
CONTINUOUS
 90
13
 70
0
 10
0.1721091422
 20
-3.6677560448
 10
0.2513720727
 20
-3.7074037792
 10
0.3303666758
 20
-3.7406213504
 10
0.4087116933
 20
-3.7672158559
 10
0.4860896006
 20
-3.7870252691
 10
0.5620596232
 20
-3.7999148353
 10
0.6360696126
 20
-3.8058182096
 10
0.7077184776
 20
-3.8047149567
 10
0.7767199991
 20
-3.7966254939
 10
0.8427186192
 20
-3.781624166
 10
0.9053972929
 20
-3.7597852885
 10
0.9644641361
 20
-3.7312147761
 10
0.9742902981
 20
-3.7256019148
  0
LWPOLYLINE
  5
4F2
100
AcDbEntity
  8
ASSI
100
AcDbPolyline
 62
250
  6
CONTINUOUS
 90
19
 70
0
 10
-0.1006795398
 20
-4.1620371727
 10
-0.0004303936
 20
-4.2128579603
 10
0.0985241214
 20
-4.2551577167
 10
0.1961804045
 20
-4.2889385565
 10
0.2930630629
 20
-4.3142999163
 10
0.388643001
 20
-4.3311450133
 10
0.4813318187
 20
-4.3391841908
 10
0.5710056069
 20
-4.3382663187
 10
0.6577759394
 20
-4.3285499633
 10
0.7403997818
 20
-4.3102147294
 10
0.8188079689
 20
-4.2831564825
 10
0.8930543843
 20
-4.2474886434
 10
0.9620748788
 20
-4.2037205604
 10
1.0258183764
 20
-4.1516920236
 10
1.0843202646
 20
-4.0915728216
 10
1.1366417602
 20
-4.0243698731
 10
1.1824640286
 20
-3.9504224003
 10
1.2220913007
 20
-3.8694000834
 10
1.2555185823
 20
-3.7813059916
  0
LWPOLYLINE
  5
4F3
100
AcDbEntity
  8
ASSI
100
AcDbPolyline
 62
250
  6
CONTINUOUS
 90
10
 70
0
 10
-4.6055508624
 20
-1.5609809303
 10
-4.1166319954
 20
-1.8567975026
 10
-3.6247904747
 20
-2.1509214074
 10
-3.1300357744
 20
-2.4433471176
 10
-2.6323841527
 20
-2.7340651654
 10
-2.1318383809
 20
-3.0230740163
 10
-1.6283875609
 20
-3.3103799644
 10
-1.122034352
 20
-3.5959814106
 10
-0.6127951538
 20
-3.8798689695
 10
-0.1006795398
 20
-4.1620371727
  0
LINE
  5
4F4
100
AcDbEntity
  8
CURVE
100
AcDbLine
 62
250
  6
CONTINUOUS
 10
-0.7180959503
 20
-10.480261513
 11
-0.7211669216
 21
-10.4731552833
  0
LINE
  5
4F5
100
AcDbEntity
  8
CURVE
100
AcDbLine
 62
250
  6
CONTINUOUS
 10
-0.7113215757
 20
-10.497141164
 11
-0.7180959503
 21
-10.480261513
  0
LINE
  5
4F6
100
AcDbEntity
  8
CURVE
100
AcDbLine
 62
250
  6
CONTINUOUS
 10
-0.6611868504
 20
-12.3239993067
 11
-0.6671307211
 21
-12.3076845602
  0
LINE
  5
4F7
100
AcDbEntity
  8
CURVE
100
AcDbLine
 62
250
  6
CONTINUOUS
 10
-0.7052916381
 20
-10.513978674
 11
-0.7113215757
 21
-10.497141164
  0
LINE
  5
4F8
100
AcDbEntity
  8
CURVE
100
AcDbLine
 62
250
  6
CONTINUOUS
 10
-1.4628534306
 20
-10.5162982118
 11
-1.4570710943
 21
-10.5325744073
  0
LINE
  5
4F9
100
AcDbEntity
  8
CURVE
100
AcDbLine
 62
250
  6
CONTINUOUS
 10
-2.1160087934
 20
-8.8207465972
 11
-2.1203713127
 21
-8.8077742259
  0
LINE
  5
4FA
100
AcDbEntity
  8
CURVE
100
AcDbLine
 62
250
  6
CONTINUOUS
 10
-0.6571336054
 20
-12.3364460992
 11
-0.6611868504
 21
-12.3239993067
  0
LINE
  5
4FB
100
AcDbEntity
  8
CURVE
100
AcDbLine
 62
250
  6
CONTINUOUS
 10
-0.7000107225
 20
-10.530760042
 11
-0.7052916381
 21
-10.513978674
  0
LINE
  5
4FC
100
AcDbEntity
  8
CURVE
100
AcDbLine
 62
250
  6
CONTINUOUS
 10
-1.4679299943
 20
-10.5001194075
 11
-1.4628534306
 21
-10.5162982118
  0
LINE
  5
4FD
100
AcDbEntity
  8
CURVE
100
AcDbLine
 62
250
  6
CONTINUOUS
 10
-1.8385726307
 20
-10.6900452596
 11
-1.8466995833
 21
-10.6633922163
  0
LINE
  5
4FE
100
AcDbEntity
  8
CURVE
100
AcDbLine
 62
250
  6
CONTINUOUS
 10
-2.1111531728
 20
-8.8369416451
 11
-2.1160087934
 21
-8.8207465972
  0
LINE
  5
4FF
100
AcDbEntity
  8
CURVE
100
AcDbLine
 62
250
  6
CONTINUOUS
 10
-0.6547525298
 20
-12.3443965979
 11
-0.6571336054
 21
-12.3364460992
  0
LINE
  5
500
100
AcDbEntity
  8
CURVE
100
AcDbLine
 62
250
  6
CONTINUOUS
 10
-1.4369969716
 20
-11.8186344635
 11
-1.4321506122
 21
-11.8356444121
  0
LINE
  5
501
100
AcDbEntity
  8
CURVE
100
AcDbLine
 62
250
  6
CONTINUOUS
 10
-0.6978726491
 20
-10.5383177129
 11
-0.7000107225
 21
-10.530760042
  0
LINE
  5
502
100
AcDbEntity
  8
CURVE
100
AcDbLine
 62
250
  6
CONTINUOUS
 10
-1.8315577846
 20
-10.7159915993
 11
-1.8385726307
 21
-10.6900452596
  0
LINE
  5
503
100
AcDbEntity
  8
CURVE
100
AcDbLine
 62
250
  6
CONTINUOUS
 10
-1.4723039782
 20
-10.4838746446
 11
-1.4679299943
 21
-10.5001194075
  0
LINE
  5
504
100
AcDbEntity
  8
CURVE
100
AcDbLine
 62
250
  6
CONTINUOUS
 10
-0.6501677516
 20
-12.3614456764
 11
-0.6547525298
 21
-12.3443965979
  0
LINE
  5
505
100
AcDbEntity
  8
CURVE
100
AcDbLine
 62
250
  6
CONTINUOUS
 10
-2.5029109857
 20
-9.233101834
 11
-2.4988235285
 21
-9.2489281954
  0
LINE
  5
506
100
AcDbEntity
  8
CURVE
100
AcDbLine
 62
250
  6
CONTINUOUS
 10
-2.1070668155
 20
-8.8527702626
 11
-2.1111531728
 21
-8.8369416451
  0
LINE
  5
507
100
AcDbEntity
  8
CURVE
100
AcDbLine
 62
250
  6
CONTINUOUS
 10
-1.4384841669
 20
-11.8128238281
 11
-1.4369969716
 21
-11.8186344635
  0
LINE
  5
508
100
AcDbEntity
  8
CURVE
100
AcDbLine
 62
250
  6
CONTINUOUS
 10
-1.82565036
 20
-10.7411791542
 11
-1.8315577846
 21
-10.7159915993
  0
LINE
  5
509
100
AcDbEntity
  8
CURVE
100
AcDbLine
 62
250
  6
CONTINUOUS
 10
-1.4422735702
 20
-11.7960966784
 11
-1.4384841669
 21
-11.8128238281
  0
LINE
  5
50A
100
AcDbEntity
  8
CURVE
100
AcDbLine
 62
250
  6
CONTINUOUS
 10
-0.6464374627
 20
-12.3779822592
 11
-0.6501677516
 21
-12.3614456764
  0
LINE
  5
50B
100
AcDbEntity
  8
CURVE
100
AcDbLine
 62
250
  6
CONTINUOUS
 10
-1.4759464595
 20
-10.4676384932
 11
-1.4723039782
 21
-10.4838746446
  0
LINE
  5
50C
100
AcDbEntity
  8
CURVE
100
AcDbLine
 62
250
  6
CONTINUOUS
 10
-2.0268818691
 20
-12.0111049769
 11
-2.0302902365
 21
-11.9958417563
  0
LINE
  5
50D
100
AcDbEntity
  8
CURVE
100
AcDbLine
 62
250
  6
CONTINUOUS
 10
-2.5062115075
 20
-9.2177775469
 11
-2.5029109857
 21
-9.233101834
  0
LINE
  5
50E
100
AcDbEntity
  8
CURVE
100
AcDbLine
 62
250
  6
CONTINUOUS
 10
-2.1037633359
 20
-8.8681310658
 11
-2.1070668155
 21
-8.8527702626
  0
LINE
  5
50F
100
AcDbEntity
  8
CURVE
100
AcDbLine
 62
250
  6
CONTINUOUS
 10
-2.7156278286
 20
-10.461802467
 11
-2.7100017264
 21
-10.4891536657
  0
LINE
  5
510
100
AcDbEntity
  8
CURVE
100
AcDbLine
 62
250
  6
CONTINUOUS
 10
-3.0873299165
 20
-9.4307397903
 11
-3.0885246421
 21
-9.4249147564
  0
LINE
  5
511
100
AcDbEntity
  8
CURVE
100
AcDbLine
 62
250
  6
CONTINUOUS
 10
-1.8208408496
 20
-10.7655689689
 11
-1.82565036
 21
-10.7411791542
  0
LINE
  5
512
100
AcDbEntity
  8
CURVE
100
AcDbLine
 62
250
  6
CONTINUOUS
 10
-1.4452630734
 20
-11.7796479306
 11
-1.4422735702
 21
-11.7960966784
  0
LINE
  5
513
100
AcDbEntity
  8
CURVE
100
AcDbLine
 62
250
  6
CONTINUOUS
 10
-2.4269269123
 20
-12.3432165408
 11
-2.4242864727
 21
-12.3579259771
  0
LINE
  5
514
100
AcDbEntity
  8
CURVE
100
AcDbLine
 62
250
  6
CONTINUOUS
 10
-1.4788306464
 20
-10.4514925826
 11
-1.4759464595
 21
-10.4676384932
  0
LINE
  5
515
100
AcDbEntity
  8
CURVE
100
AcDbLine
 62
250
  6
CONTINUOUS
 10
-2.0242589622
 20
-12.0258238263
 11
-2.0268818691
 21
-12.0111049769
  0
LINE
  5
516
100
AcDbEntity
  8
CURVE
100
AcDbLine
 62
250
  6
CONTINUOUS
 10
-3.0844402988
 20
-9.4472206314
 11
-3.0873299165
 21
-9.4307397903
  0
LINE
  5
517
100
AcDbEntity
  8
CURVE
100
AcDbLine
 62
250
  6
CONTINUOUS
 10
-2.7204263903
 20
-10.4337441188
 11
-2.7156278286
 21
-10.461802467
  0
LINE
  5
518
100
AcDbEntity
  8
CURVE
100
AcDbLine
 62
250
  6
CONTINUOUS
 10
-2.5087296811
 20
-9.2029993101
 11
-2.5062115075
 21
-9.2177775469
  0
LINE
  5
519
100
AcDbEntity
  8
CURVE
100
AcDbLine
 62
250
  6
CONTINUOUS
 10
-2.101246319
 20
-8.8829409251
 11
-2.1037633359
 21
-8.8681310658
  0
LINE
  5
51A
100
AcDbEntity
  8
CURVE
100
AcDbLine
 62
250
  6
CONTINUOUS
 10
-1.8169041024
 20
-10.7901918835
 11
-1.8208408496
 21
-10.7655689689
  0
LINE
  5
51B
100
AcDbEntity
  8
CURVE
100
AcDbLine
 62
250
  6
CONTINUOUS
 10
-3.0499909641
 20
-10.7836309022
 11
-3.0525055031
 21
-10.7677494838
  0
LINE
  5
51C
100
AcDbEntity
  8
CURVE
100
AcDbLine
 62
250
  6
CONTINUOUS
 10
-2.7240869177
 20
-10.4061561056
 11
-2.7204263903
 21
-10.4337441188
  0
LINE
  5
51D
100
AcDbEntity
  8
CURVE
100
AcDbLine
 62
250
  6
CONTINUOUS
 10
-2.428786558
 20
-12.3291221157
 11
-2.4269269123
 21
-12.3432165408
  0
LINE
  5
51E
100
AcDbEntity
  8
CURVE
100
AcDbLine
 62
250
  6
CONTINUOUS
 10
-2.0224137425
 20
-12.0399659507
 11
-2.0242589622
 21
-12.0258238263
  0
LINE
  5
51F
100
AcDbEntity
  8
CURVE
100
AcDbLine
 62
250
  6
CONTINUOUS
 10
-3.0823445064
 20
-9.4633584541
 11
-3.0844402988
 21
-9.4472206314
  0
LINE
  5
520
100
AcDbEntity
  8
CURVE
100
AcDbLine
 62
250
  6
CONTINUOUS
 10
-3.8669491931
 20
-8.8054039944
 11
-3.8650443319
 21
-8.8208069666
  0
LINE
  5
521
100
AcDbEntity
  8
CURVE
100
AcDbLine
 62
250
  6
CONTINUOUS
 10
-2.5104736391
 20
-9.1887996792
 11
-2.5087296811
 21
-9.2029993101
  0
LINE
  5
522
100
AcDbEntity
  8
CURVE
100
AcDbLine
 62
250
  6
CONTINUOUS
 10
-4.7117987384
 20
9.5766172684
 11
-4.7095410273
 21
9.5575593019
  0
LINE
  5
523
100
AcDbEntity
  8
CURVE
100
AcDbLine
 62
250
  6
CONTINUOUS
 10
-3.0482803625
 20
-10.7990609466
 11
-3.0499909641
 21
-10.7836309022
  0
LINE
  5
524
100
AcDbEntity
  8
CURVE
100
AcDbLine
 62
250
  6
CONTINUOUS
 10
-0.68617753
 20
-10.6023775147
 11
-0.6878596129
 21
-10.5870203835
  0
LINE
  5
525
100
AcDbEntity
  8
CURVE
100
AcDbLine
 62
250
  6
CONTINUOUS
 10
-1.8103960565
 20
-10.8486702186
 11
-1.8134810885
 21
-10.817262509
  0
LINE
  5
526
100
AcDbEntity
  8
CURVE
100
AcDbLine
 62
250
  6
CONTINUOUS
 10
-1.4816659216
 20
-10.4278658895
 11
-1.4809331334
 21
-10.4355242782
  0
LINE
  5
527
100
AcDbEntity
  8
CURVE
100
AcDbLine
 62
250
  6
CONTINUOUS
 10
-2.9373031759
 20
8.4729046795
 11
-2.9294849889
 21
8.3906422208
  0
LINE
  5
528
100
AcDbEntity
  8
CURVE
100
AcDbLine
 62
250
  6
CONTINUOUS
 10
-1.4488127256
 20
-11.7477990934
 11
-1.4474446341
 21
-11.7635315493
  0
LINE
  5
529
100
AcDbEntity
  8
CURVE
100
AcDbLine
 62
250
  6
CONTINUOUS
 10
-0.6403415619
 20
-12.4239351158
 11
-0.6415327648
 21
-12.4092713834
  0
LINE
  5
52A
100
AcDbEntity
  8
CURVE
100
AcDbLine
 62
250
  6
CONTINUOUS
 10
-1.807812852
 20
-10.8808274977
 11
-1.8103960565
 21
-10.8486702186
  0
LINE
  5
52B
100
AcDbEntity
  8
CURVE
100
AcDbLine
 62
250
  6
CONTINUOUS
 10
-2.536896351
 20
5.6203609418
 11
-2.535570595
 21
5.6018664088
  0
LINE
  5
52C
100
AcDbEntity
  8
CURVE
100
AcDbLine
 62
250
  6
CONTINUOUS
 10
-3.0557141389
 20
7.4821495495
 11
-3.0570763004
 21
7.5012958529
  0
LINE
  5
52D
100
AcDbEntity
  8
CURVE
100
AcDbLine
 62
250
  6
CONTINUOUS
 10
-2.0927336846
 20
6.443667736
 11
-2.0940176796
 21
6.4621863814
  0
LINE
  5
52E
100
AcDbEntity
  8
CURVE
100
AcDbLine
 62
250
  6
CONTINUOUS
 10
-2.0977759517
 20
-8.9232761014
 11
-2.0995113988
 21
-8.8971342788
  0
LINE
  5
52F
100
AcDbEntity
  8
CURVE
100
AcDbLine
 62
250
  6
CONTINUOUS
 10
-2.9995734448
 20
9.768213555
 11
-3.0008321309
 21
9.7874624664
  0
LINE
  5
530
100
AcDbEntity
  8
CURVE
100
AcDbLine
 62
250
  6
CONTINUOUS
 10
-3.4294516905
 20
8.8594608809
 11
-3.430646005
 21
8.8779613028
  0
LINE
  5
531
100
AcDbEntity
  8
CURVE
100
AcDbLine
 62
250
  6
CONTINUOUS
 10
-2.4379611275
 20
9.8864504882
 11
-2.4368290752
 21
9.867856333
  0
LINE
  5
532
100
AcDbEntity
  8
CURVE
100
AcDbLine
 62
250
  6
CONTINUOUS
 10
-1.4825380113
 20
-10.4127955535
 11
-1.4816659216
 21
-10.4278658895
  0
LINE
  5
533
100
AcDbEntity
  8
CURVE
100
AcDbLine
 62
250
  6
CONTINUOUS
 10
-2.4450599651
 20
-11.8209591758
 11
-2.428786558
 21
-12.3291221157
  0
LINE
  5
534
100
AcDbEntity
  8
CURVE
100
AcDbLine
 62
250
  6
CONTINUOUS
 10
-2.006170359
 20
-12.5481462258
 11
-2.0224137425
 21
-12.0399659507
  0
LINE
  5
535
100
AcDbEntity
  8
CURVE
100
AcDbLine
 62
250
  6
CONTINUOUS
 10
-1.4492243371
 20
-11.7326823604
 11
-1.4488127256
 21
-11.7477990934
  0
LINE
  5
536
100
AcDbEntity
  8
CURVE
100
AcDbLine
 62
250
  6
CONTINUOUS
 10
-2.5223792392
 20
-8.6781148222
 11
-2.5104736391
 21
-9.1887996792
  0
LINE
  5
537
100
AcDbEntity
  8
CURVE
100
AcDbLine
 62
250
  6
CONTINUOUS
 10
-2.0876353404
 20
-9.4078361926
 11
-2.0977759517
 21
-8.9232761014
  0
LINE
  5
538
100
AcDbEntity
  8
CURVE
100
AcDbLine
 62
250
  6
CONTINUOUS
 10
-2.9387900165
 20
8.5526338677
 11
-2.9373031759
 21
8.4729046795
  0
LINE
  5
539
100
AcDbEntity
  8
CURVE
100
AcDbLine
 62
250
  6
CONTINUOUS
 10
-2.5371296958
 20
5.6382164556
 11
-2.536896351
 21
5.6203609418
  0
LINE
  5
53A
100
AcDbEntity
  8
CURVE
100
AcDbLine
 62
250
  6
CONTINUOUS
 10
-2.728079085
 20
-10.3303212876
 11
-2.7277789118
 21
-10.3550993094
  0
LINE
  5
53B
100
AcDbEntity
  8
CURVE
100
AcDbLine
 62
250
  6
CONTINUOUS
 10
-3.0555211106
 20
7.4637694103
 11
-3.0557141389
 21
7.4821495495
  0
LINE
  5
53C
100
AcDbEntity
  8
CURVE
100
AcDbLine
 62
250
  6
CONTINUOUS
 10
-2.0925456149
 20
6.4257860809
 11
-2.0927336846
 21
6.443667736
  0
LINE
  5
53D
100
AcDbEntity
  8
CURVE
100
AcDbLine
 62
250
  6
CONTINUOUS
 10
-2.9994861252
 20
9.7497546284
 11
-2.9995734448
 21
9.768213555
  0
LINE
  5
53E
100
AcDbEntity
  8
CURVE
100
AcDbLine
 62
250
  6
CONTINUOUS
 10
-2.438000715
 20
9.9044153742
 11
-2.4379611275
 21
9.8864504882
  0
LINE
  5
53F
100
AcDbEntity
  8
CURVE
100
AcDbLine
 62
250
  6
CONTINUOUS
 10
-3.0807823519
 20
-9.5005769311
 11
-3.0807997594
 21
-9.4855787913
  0
LINE
  5
540
100
AcDbEntity
  8
CURVE
100
AcDbLine
 62
250
  6
CONTINUOUS
 10
-1.9820028184
 20
10.6985751935
 11
-1.9819919073
 21
10.7167573097
  0
LINE
  5
541
100
AcDbEntity
  8
CURVE
100
AcDbLine
 62
250
  6
CONTINUOUS
 10
-3.047410348
 20
-10.8364818078
 11
-3.0471594044
 21
-10.821929825
  0
LINE
  5
542
100
AcDbEntity
  8
CURVE
100
AcDbLine
 62
250
  6
CONTINUOUS
 10
-2.5173930819
 20
6.6710876831
 11
-2.5371296958
 21
5.6382164556
  0
LINE
  5
543
100
AcDbEntity
  8
CURVE
100
AcDbLine
 62
250
  6
CONTINUOUS
 10
-2.1122822287
 20
5.3929148534
 11
-2.0925456149
 21
6.4257860809
  0
LINE
  5
544
100
AcDbEntity
  8
CURVE
100
AcDbLine
 62
250
  6
CONTINUOUS
 10
-2.727309784
 20
-10.3051038029
 11
-2.728079085
 21
-10.3303212876
  0
LINE
  5
545
100
AcDbEntity
  8
CURVE
100
AcDbLine
 62
250
  6
CONTINUOUS
 10
-2.4068502854
 20
10.9438767957
 11
-2.438000715
 21
9.9044153742
  0
LINE
  5
546
100
AcDbEntity
  8
CURVE
100
AcDbLine
 62
250
  6
CONTINUOUS
 10
-2.013153248
 20
9.6591137719
 11
-1.9820028184
 21
10.6985751935
  0
LINE
  5
547
100
AcDbEntity
  8
CURVE
100
AcDbLine
 62
250
  6
CONTINUOUS
 10
-2.1131413111
 20
5.3756807671
 11
-2.1122822287
 21
5.3929148534
  0
LINE
  5
548
100
AcDbEntity
  8
CURVE
100
AcDbLine
 62
250
  6
CONTINUOUS
 10
-2.5164887627
 20
6.6883448093
 11
-2.5173930819
 21
6.6710876831
  0
LINE
  5
549
100
AcDbEntity
  8
CURVE
100
AcDbLine
 62
250
  6
CONTINUOUS
 10
-3.0815661671
 20
-9.514989684
 11
-3.0807823519
 21
-9.5005769311
  0
LINE
  5
54A
100
AcDbEntity
  8
CURVE
100
AcDbLine
 62
250
  6
CONTINUOUS
 10
-1.5276251493
 20
6.5995888324
 11
-1.5286098772
 21
6.5818616149
  0
LINE
  5
54B
100
AcDbEntity
  8
CURVE
100
AcDbLine
 62
250
  6
CONTINUOUS
 10
-2.4438647596
 20
-11.8012110541
 11
-2.4450599651
 21
-11.8209591758
  0
LINE
  5
54C
100
AcDbEntity
  8
CURVE
100
AcDbLine
 62
250
  6
CONTINUOUS
 10
-2.0142062841
 20
9.6417702041
 11
-2.013153248
 21
9.6591137719
  0
LINE
  5
54D
100
AcDbEntity
  8
CURVE
100
AcDbLine
 62
250
  6
CONTINUOUS
 10
-1.4714772204
 20
8.8859349124
 11
-1.4725726549
 21
8.8679887656
  0
LINE
  5
54E
100
AcDbEntity
  8
CURVE
100
AcDbLine
 62
250
  6
CONTINUOUS
 10
-2.405751848
 20
10.961243599
 11
-2.4068502854
 21
10.9438767957
  0
LINE
  5
54F
100
AcDbEntity
  8
CURVE
100
AcDbLine
 62
250
  6
CONTINUOUS
 10
-1.5989049151
 20
7.7012915695
 11
-1.5940753243
 21
7.7767911835
  0
LINE
  5
550
100
AcDbEntity
  8
CURVE
100
AcDbLine
 62
250
  6
CONTINUOUS
 10
-2.5210083206
 20
-8.658402232
 11
-2.5223792392
 21
-8.6781148222
  0
LINE
  5
551
100
AcDbEntity
  8
CURVE
100
AcDbLine
 62
250
  6
CONTINUOUS
 10
-3.0484529826
 20
-10.8503522298
 11
-3.047410348
 21
-10.8364818078
  0
LINE
  5
552
100
AcDbEntity
  8
CURVE
100
AcDbLine
 62
250
  6
CONTINUOUS
 10
-2.7253660284
 20
-10.2806819924
 11
-2.727309784
 21
-10.3051038029
  0
LINE
  5
553
100
AcDbEntity
  8
CURVE
100
AcDbLine
 62
250
  6
CONTINUOUS
 10
-3.8669717784
 20
-8.7483095623
 11
-3.8681242421
 21
-8.7621163815
  0
LINE
  5
554
100
AcDbEntity
  8
CURVE
100
AcDbLine
 62
250
  6
CONTINUOUS
 10
-2.5193561653
 20
-8.6414024576
 11
-2.5210083206
 21
-8.658402232
  0
LINE
  5
555
100
AcDbEntity
  8
CURVE
100
AcDbLine
 62
250
  6
CONTINUOUS
 10
-3.8211369178
 20
-10.5560022848
 11
-3.8225052016
 21
-10.5695131399
  0
LINE
  5
556
100
AcDbEntity
  8
CURVE
100
AcDbLine
 62
250
  6
CONTINUOUS
 10
-3.0831399188
 20
-9.5287290803
 11
-3.0815661671
 21
-9.514989684
  0
LINE
  5
557
100
AcDbEntity
  8
CURVE
100
AcDbLine
 62
250
  6
CONTINUOUS
 10
-2.1150978791
 20
5.3590499539
 11
-2.1131413111
 21
5.3756807671
  0
LINE
  5
558
100
AcDbEntity
  8
CURVE
100
AcDbLine
 62
250
  6
CONTINUOUS
 10
-1.0905761374
 20
7.5268551867
 11
-1.0926747785
 21
7.5101270528
  0
LINE
  5
559
100
AcDbEntity
  8
CURVE
100
AcDbLine
 62
250
  6
CONTINUOUS
 10
-1.5254413159
 20
6.6167607567
 11
-1.5276251493
 21
6.5995888324
  0
LINE
  5
55A
100
AcDbEntity
  8
CURVE
100
AcDbLine
 62
250
  6
CONTINUOUS
 10
-2.0163564616
 20
9.6250382662
 11
-2.0142062841
 21
9.6417702041
  0
LINE
  5
55B
100
AcDbEntity
  8
CURVE
100
AcDbLine
 62
250
  6
CONTINUOUS
 10
-1.4691900747
 20
8.9032194179
 11
-1.4714772204
 21
8.8859349124
  0
LINE
  5
55C
100
AcDbEntity
  8
CURVE
100
AcDbLine
 62
250
  6
CONTINUOUS
 10
-3.8650134605
 20
-8.7349086641
 11
-3.8669717784
 21
-8.7483095623
  0
LINE
  5
55D
100
AcDbEntity
  8
CURVE
100
AcDbLine
 62
250
  6
CONTINUOUS
 10
-1.6105719735
 20
7.6304239495
 11
-1.5989049151
 21
7.7012915695
  0
LINE
  5
55E
100
AcDbEntity
  8
CURVE
100
AcDbLine
 62
250
  6
CONTINUOUS
 10
-3.8189753883
 20
-10.54308827
 11
-3.8211369178
 21
-10.5560022848
  0
LINE
  5
55F
100
AcDbEntity
  8
CURVE
100
AcDbLine
 62
250
  6
CONTINUOUS
 10
-2.1181489602
 20
5.3431265815
 11
-2.1150978791
 21
5.3590499539
  0
LINE
  5
560
100
AcDbEntity
  8
CURVE
100
AcDbLine
 62
250
  6
CONTINUOUS
 10
-1.0873653297
 20
7.5429101652
 11
-1.0905761374
 21
7.5268551867
  0
LINE
  5
561
100
AcDbEntity
  8
CURVE
100
AcDbLine
 62
250
  6
CONTINUOUS
 10
-1.5220580449
 20
6.6332415868
 11
-1.5254413159
 21
6.6167607567
  0
LINE
  5
562
100
AcDbEntity
  8
CURVE
100
AcDbLine
 62
250
  6
CONTINUOUS
 10
-0.3941138328
 20
8.9519693088
 11
-0.3905838401
 21
8.9685888117
  0
LINE
  5
563
100
AcDbEntity
  8
CURVE
100
AcDbLine
 62
250
  6
CONTINUOUS
 10
-3.8622469886
 20
-8.7219874464
 11
-3.8650134605
 21
-8.7349086641
  0
LINE
  5
564
100
AcDbEntity
  8
CURVE
100
AcDbLine
 62
250
  6
CONTINUOUS
 10
-1.0830543055
 20
7.5581758673
 11
-1.0873653297
 21
7.5429101652
  0
LINE
  5
565
100
AcDbEntity
  8
CURVE
100
AcDbLine
 62
250
  6
CONTINUOUS
 10
0.2311495769
 20
6.6866689737
 11
0.2355022091
 21
6.7019109343
  0
LINE
  5
566
100
AcDbEntity
  8
CURVE
100
AcDbLine
 62
250
  6
CONTINUOUS
 10
-0.4893356115
 20
5.1858755246
 11
-0.4847565766
 21
5.2015802196
  0
LINE
  5
567
100
AcDbEntity
  8
CURVE
100
AcDbLine
 62
250
  6
CONTINUOUS
 10
-0.3988191009
 20
8.9362769349
 11
-0.3941138328
 21
8.9519693088
  0
LINE
  5
568
100
AcDbEntity
  8
CURVE
100
AcDbLine
 62
250
  6
CONTINUOUS
 10
0.2258817023
 20
6.6727383277
 11
0.2311495769
 21
6.6866689737
  0
LINE
  5
569
100
AcDbEntity
  8
CURVE
100
AcDbLine
 62
250
  6
CONTINUOUS
 10
-0.4950891016
 20
5.1711237671
 11
-0.4893356115
 21
5.1858755246
  0
LINE
  5
56A
100
AcDbEntity
  8
CURVE
100
AcDbLine
 62
250
  6
CONTINUOUS
 10
-0.4984501039
 20
5.1640369036
 11
-0.4950891016
 21
5.1711237671
  0
LINE
  5
56B
100
AcDbEntity
  8
CURVE
100
AcDbLine
 62
250
  6
CONTINUOUS
 10
0.2194345444
 20
6.6594240789
 11
0.2258817023
 21
6.6727383277
  0
LINE
  5
56C
100
AcDbEntity
  8
CURVE
100
AcDbLine
 62
250
  6
CONTINUOUS
 10
-0.5058707249
 20
5.1510110499
 11
-0.4984501039
 21
5.1640369036
  0
LINE
  5
56D
100
AcDbEntity
  8
ASSI
100
AcDbLine
 62
250
  6
CONTINUOUS
 10
-5.3170772177
 20
0.4344445355
 11
-4.0715541067
 21
1.1544681045
  0
LWPOLYLINE
  5
56E
100
AcDbEntity
  8
ASSI
100
AcDbPolyline
 62
250
  6
CONTINUOUS
 90
16
 70
0
 10
-5.3170772179
 20
0.4344445367
 10
-5.3496092092
 20
0.4179285118
 10
-5.384225923
 20
0.4022135586
 10
-5.42079599
 20
0.3875014049
 10
-5.4594433759
 20
0.37415238
 10
-5.4998828219
 20
0.3622054556
 10
-5.5411975147
 20
0.3514932421
 10
-5.5828396276
 20
0.3425308051
 10
-5.6246552069
 20
0.3355553313
 10
-5.666028707
 20
0.3300848979
 10
-5.7063899084
 20
0.3265065312
 10
-5.745385515
 20
0.3251578239
 10
-5.7825850316
 20
0.3254556857
 10
-5.8175213487
 20
0.3273935548
 10
-5.8497778615
 20
0.331530227
 10
-5.8790031602
 20
0.338077446
  0
LWPOLYLINE
  5
56F
100
AcDbEntity
  8
ASSI
100
AcDbPolyline
 62
250
  6
CONTINUOUS
 90
16
 70
0
 10
5.6342503482
 20
-5.3714179609
 10
5.6420711051
 20
-5.3748317392
 10
5.6502795076
 20
-5.3777468097
 10
5.6588755558
 20
-5.3801631723
 10
5.6679520093
 20
-5.3820962911
 10
5.6774161083
 20
-5.3835307022
 10
5.6869895743
 20
-5.3844200135
 10
5.6966708913
 20
-5.3847467656
 10
5.7064615752
 20
-5.3845284179
 10
5.7160878943
 20
-5.383770957
 10
5.7255477237
 20
-5.3824578875
 10
5.7348431884
 20
-5.3806057048
 10
5.7437069307
 20
-5.378269881
 10
5.7520498317
 20
-5.3754689069
 10
5.7599610104
 20
-5.3721842918
 10
5.7674404669
 20
-5.3684160356
  0
LWPOLYLINE
  5
570
100
AcDbEntity
  8
ASSI
100
AcDbPolyline
 62
7
  6
CONTINUOUS
 90
13
 70
0
 10
5.4617680016
 20
-5.1211831956
 10
5.4691697495
 20
-5.1247106093
 10
5.5127166047
 20
-5.142671686
 10
5.5571168732
 20
-5.1565196151
 10
5.603079492
 20
-5.1666357171
 10
5.6502736502
 20
-5.1729029851
 10
5.6971356862
 20
-5.1752160685
 10
5.7440493212
 20
-5.1736893991
 10
5.7913946009
 20
-5.1682000627
 10
5.8375802787
 20
-5.1588433771
 10
5.8822578646
 20
-5.1457150404
 10
5.9261781397
 20
-5.128455667
 10
5.9594907184
 20
-5.1120739804
  0
LWPOLYLINE
  5
571
100
AcDbEntity
  8
ASSI
100
AcDbPolyline
 62
250
  6
CONTINUOUS
 90
6
 70
0
 10
5.3792972676
 20
-4.9378750797
 10
4.6804134848
 20
-4.5954526837
 10
3.9861351799
 20
-4.2501493451
 10
3.2964845494
 20
-3.9019759065
 10
2.6114837704
 20
-3.5509432266
 10
1.9311546263
 20
-3.1970624159
  0
LWPOLYLINE
  5
572
100
AcDbEntity
  8
ASSI
100
AcDbPolyline
 62
250
  6
CONTINUOUS
 90
7
 70
0
 10
1.2555185823
 20
-3.7813059916
 10
1.9311527678
 20
-4.1374203674
 10
2.6114807749
 20
-4.4905983969
 10
3.2964811541
 20
-4.8408287661
 10
3.9861321372
 20
-5.1881003672
 10
4.6804115626
 20
-5.5324023457
 10
5.3792972488
 20
-5.8737238645
  0
LWPOLYLINE
  5
573
100
AcDbEntity
  8
ASSI
100
AcDbPolyline
 62
250
  6
CONTINUOUS
 90
7
 70
0
 10
1.5239590091
 20
-3.2857838427
 10
2.1971406841
 20
-3.6406154686
 10
2.8750691116
 20
-3.9925567186
 10
3.5577442918
 20
-4.3416075929
 10
4.2451662247
 20
-4.6877680914
 10
4.9373349101
 20
-5.031038214
 10
5.6342503482
 20
-5.3714179609
  0
LINE
  5
574
100
AcDbEntity
  8
ASSI
100
AcDbLine
 62
250
  6
CONTINUOUS
 10
1.9311546263
 20
-3.1970624159
 11
1.2555185823
 21
-2.8403447896
  0
LWPOLYLINE
  5
575
100
AcDbEntity
  8
ASSI
100
AcDbPolyline
 62
7
  6
CONTINUOUS
 90
10
 70
0
 10
1.3385832854
 20
-3.0240243574
 10
1.7463483963
 20
-3.2399438532
 10
2.2107826605
 20
-3.4835179905
 10
2.6774468485
 20
-3.7257726898
 10
3.1463256278
 20
-3.96669995
 10
3.6174069014
 20
-4.2062934409
 10
4.0906818769
 20
-4.4445484527
 10
4.5661385265
 20
-4.6814585695
 10
5.0437615179
 20
-4.91701572
 10
5.4617942667
 20
-5.1212085494
  0
LWPOLYLINE
  5
576
100
AcDbEntity
  8
ASSI
100
AcDbPolyline
 62
250
  6
CONTINUOUS
 90
8
 70
0
 10
5.4617630499
 20
-5.1211933634
 10
5.4536364328
 20
-5.1168089546
 10
5.431680121
 20
-5.0998190717
 10
5.4131985962
 20
-5.0770954317
 10
5.398505065
 20
-5.049023132
 10
5.3878485385
 20
-5.016077914
 10
5.3814096129
 20
-4.9788181
 10
5.3792974087
 20
-4.9378751321
  0
LINE
  5
577
100
AcDbEntity
  8
ASSI
100
AcDbLine
 62
250
  6
CONTINUOUS
 10
1.3384807879
 20
-3.0239696252
 11
1.333783177
 21
-3.0213241586
  0
LINE
  5
578
100
AcDbEntity
  8
ASSI
100
AcDbLine
 62
7
  6
CONTINUOUS
 10
1.1151405737
 20
-2.6823470277
 11
-3.0045183072
 21
-0.3037076213
  0
LWPOLYLINE
  5
579
100
AcDbEntity
  8
ASSI
100
AcDbPolyline
 62
250
  6
CONTINUOUS
 90
10
 70
0
 10
-4.3177964453
 20
-1.0753386474
 10
-3.8305115971
 20
-1.370156398
 10
-3.3403197385
 20
-1.6632862232
 10
-2.8472208694
 20
-1.9547281228
 10
-2.3512035614
 20
-2.244488694
 10
-1.8522792429
 20
-2.5325613396
 10
-1.3504821995
 20
-2.8189262685
 10
-0.8458238597
 20
-3.1035768835
 10
-0.3382927948
 20
-3.3865197817
 10
0.1721109949
 20
-3.6677549631
  0
LWPOLYLINE
  5
57A
100
AcDbEntity
  8
ASSI
100
AcDbPolyline
 62
7
  6
CONTINUOUS
 90
14
 70
0
 10
-2.2974117465
 20
-0.3853150668
 10
-2.3895554252
 20
-0.3288837646
 10
-2.4809361928
 20
-0.2664149398
 10
-2.5715540495
 20
-0.1979085924
 10
-2.6618472653
 20
-0.1229959502
 10
-2.7513775702
 20
-0.0420457855
 10
-2.8388301531
 20
0.0438355859
 10
-2.924080765
 20
0.1346477555
 10
-3.0072536549
 20
0.2303911316
 10
-3.0874067592
 20
0.3299606241
 10
-3.1644945523
 20
0.4333807721
 10
-3.2385625598
 20
0.5406270364
 10
-3.3088052946
 20
0.6505207093
 10
-3.3536663733
 20
0.7266109932
  0
LWPOLYLINE
  5
57B
100
AcDbEntity
  8
ASSI
100
AcDbPolyline
 62
7
  6
CONTINUOUS
 90
19
 70
0
 10
-3.0045183072
 20
-0.3037076213
 10
-3.0808740505
 20
-0.2564954352
 10
-3.1568457735
 20
-0.203270073
 10
-3.2320521078
 20
-0.1442988942
 10
-3.3061148948
 20
-0.0798786829
 10
-3.3786630605
 20
-0.0103324663
 10
-3.4493343301
 20
0.0639925505
 10
-3.5177748704
 20
0.1427247465
 10
-3.5836398661
 20
0.2254679779
 10
-3.6465973012
 20
0.3118053098
 10
-3.7063307429
 20
0.4013026701
 10
-3.762540764
 20
0.4935112976
 10
-3.8149452148
 20
0.587968288
 10
-3.8632808825
 20
0.684199108
 10
-3.9073053221
 20
0.7817209647
 10
-3.9467979345
 20
0.880045292
 10
-3.9815604548
 20
0.9786788305
 10
-4.0114181006
 20
1.0771260697
 10
-4.0237921053
 20
1.1259015218
  0
LINE
  5
57C
100
AcDbEntity
  8
ASSI
100
AcDbLine
 62
7
  6
CONTINUOUS
 10
-6.1664822597
 20
1.3286110288
 11
-5.7971464539
 21
1.0960808378
  0
LWPOLYLINE
  5
57D
100
AcDbEntity
  8
ASSI
100
AcDbPolyline
 62
250
  6
CONTINUOUS
 90
6
 70
0
 10
-5.8790031602
 20
1.279038648
 10
-6.4962931676
 20
1.6688402211
 10
-7.1085841402
 20
2.0613019815
 10
-7.715856474
 20
2.45641155
 10
-8.3180909202
 20
2.8541563639
 10
-8.9152686675
 20
3.2545236344
  0
LINE
  5
57E
100
AcDbEntity
  8
ASSI
100
AcDbLine
 62
250
  6
CONTINUOUS
 10
-6.2022315191
 20
1.2090766756
 11
-5.5871787007
 21
0.8200979475
  0
LWPOLYLINE
  5
57F
100
AcDbEntity
  8
ASSI
100
AcDbPolyline
 62
250
  6
CONTINUOUS
 90
13
 70
0
 10
-5.5871786974
 20
0.8200979454
 10
-5.5574898315
 20
0.8009223862
 10
-5.5281051974
 20
0.7783252228
 10
-5.4993533912
 20
0.7525590913
 10
-5.4715559277
 20
0.7239120574
 10
-5.445023686
 20
0.6927044371
 10
-5.4200534257
 20
0.659285228
 10
-5.3969243467
 20
0.6240280339
 10
-5.3758951885
 20
0.5873271973
 10
-5.3572013059
 20
0.5495934788
 10
-5.341051757
 20
0.511248981
 10
-5.3276270348
 20
0.4727223915
 10
-5.3170772179
 20
0.4344445367
  0
LINE
  5
580
100
AcDbEntity
  8
ASSI
100
AcDbLine
 62
250
  6
CONTINUOUS
 10
-8.9152686675
 20
3.2545236344
 11
-9.5073709336
 21
3.6575005616
  0
LWPOLYLINE
  5
581
100
AcDbEntity
  8
ASSI
100
AcDbPolyline
 62
250
  6
CONTINUOUS
 90
7
 70
0
 10
-9.5073709495
 20
2.7216517786
 10
-8.9152703084
 20
2.3175741349
 10
-8.3180935572
 20
1.9162055761
 10
-7.7158594614
 20
1.5175589259
 10
-7.1085868159
 20
1.1216469959
 10
-6.4962948529
 20
0.7284823695
 10
-5.8790031602
 20
0.338077446
  0
LWPOLYLINE
  5
582
100
AcDbEntity
  8
ASSI
100
AcDbPolyline
 62
250
  6
CONTINUOUS
 90
6
 70
0
 10
-9.2036790432
 20
3.1958165337
 10
-8.6132317475
 20
2.7928890664
 10
-8.0178633472
 20
2.392751347
 10
-7.4175738423
 20
1.9954033753
 10
-6.812363233
 20
1.6008451515
 10
-6.2022315191
 20
1.2090766756
  0
LWPOLYLINE
  5
583
100
AcDbEntity
  8
ASSI
100
AcDbPolyline
 62
7
  6
CONTINUOUS
 90
9
 70
0
 10
-9.4274305311
 20
3.475864322
 10
-9.0697206137
 20
3.2316793031
 10
-8.6620017078
 20
2.9560456269
 10
-8.2519194596
 20
2.681655269
 10
-7.8394880953
 20
2.4085169647
 10
-7.4247189331
 20
2.1366375147
 10
-7.0076203029
 20
1.8660218304
 10
-6.5882033787
 20
1.5966767571
 10
-6.1664822597
 20
1.3286110288
  0
LWPOLYLINE
  5
584
100
AcDbEntity
  8
ASSI
100
AcDbPolyline
 62
250
  6
CONTINUOUS
 90
8
 70
0
 10
-9.5073709813
 20
3.6575005367
 10
-9.5368160863
 20
3.6798261851
 10
-9.5623581627
 20
3.7036820398
 10
-9.5837585489
 20
3.7288414893
 10
-9.6008165061
 20
3.7550628786
 10
-9.6133763599
 20
3.7821004647
 10
-9.6213243961
 20
3.8097074734
 10
-9.6245026401
 20
3.8369234728
  0
LWPOLYLINE
  5
585
100
AcDbEntity
  8
ASSI
100
AcDbPolyline
 62
250
  6
CONTINUOUS
 90
7
 70
0
 10
-4.5232793835
 20
1.4276680759
 10
-4.5466943065
 20
1.4454939689
 10
-4.5675338072
 20
1.4696604929
 10
-4.5840812481
 20
1.4989304739
 10
-4.5960549034
 20
1.5328055805
 10
-4.6032509175
 20
1.5707090774
 10
-4.6055467757
 20
1.6119956445
  0
LWPOLYLINE
  5
586
100
AcDbEntity
  8
ASSI
100
AcDbPolyline
 62
250
  6
CONTINUOUS
 90
7
 70
0
 10
1.333783177
 20
-3.0213241586
 10
1.3108919713
 20
-3.0038876834
 10
1.2911429274
 20
-2.9805316354
 10
1.2757656388
 20
-2.9520525865
 10
1.2650985348
 20
-2.9189791948
 10
1.25847476
 20
-2.8815525998
 10
1.2555185823
 20
-2.8403447896
  0
LWPOLYLINE
  5
587
100
AcDbEntity
  8
ASSI
100
AcDbPolyline
 62
250
  6
CONTINUOUS
 90
7
 70
0
 10
-5.7973360872
 20
1.0962000172
 10
-5.8189884069
 20
1.1128142677
 10
-5.8398894725
 20
1.1368343004
 10
-5.8569251401
 20
1.1662702918
 10
-5.8697351167
 20
1.200581107
 10
-5.8772592875
 20
1.2385286749
 10
-5.8790031602
 20
1.279038648
  0
LWPOLYLINE
  5
588
100
AcDbEntity
  8
ASSI
100
AcDbPolyline
 62
250
  6
CONTINUOUS
 90
7
 70
0
 10
-9.4277378548
 20
3.4760914765
 10
-9.4447737192
 20
3.4896744156
 10
-9.4668038397
 20
3.5144481805
 10
-9.4843329631
 20
3.5441585912
 10
-9.4970640279
 20
3.5783021532
 10
-9.504781284
 20
3.6163002452
 10
-9.5073539487
 20
3.6575089237
  0
LINE
  5
589
100
AcDbEntity
  8
CURVE
100
AcDbLine
 62
250
  6
CONTINUOUS
 10
-4.6963819037
 20
9.4975421989
 11
-4.6905258944
 21
9.4788231537
  0
LINE
  5
58A
100
AcDbEntity
  8
CURVE
100
AcDbLine
 62
250
  6
CONTINUOUS
 10
-4.0901852398
 20
7.2369164765
 11
-4.0836795449
 21
7.2160640103
  0
LINE
  5
58B
100
AcDbEntity
  8
CURVE
100
AcDbLine
 62
250
  6
CONTINUOUS
 10
-4.0933818711
 20
7.2486439988
 11
-4.0901852398
 21
7.2369164765
  0
LINE
  5
58C
100
AcDbEntity
  8
CURVE
100
AcDbLine
 62
250
  6
CONTINUOUS
 10
-4.7018139002
 20
9.51786966
 11
-4.6963819037
 21
9.4975421989
  0
LINE
  5
58D
100
AcDbEntity
  8
CURVE
100
AcDbLine
 62
250
  6
CONTINUOUS
 10
-0.6937175011
 20
-10.5548901823
 11
-0.6978726491
 21
-10.5383177129
  0
LINE
  5
58E
100
AcDbEntity
  8
CURVE
100
AcDbLine
 62
250
  6
CONTINUOUS
 10
-4.0982028681
 20
7.2693475989
 11
-4.0933818711
 21
7.2486439988
  0
LINE
  5
58F
100
AcDbEntity
  8
CURVE
100
AcDbLine
 62
250
  6
CONTINUOUS
 10
-4.7062086874
 20
9.5379286362
 11
-4.7018139002
 21
9.51786966
  0
LINE
  5
590
100
AcDbEntity
  8
CURVE
100
AcDbLine
 62
250
  6
CONTINUOUS
 10
-4.0077148239
 20
11.0201216083
 11
-4.0052784591
 21
11.0086674048
  0
LINE
  5
591
100
AcDbEntity
  8
CURVE
100
AcDbLine
 62
250
  6
CONTINUOUS
 10
-0.690374979
 20
-10.5711593979
 11
-0.6937175011
 21
-10.5548901823
  0
LINE
  5
592
100
AcDbEntity
  8
CURVE
100
AcDbLine
 62
250
  6
CONTINUOUS
 10
-3.0596124444
 20
7.5211013676
 11
-3.0633183369
 21
7.5414405718
  0
LINE
  5
593
100
AcDbEntity
  8
CURVE
100
AcDbLine
 62
250
  6
CONTINUOUS
 10
-4.1018928223
 20
7.2897241321
 11
-4.0982028681
 21
7.2693475989
  0
LINE
  5
594
100
AcDbEntity
  8
CURVE
100
AcDbLine
 62
250
  6
CONTINUOUS
 10
-0.6435612598
 20
-12.3939410913
 11
-0.6464374627
 21
-12.3779822592
  0
LINE
  5
595
100
AcDbEntity
  8
CURVE
100
AcDbLine
 62
250
  6
CONTINUOUS
 10
-4.0112473622
 20
11.0406231962
 11
-4.0077148239
 21
11.0201216083
  0
LINE
  5
596
100
AcDbEntity
  8
CURVE
100
AcDbLine
 62
250
  6
CONTINUOUS
 10
-3.4329276802
 20
8.8971031354
 11
-3.4362921234
 21
8.9167501815
  0
LINE
  5
597
100
AcDbEntity
  8
CURVE
100
AcDbLine
 62
250
  6
CONTINUOUS
 10
-4.7095410273
 20
9.5575593019
 11
-4.7062086874
 21
9.5379286362
  0
LINE
  5
598
100
AcDbEntity
  8
CURVE
100
AcDbLine
 62
250
  6
CONTINUOUS
 10
-0.6878596129
 20
-10.5870203835
 11
-0.690374979
 21
-10.5711593979
  0
LINE
  5
599
100
AcDbEntity
  8
CURVE
100
AcDbLine
 62
250
  6
CONTINUOUS
 10
-1.4474446341
 20
-11.7635315493
 11
-1.4452630734
 21
-11.7796479306
  0
LINE
  5
59A
100
AcDbEntity
  8
CURVE
100
AcDbLine
 62
250
  6
CONTINUOUS
 10
-0.6415327648
 20
-12.4092713834
 11
-0.6435612598
 21
-12.3939410913
  0
LINE
  5
59B
100
AcDbEntity
  8
CURVE
100
AcDbLine
 62
250
  6
CONTINUOUS
 10
-1.4809331334
 20
-10.4355242782
 11
-1.4788306464
 21
-10.4514925826
  0
LINE
  5
59C
100
AcDbEntity
  8
CURVE
100
AcDbLine
 62
250
  6
CONTINUOUS
 10
-3.0570763004
 20
7.5012958529
 11
-3.0596124444
 21
7.5211013676
  0
LINE
  5
59D
100
AcDbEntity
  8
CURVE
100
AcDbLine
 62
250
  6
CONTINUOUS
 10
-4.104431835
 20
7.3096242517
 11
-4.1018928223
 21
7.2897241321
  0
LINE
  5
59E
100
AcDbEntity
  8
CURVE
100
AcDbLine
 62
250
  6
CONTINUOUS
 10
-2.535570595
 20
5.6018664088
 11
-2.5331520046
 21
5.5828261571
  0
LINE
  5
59F
100
AcDbEntity
  8
CURVE
100
AcDbLine
 62
250
  6
CONTINUOUS
 10
-1.8134810885
 20
-10.817262509
 11
-1.8169041024
 21
-10.7901918835
  0
LINE
  5
5A0
100
AcDbEntity
  8
CURVE
100
AcDbLine
 62
250
  6
CONTINUOUS
 10
-2.0995113988
 20
-8.8971342788
 11
-2.101246319
 21
-8.8829409251
  0
LINE
  5
5A1
100
AcDbEntity
  8
CURVE
100
AcDbLine
 62
250
  6
CONTINUOUS
 10
-3.0008321309
 20
9.7874624664
 11
-3.0032683954
 21
9.8073824603
  0
LINE
  5
5A2
100
AcDbEntity
  8
CURVE
100
AcDbLine
 62
250
  6
CONTINUOUS
 10
-3.430646005
 20
8.8779613028
 11
-3.4329276802
 21
8.8971031354
  0
LINE
  5
5A3
100
AcDbEntity
  8
CURVE
100
AcDbLine
 62
250
  6
CONTINUOUS
 10
-4.0136223769
 20
11.0606426154
 11
-4.0112473622
 21
11.0406231962
  0
LINE
  5
5A4
100
AcDbEntity
  8
CURVE
100
AcDbLine
 62
250
  6
CONTINUOUS
 10
-1.5956136836
 20
7.8557874204
 11
-1.6035369956
 21
7.9375672583
  0
LINE
  5
5A5
100
AcDbEntity
  8
CURVE
100
AcDbLine
 62
250
  6
CONTINUOUS
 10
-0.4785063152
 20
5.2715438033
 11
-0.4799577786
 21
5.2908236773
  0
LINE
  5
5A6
100
AcDbEntity
  8
CURVE
100
AcDbLine
 62
250
  6
CONTINUOUS
 10
-1.5284047726
 20
6.5635030893
 11
-1.5270059656
 21
6.5443488489
  0
LINE
  5
5A7
100
AcDbEntity
  8
CURVE
100
AcDbLine
 62
250
  6
CONTINUOUS
 10
-1.4724754348
 20
8.8495533058
 11
-1.4711882556
 21
8.830363706
  0
LINE
  5
5A8
100
AcDbEntity
  8
CURVE
100
AcDbLine
 62
250
  6
CONTINUOUS
 10
-1.0935315344
 20
7.4751104955
 11
-1.0922932143
 21
7.4566464911
  0
LINE
  5
5A9
100
AcDbEntity
  8
CURVE
100
AcDbLine
 62
250
  6
CONTINUOUS
 10
-1.9819919073
 20
10.7167573097
 11
-1.9830780994
 21
10.7355175509
  0
LINE
  5
5AA
100
AcDbEntity
  8
CURVE
100
AcDbLine
 62
250
  6
CONTINUOUS
 10
-0.6853130505
 20
-10.6175296843
 11
-0.68617753
 21
-10.6023775147
  0
LINE
  5
5AB
100
AcDbEntity
  8
CURVE
100
AcDbLine
 62
250
  6
CONTINUOUS
 10
-0.6398336275
 20
-12.4383163166
 11
-0.6403415619
 21
-12.4239351158
  0
LINE
  5
5AC
100
AcDbEntity
  8
CURVE
100
AcDbLine
 62
250
  6
CONTINUOUS
 10
-1.5940753243
 20
7.7767911835
 11
-1.5956136836
 21
7.8557874204
  0
LINE
  5
5AD
100
AcDbEntity
  8
CURVE
100
AcDbLine
 62
250
  6
CONTINUOUS
 10
-0.4782613433
 20
5.2529823668
 11
-0.4785063152
 21
5.2715438033
  0
LINE
  5
5AE
100
AcDbEntity
  8
CURVE
100
AcDbLine
 62
250
  6
CONTINUOUS
 10
-1.5286098772
 20
6.5818616149
 11
-1.5284047726
 21
6.5635030893
  0
LINE
  5
5AF
100
AcDbEntity
  8
CURVE
100
AcDbLine
 62
250
  6
CONTINUOUS
 10
-1.0936591247
 20
7.4928391539
 11
-1.0935315344
 21
7.4751104955
  0
LINE
  5
5B0
100
AcDbEntity
  8
CURVE
100
AcDbLine
 62
250
  6
CONTINUOUS
 10
-1.4725726549
 20
8.8679887656
 11
-1.4724754348
 21
8.8495533058
  0
LINE
  5
5B1
100
AcDbEntity
  8
CURVE
100
AcDbLine
 62
250
  6
CONTINUOUS
 10
-1.4826035923
 20
-10.3980120366
 11
-1.4825380113
 21
-10.4127955535
  0
LINE
  5
5B2
100
AcDbEntity
  8
CURVE
100
AcDbLine
 62
250
  6
CONTINUOUS
 10
-0.3871084445
 20
9.004189821
 11
-0.387176849
 21
9.0228304354
  0
LINE
  5
5B3
100
AcDbEntity
  8
CURVE
100
AcDbLine
 62
250
  6
CONTINUOUS
 10
-0.6852698813
 20
-10.6322785848
 11
-0.6853130505
 21
-10.6175296843
  0
LINE
  5
5B4
100
AcDbEntity
  8
CURVE
100
AcDbLine
 62
250
  6
CONTINUOUS
 10
-1.4491591684
 20
-11.7267462527
 11
-1.4492243371
 21
-11.7326823604
  0
LINE
  5
5B5
100
AcDbEntity
  8
CURVE
100
AcDbLine
 62
250
  6
CONTINUOUS
 10
-0.6401380053
 20
-12.4524577101
 11
-0.6398336275
 21
-12.4383163166
  0
LINE
  5
5B6
100
AcDbEntity
  8
CURVE
100
AcDbLine
 62
250
  6
CONTINUOUS
 10
-1.4484230929
 20
-11.7123159733
 11
-1.4491591684
 21
-11.7267462527
  0
LINE
  5
5B7
100
AcDbEntity
  8
CURVE
100
AcDbLine
 62
250
  6
CONTINUOUS
 10
-1.4818527668
 20
-10.3835962543
 11
-1.4826035923
 21
-10.3980120366
  0
LINE
  5
5B8
100
AcDbEntity
  8
CURVE
100
AcDbLine
 62
250
  6
CONTINUOUS
 10
-0.4792144791
 20
5.2352729376
 11
-0.4782613433
 21
5.2529823668
  0
LINE
  5
5B9
100
AcDbEntity
  8
CURVE
100
AcDbLine
 62
250
  6
CONTINUOUS
 10
-0.6860515976
 20
-10.6465526346
 11
-0.6852698813
 21
-10.6322785848
  0
LINE
  5
5BA
100
AcDbEntity
  8
CURVE
100
AcDbLine
 62
250
  6
CONTINUOUS
 10
-1.0926747785
 20
7.5101270528
 11
-1.0936591247
 21
7.4928391539
  0
LINE
  5
5BB
100
AcDbEntity
  8
CURVE
100
AcDbLine
 62
250
  6
CONTINUOUS
 10
0.2408549909
 20
6.7346465817
 11
0.2418392292
 21
6.751902311
  0
LINE
  5
5BC
100
AcDbEntity
  8
CURVE
100
AcDbLine
 62
250
  6
CONTINUOUS
 10
-0.3882458913
 20
8.9860303387
 11
-0.3871084445
 21
9.004189821
  0
LINE
  5
5BD
100
AcDbEntity
  8
CURVE
100
AcDbLine
 62
250
  6
CONTINUOUS
 10
-2.0074715831
 20
-12.5680573879
 11
-2.006170359
 21
-12.5481462258
  0
LINE
  5
5BE
100
AcDbEntity
  8
CURVE
100
AcDbLine
 62
250
  6
CONTINUOUS
 10
-1.8106137944
 20
-10.9212982521
 11
-1.807812852
 21
-10.8808274977
  0
LINE
  5
5BF
100
AcDbEntity
  8
CURVE
100
AcDbLine
 62
250
  6
CONTINUOUS
 10
-2.0891080032
 20
-9.4277023606
 11
-2.0876353404
 21
-9.4078361926
  0
LINE
  5
5C0
100
AcDbEntity
  8
CURVE
100
AcDbLine
 62
250
  6
CONTINUOUS
 10
-2.008984264
 20
-12.585299063
 11
-2.0074715831
 21
-12.5680573879
  0
LINE
  5
5C1
100
AcDbEntity
  8
CURVE
100
AcDbLine
 62
250
  6
CONTINUOUS
 10
-2.4423707634
 20
-11.78429888
 11
-2.4438647596
 21
-11.8012110541
  0
LINE
  5
5C2
100
AcDbEntity
  8
CURVE
100
AcDbLine
 62
250
  6
CONTINUOUS
 10
-1.8134273308
 20
-10.9527381536
 11
-1.8106137944
 21
-10.9212982521
  0
LINE
  5
5C3
100
AcDbEntity
  8
CURVE
100
AcDbLine
 62
250
  6
CONTINUOUS
 10
-2.0907792782
 20
-9.4450187679
 11
-2.0891080032
 21
-9.4277023606
  0
LINE
  5
5C4
100
AcDbEntity
  8
CURVE
100
AcDbLine
 62
250
  6
CONTINUOUS
 10
-1.446874551
 20
-11.6984858014
 11
-1.4484230929
 21
-11.7123159733
  0
LINE
  5
5C5
100
AcDbEntity
  8
CURVE
100
AcDbLine
 62
250
  6
CONTINUOUS
 10
-1.480281276
 20
-10.3696339933
 11
-1.4818527668
 21
-10.3835962543
  0
LINE
  5
5C6
100
AcDbEntity
  8
CURVE
100
AcDbLine
 62
250
  6
CONTINUOUS
 10
-1.8166112454
 20
-10.978813402
 11
-1.8134273308
 21
-10.9527381536
  0
LINE
  5
5C7
100
AcDbEntity
  8
CURVE
100
AcDbLine
 62
250
  6
CONTINUOUS
 10
-0.4813789822
 20
5.2180936001
 11
-0.4792144791
 21
5.2352729376
  0
LINE
  5
5C8
100
AcDbEntity
  8
CURVE
100
AcDbLine
 62
250
  6
CONTINUOUS
 10
0.2387417457
 20
6.7179434131
 11
0.2408549909
 21
6.7346465817
  0
LINE
  5
5C9
100
AcDbEntity
  8
CURVE
100
AcDbLine
 62
250
  6
CONTINUOUS
 10
-2.7224751341
 20
-10.2580660085
 11
-2.7253660284
 21
-10.2806819924
  0
LINE
  5
5CA
100
AcDbEntity
  8
CURVE
100
AcDbLine
 62
250
  6
CONTINUOUS
 10
-2.0107990768
 20
-12.5991846067
 11
-2.008984264
 21
-12.585299063
  0
LINE
  5
5CB
100
AcDbEntity
  8
CURVE
100
AcDbLine
 62
250
  6
CONTINUOUS
 10
-2.4405140269
 20
-11.7703458718
 11
-2.4423707634
 21
-11.78429888
  0
LINE
  5
5CC
100
AcDbEntity
  8
CURVE
100
AcDbLine
 62
250
  6
CONTINUOUS
 10
-0.3905838401
 20
8.9685888117
 11
-0.3882458913
 21
8.9860303387
  0
LINE
  5
5CD
100
AcDbEntity
  8
CURVE
100
AcDbLine
 62
250
  6
CONTINUOUS
 10
-3.0502729938
 20
-10.863480949
 11
-3.0484529826
 21
-10.8503522298
  0
LINE
  5
5CE
100
AcDbEntity
  8
CURVE
100
AcDbLine
 62
250
  6
CONTINUOUS
 10
-2.0927258934
 20
-9.4589716229
 11
-2.0907792782
 21
-9.4450187679
  0
LINE
  5
5CF
100
AcDbEntity
  8
CURVE
100
AcDbLine
 62
250
  6
CONTINUOUS
 10
-2.51736626
 20
-8.6273722591
 11
-2.5193561653
 21
-8.6414024576
  0
LINE
  5
5D0
100
AcDbEntity
  8
CURVE
100
AcDbLine
 62
250
  6
CONTINUOUS
 10
-1.8203202445
 20
-11.0014157873
 11
-1.8166112454
 21
-10.978813402
  0
LINE
  5
5D1
100
AcDbEntity
  8
CURVE
100
AcDbLine
 62
250
  6
CONTINUOUS
 10
-2.7185685161
 20
-10.2363113839
 11
-2.7224751341
 21
-10.2580660085
  0
LINE
  5
5D2
100
AcDbEntity
  8
CURVE
100
AcDbLine
 62
250
  6
CONTINUOUS
 10
-3.0854858518
 20
-9.5417172904
 11
-3.0831399188
 21
-9.5287290803
  0
LINE
  5
5D3
100
AcDbEntity
  8
CURVE
100
AcDbLine
 62
250
  6
CONTINUOUS
 10
-2.438221906
 20
-11.7583732628
 11
-2.4405140269
 21
-11.7703458718
  0
LINE
  5
5D4
100
AcDbEntity
  8
CURVE
100
AcDbLine
 62
250
  6
CONTINUOUS
 10
-2.095067517
 20
-9.4708158515
 11
-2.0927258934
 21
-9.4589716229
  0
LINE
  5
5D5
100
AcDbEntity
  8
CURVE
100
AcDbLine
 62
250
  6
CONTINUOUS
 10
-2.5149568984
 20
-8.6153310571
 11
-2.51736626
 21
-8.6273722591
  0
LINE
  5
5D6
100
AcDbEntity
  8
CURVE
100
AcDbLine
 62
250
  6
CONTINUOUS
 10
0.2355022091
 20
6.7019109343
 11
0.2387417457
 21
6.7179434131
  0
LINE
  5
5D7
100
AcDbEntity
  8
CURVE
100
AcDbLine
 62
250
  6
CONTINUOUS
 10
-0.4847565766
 20
5.2015802196
 11
-0.4813789822
 21
5.2180936001
  0
LINE
  5
5D8
100
AcDbEntity
  8
CURVE
100
AcDbLine
 62
250
  6
CONTINUOUS
 10
-3.0528527118
 20
-10.8758180074
 11
-3.0502729938
 21
-10.863480949
  0
LINE
  5
5D9
100
AcDbEntity
  8
CURVE
100
AcDbLine
 62
250
  6
CONTINUOUS
 10
-3.8173569883
 20
-10.5358856872
 11
-3.8189753883
 21
-10.54308827
  0
LINE
  5
5DA
100
AcDbEntity
  8
CURVE
100
AcDbLine
 62
250
  6
CONTINUOUS
 10
-2.7136720734
 20
-10.2154699969
 11
-2.7185685161
 21
-10.2363113839
  0
LINE
  5
5DB
100
AcDbEntity
  8
CURVE
100
AcDbLine
 62
250
  6
CONTINUOUS
 10
-3.0885808944
 20
-9.5538878198
 11
-3.0854858518
 21
-9.5417172904
  0
LINE
  5
5DC
100
AcDbEntity
  8
CURVE
100
AcDbLine
 62
250
  6
CONTINUOUS
 10
-3.8605238179
 20
-8.7156000507
 11
-3.8622469886
 21
-8.7219874464
  0
LINE
  5
5DD
100
AcDbEntity
  8
CURVE
100
AcDbLine
 62
250
  6
CONTINUOUS
 10
-3.8141598025
 20
-10.5241093968
 11
-3.8173569883
 21
-10.5358856872
  0
LINE
  5
5DE
100
AcDbEntity
  8
CURVE
100
AcDbLine
 62
250
  6
CONTINUOUS
 10
-2.5120864168
 20
-8.6048061706
 11
-2.5149568984
 21
-8.6153310571
  0
LINE
  5
5DF
100
AcDbEntity
  8
CURVE
100
AcDbLine
 62
250
  6
CONTINUOUS
 10
-3.8566647601
 20
-8.7040485702
 11
-3.8605238179
 21
-8.7156000507
  0
LINE
  5
5E0
100
AcDbEntity
  8
CURVE
100
AcDbLine
 62
250
  6
CONTINUOUS
 10
-3.8101763816
 20
-10.512997158
 11
-3.8141598025
 21
-10.5241093968
  0
LINE
  5
5E1
100
AcDbEntity
  8
CURVE
100
AcDbLine
 62
250
  6
CONTINUOUS
 10
-3.8544046125
 20
-8.6984502027
 11
-3.8566647601
 21
-8.7040485702
  0
LWPOLYLINE
  5
5E2
100
AcDbEntity
  8
ASSI
100
AcDbPolyline
 62
250
  6
CONTINUOUS
 90
13
 70
0
 10
-4.3179040616
 20
-1.0752742939
 10
-4.3556550694
 20
-1.0991137446
 10
-4.3927213642
 20
-1.1280828694
 10
-4.4284719103
 20
-1.1616884832
 10
-4.4622980722
 20
-1.1993584669
 10
-4.493623976
 20
-1.2404515072
 10
-4.5219163135
 20
-1.2842680154
 10
-4.5466934214
 20
-1.3300620367
 10
-4.5675334817
 20
-1.3770539504
 10
-4.5840817024
 20
-1.4244437419
 10
-4.5960563583
 20
-1.4714246234
 10
-4.6032535865
 20
-1.5171967682
 10
-4.6055508579
 20
-1.5609809279
  0
LINE
  5
5E3
100
AcDbEntity
  8
ASSI
100
AcDbLine
 62
250
  6
CONTINUOUS
 10
-3.0045183072
 20
-0.3037076213
 11
-4.3177964453
 21
-1.0753386474
  0
LINE
  5
5E4
100
AcDbEntity
  8
ASSI
100
AcDbLine
 62
250
  6
CONTINUOUS
 10
-3.0045183072
 20
-0.3037076213
 11
-2.2974117465
 21
-0.3853150668
  0
LWPOLYLINE
  5
5E5
100
AcDbEntity
  8
ASSI
100
AcDbPolyline
 62
250
  6
CONTINUOUS
 90
8
 70
0
 10
-9.1996770084
 20
3.2734100658
 10
-9.2375208993
 20
3.2913667751
 10
-9.2746755602
 20
3.3034550782
 10
-9.3105054714
 20
3.3094680888
 10
-9.3443977268
 20
3.3093028308
 10
-9.375772592
 20
3.3029620068
 10
-9.4040934025
 20
3.2905539131
 10
-9.4076864432
 20
3.2884052967
  0
LWPOLYLINE
  5
5E6
100
AcDbEntity
  8
ASSI
100
AcDbPolyline
 62
250
  6
CONTINUOUS
 90
9
 70
0
 10
-0.1006795398
 20
-0.9890628151
 10
-0.6127956756
 20
-0.7066400552
 10
-1.12203526
 20
-0.4225615744
 10
-1.6283887217
 20
-0.1368328435
 10
-2.1318396633
 20
0.1505367496
 10
-2.6323854276
 20
0.4395456048
 10
-3.1300369152
 20
0.7302000147
 10
-3.6247913568
 20
1.0224984439
 10
-4.1166324965
 20
1.3164314237
  0
LWPOLYLINE
  5
5E7
100
AcDbEntity
  8
ASSI
100
AcDbPolyline
 62
7
  6
CONTINUOUS
 90
19
 70
0
 10
-0.0175222626
 20
-1.173912532
 10
0.0158043053
 20
-1.1927487546
 10
0.1003347867
 20
-1.2454474989
 10
0.186414034
 20
-1.3063306986
 10
0.2733056574
 20
-1.3752797096
 10
0.3601279109
 20
-1.451929515
 10
0.4458984374
 20
-1.5356882733
 10
0.5298906162
 20
-1.6260802785
 10
0.6113884382
 20
-1.7225287367
 10
0.6895416821
 20
-1.8241851095
 10
0.7637141297
 20
-1.9303388192
 10
0.8333296394
 20
-2.040225312
 10
0.8977391431
 20
-2.1528340993
 10
0.9564766459
 20
-2.2673136883
 10
1.0091721376
 20
-2.3828336095
 10
1.0554296511
 20
-2.4983480323
 10
1.0949840684
 20
-2.6129056571
 10
1.1277095052
 20
-2.7256483748
 10
1.1376825893
 20
-2.7651242724
  0
LWPOLYLINE
  5
5E8
100
AcDbEntity
  8
ASSI
100
AcDbPolyline
 62
250
  6
CONTINUOUS
 90
19
 70
0
 10
-4.6055508624
 20
1.6119934273
 10
-4.7006306348
 20
1.6657989465
 10
-4.7943336258
 20
1.711130867
 10
-4.8866634404
 20
1.747987143
 10
-4.978121045
 20
1.7764808609
 10
-5.0682099594
 20
1.7964964061
 10
-5.1554420519
 20
1.8076862283
 10
-5.2397147339
 20
1.8098868873
 10
-5.3211433794
 20
1.803254755
 10
-5.3985749827
 20
1.7879174549
 10
-5.4719615763
 20
1.7637586131
 10
-5.5413671561
 20
1.7308858118
 10
-5.6058125899
 20
1.6897593115
 10
-5.6652679077
 20
1.640206716
 10
-5.7197796666
 20
1.5823913646
 10
-5.76848801
 20
1.517274605
 10
-5.8111125472
 20
1.4451734621
 10
-5.8479491464
 20
1.3657624448
 10
-5.8790031602
 20
1.279038648
  0
LWPOLYLINE
  5
5E9
100
AcDbEntity
  8
ASSI
100
AcDbPolyline
 62
250
  6
CONTINUOUS
 90
8
 70
0
 10
-0.0176180189
 20
-1.1738513618
 10
-0.0213837077
 20
-1.1717017701
 10
-0.0448893515
 20
-1.1537856045
 10
-0.0646567259
 20
-1.1302399147
 10
-0.0803493011
 20
-1.1014655547
 10
-0.0916999187
 20
-1.0679523938
 10
-0.0985153399
 20
-1.0302709771
 10
-0.1006795355
 20
-0.9890628125
  0
LINE
  5
5EA
100
AcDbEntity
  8
ASSI
100
AcDbLine
 62
7
  6
CONTINUOUS
 10
0.9541113739
 20
-2.2627037653
 11
-2.2974117465
 21
-0.3853150668
  0
LINE
  5
5EB
100
AcDbEntity
  8
ASSI
100
AcDbLine
 62
250
  6
CONTINUOUS
 10
-4.1166324965
 20
1.3164314237
 11
-4.6055508624
 21
1.6119934273
  0
LWPOLYLINE
  5
5EC
100
AcDbEntity
  8
ASSI
100
AcDbPolyline
 62
7
  6
CONTINUOUS
 90
10
 70
0
 10
-4.5232484337
 20
1.4276492521
 10
-4.0736099233
 20
1.155697694
 10
-3.5699341118
 20
0.8544478236
 10
-3.0631824162
 20
0.5549046232
 10
-2.5533744824
 20
0.2570801926
 10
-2.0405271803
 20
-0.0390156941
 10
-1.5246561572
 20
-0.3333741297
 10
-1.0057785622
 20
-0.6259854996
 10
-0.4839155785
 20
-0.916838582
 10
-0.0176180189
 20
-1.1738513618
  0
LWPOLYLINE
  5
5ED
100
AcDbEntity
  8
ASSI
100
AcDbPolyline
 62
250
  6
CONTINUOUS
 90
13
 70
0
 10
5.7674404669
 20
-5.3684160356
 10
5.8033957754
 20
-5.393070368
 10
5.8387782771
 20
-5.4228647808
 10
5.8729827433
 20
-5.4572896315
 10
5.905424096
 20
-5.4957560722
 10
5.935547416
 20
-5.5376061227
 10
5.9628374348
 20
-5.582123925
 10
5.9868273477
 20
-5.6285479886
 10
6.0071068003
 20
-5.6760842154
 10
6.0233289072
 20
-5.723919483
 10
6.0352161846
 20
-5.7712355544
 10
6.0425652965
 20
-5.8172230736
 10
6.0452505342
 20
-5.86109541
  0
LINE
  5
5EE
100
AcDbEntity
  8
CURVE
100
AcDbLine
 62
250
  6
CONTINUOUS
 10
-4.048296363
 20
7.1355196592
 11
-4.037545608
 21
7.1167413889
  0
LINE
  5
5EF
100
AcDbEntity
  8
CURVE
100
AcDbLine
 62
250
  6
CONTINUOUS
 10
-4.0584107354
 20
7.154944305
 11
-4.048296363
 21
7.1355196592
  0
LINE
  5
5F0
100
AcDbEntity
  8
CURVE
100
AcDbLine
 62
250
  6
CONTINUOUS
 10
-4.0677258663
 20
7.1749301724
 11
-4.0584107354
 21
7.154944305
  0
LINE
  5
5F1
100
AcDbEntity
  8
CURVE
100
AcDbLine
 62
250
  6
CONTINUOUS
 10
-4.6751203483
 20
9.4385336674
 11
-4.6662038841
 21
9.4189829449
  0
LINE
  5
5F2
100
AcDbEntity
  8
CURVE
100
AcDbLine
 62
250
  6
CONTINUOUS
 10
-2.5057818156
 20
5.4849239578
 11
-2.4973439087
 21
5.4651729182
  0
LINE
  5
5F3
100
AcDbEntity
  8
CURVE
100
AcDbLine
 62
250
  6
CONTINUOUS
 10
-4.076171681
 20
7.1953506389
 11
-4.0677258663
 21
7.1749301724
  0
LINE
  5
5F4
100
AcDbEntity
  8
CURVE
100
AcDbLine
 62
250
  6
CONTINUOUS
 10
-3.0852360567
 20
7.6148438819
 11
-3.0937959098
 21
7.6355529397
  0
LINE
  5
5F5
100
AcDbEntity
  8
CURVE
100
AcDbLine
 62
250
  6
CONTINUOUS
 10
-4.683252492
 20
9.4585323518
 11
-4.6751203483
 21
9.4385336674
  0
LINE
  5
5F6
100
AcDbEntity
  8
CURVE
100
AcDbLine
 62
250
  6
CONTINUOUS
 10
-2.513310808
 20
5.5048959743
 11
-2.5057818156
 21
5.4849239578
  0
LINE
  5
5F7
100
AcDbEntity
  8
CURVE
100
AcDbLine
 62
250
  6
CONTINUOUS
 10
-3.4524255443
 20
8.9765067756
 11
-3.4597506952
 21
8.9964700333
  0
LINE
  5
5F8
100
AcDbEntity
  8
CURVE
100
AcDbLine
 62
250
  6
CONTINUOUS
 10
-4.0836795449
 20
7.2160640103
 11
-4.076171681
 21
7.1953506389
  0
LINE
  5
5F9
100
AcDbEntity
  8
CURVE
100
AcDbLine
 62
250
  6
CONTINUOUS
 10
-3.0776445706
 20
7.5938806073
 11
-3.0852360567
 21
7.6148438819
  0
LINE
  5
5FA
100
AcDbEntity
  8
CURVE
100
AcDbLine
 62
250
  6
CONTINUOUS
 10
-4.6905258944
 20
9.4788231537
 11
-4.683252492
 21
9.4585323518
  0
LINE
  5
5FB
100
AcDbEntity
  8
CURVE
100
AcDbLine
 62
250
  6
CONTINUOUS
 10
-3.9936592334
 20
10.9668294669
 11
-3.9863043457
 21
10.9460289401
  0
LINE
  5
5FC
100
AcDbEntity
  8
CURVE
100
AcDbLine
 62
250
  6
CONTINUOUS
 10
-2.5194441058
 20
5.5235339896
 11
-2.513310808
 21
5.5048959743
  0
LINE
  5
5FD
100
AcDbEntity
  8
CURVE
100
AcDbLine
 62
250
  6
CONTINUOUS
 10
-2.1100143459
 20
6.5405937586
 11
-2.116126045
 21
6.5592442447
  0
LINE
  5
5FE
100
AcDbEntity
  8
CURVE
100
AcDbLine
 62
250
  6
CONTINUOUS
 10
-3.0741642474
 20
7.5831330319
 11
-3.0776445706
 21
7.5938806073
  0
LINE
  5
5FF
100
AcDbEntity
  8
CURVE
100
AcDbLine
 62
250
  6
CONTINUOUS
 10
-3.4460167692
 20
8.9563578035
 11
-3.4524255443
 21
8.9765067756
  0
LINE
  5
600
100
AcDbEntity
  8
CURVE
100
AcDbLine
 62
250
  6
CONTINUOUS
 10
-2.8943171279
 20
8.2202341626
 11
-2.8678960072
 21
8.1340840752
  0
LINE
  5
601
100
AcDbEntity
  8
CURVE
100
AcDbLine
 62
250
  6
CONTINUOUS
 10
-3.0145320176
 20
9.8594616407
 11
-3.0209812993
 21
9.880534138
  0
LINE
  5
602
100
AcDbEntity
  8
CURVE
100
AcDbLine
 62
250
  6
CONTINUOUS
 10
-4.0000015962
 20
10.9877607628
 11
-3.9936592334
 21
10.9668294669
  0
LINE
  5
603
100
AcDbEntity
  8
CURVE
100
AcDbLine
 62
250
  6
CONTINUOUS
 10
-3.0681784239
 20
7.5621704297
 11
-3.0741642474
 21
7.5831330319
  0
LINE
  5
604
100
AcDbEntity
  8
CURVE
100
AcDbLine
 62
250
  6
CONTINUOUS
 10
-2.5250698945
 20
5.5435398034
 11
-2.5194441058
 21
5.5235339896
  0
LINE
  5
605
100
AcDbEntity
  8
CURVE
100
AcDbLine
 62
250
  6
CONTINUOUS
 10
-2.1044153641
 20
6.5205724668
 11
-2.1100143459
 21
6.5405937586
  0
LINE
  5
606
100
AcDbEntity
  8
CURVE
100
AcDbLine
 62
250
  6
CONTINUOUS
 10
-3.4407226836
 20
8.9367515887
 11
-3.4460167692
 21
8.9563578035
  0
LINE
  5
607
100
AcDbEntity
  8
CURVE
100
AcDbLine
 62
250
  6
CONTINUOUS
 10
-3.0116450633
 20
9.8486726226
 11
-3.0145320176
 21
9.8594616407
  0
LINE
  5
608
100
AcDbEntity
  8
CURVE
100
AcDbLine
 62
250
  6
CONTINUOUS
 10
-4.0052784591
 20
11.0086674048
 11
-4.0000015962
 21
10.9877607628
  0
LINE
  5
609
100
AcDbEntity
  8
CURVE
100
AcDbLine
 62
250
  6
CONTINUOUS
 10
-1.520612679
 20
6.5041658027
 11
-1.5156410502
 21
6.4834378066
  0
LINE
  5
60A
100
AcDbEntity
  8
CURVE
100
AcDbLine
 62
250
  6
CONTINUOUS
 10
-2.9148402163
 20
8.305991741
 11
-2.8943171279
 21
8.2202341626
  0
LINE
  5
60B
100
AcDbEntity
  8
CURVE
100
AcDbLine
 62
250
  6
CONTINUOUS
 10
-3.0633183369
 20
7.5414405718
 11
-3.0681784239
 21
7.5621704297
  0
LINE
  5
60C
100
AcDbEntity
  8
CURVE
100
AcDbLine
 62
250
  6
CONTINUOUS
 10
-2.5296469588
 20
5.5633453443
 11
-2.5250698945
 21
5.5435398034
  0
LINE
  5
60D
100
AcDbEntity
  8
CURVE
100
AcDbLine
 62
250
  6
CONTINUOUS
 10
-2.0998688645
 20
6.5007492783
 11
-2.1044153641
 21
6.5205724668
  0
LINE
  5
60E
100
AcDbEntity
  8
CURVE
100
AcDbLine
 62
250
  6
CONTINUOUS
 10
-3.0068781218
 20
9.8278366734
 11
-3.0116450633
 21
9.8486726226
  0
LINE
  5
60F
100
AcDbEntity
  8
CURVE
100
AcDbLine
 62
250
  6
CONTINUOUS
 10
-3.4362921234
 20
8.9167501815
 11
-3.4407226836
 21
8.9367515887
  0
LINE
  5
610
100
AcDbEntity
  8
CURVE
100
AcDbLine
 62
250
  6
CONTINUOUS
 10
-2.4312904293
 20
9.8291641331
 11
-2.4269029143
 21
9.8092858726
  0
LINE
  5
611
100
AcDbEntity
  8
CURVE
100
AcDbLine
 62
250
  6
CONTINUOUS
 10
-1.5244069881
 20
6.5245223168
 11
-1.520612679
 21
6.5041658027
  0
LINE
  5
612
100
AcDbEntity
  8
CURVE
100
AcDbLine
 62
250
  6
CONTINUOUS
 10
-2.5331520046
 20
5.5828261571
 11
-2.5296469588
 21
5.5633453443
  0
LINE
  5
613
100
AcDbEntity
  8
CURVE
100
AcDbLine
 62
250
  6
CONTINUOUS
 10
-2.0963981686
 20
6.4812486323
 11
-2.0998688645
 21
6.5007492783
  0
LINE
  5
614
100
AcDbEntity
  8
CURVE
100
AcDbLine
 62
250
  6
CONTINUOUS
 10
-3.0032683954
 20
9.8073824603
 11
-3.0068781218
 21
9.8278366734
  0
LINE
  5
615
100
AcDbEntity
  8
CURVE
100
AcDbLine
 62
250
  6
CONTINUOUS
 10
-2.9294849889
 20
8.3906422208
 11
-2.9148402163
 21
8.305991741
  0
LINE
  5
616
100
AcDbEntity
  8
CURVE
100
AcDbLine
 62
250
  6
CONTINUOUS
 10
-2.4346036311
 20
9.84872599
 11
-2.4312904293
 21
9.8291641331
  0
LINE
  5
617
100
AcDbEntity
  8
CURVE
100
AcDbLine
 62
250
  6
CONTINUOUS
 10
-1.985259303
 20
10.7547574738
 11
-1.9885267415
 21
10.7743700679
  0
LINE
  5
618
100
AcDbEntity
  8
CURVE
100
AcDbLine
 62
250
  6
CONTINUOUS
 10
-1.6035369956
 20
7.9375672583
 11
-1.6173601813
 21
8.0215668753
  0
LINE
  5
619
100
AcDbEntity
  8
CURVE
100
AcDbLine
 62
250
  6
CONTINUOUS
 10
-1.5270059656
 20
6.5443488489
 11
-1.5244069881
 21
6.5245223168
  0
LINE
  5
61A
100
AcDbEntity
  8
CURVE
100
AcDbLine
 62
250
  6
CONTINUOUS
 10
-1.4711882556
 20
8.830363706
 11
-1.4687054562
 21
8.8105273879
  0
LINE
  5
61B
100
AcDbEntity
  8
CURVE
100
AcDbLine
 62
250
  6
CONTINUOUS
 10
-2.0940176796
 20
6.4621863814
 11
-2.0963981686
 21
6.4812486323
  0
LINE
  5
61C
100
AcDbEntity
  8
CURVE
100
AcDbLine
 62
250
  6
CONTINUOUS
 10
-1.0922932143
 20
7.4566464911
 11
-1.0899382508
 21
7.4375624544
  0
LINE
  5
61D
100
AcDbEntity
  8
CURVE
100
AcDbLine
 62
250
  6
CONTINUOUS
 10
-2.4368290752
 20
9.867856333
 11
-2.4346036311
 21
9.84872599
  0
LINE
  5
61E
100
AcDbEntity
  8
CURVE
100
AcDbLine
 62
250
  6
CONTINUOUS
 10
-1.9830780994
 20
10.7355175509
 11
-1.985259303
 21
10.7547574738
  0
LINE
  5
61F
100
AcDbEntity
  8
CURVE
100
AcDbLine
 62
250
  6
CONTINUOUS
 10
0.2416981318
 20
6.76962625
 11
0.2404321708
 21
6.7880853042
  0
LINE
  5
620
100
AcDbEntity
  8
CURVE
100
AcDbLine
 62
250
  6
CONTINUOUS
 10
-0.387176849
 20
9.0228304354
 11
-0.3884469417
 21
9.0421874557
  0
LINE
  5
621
100
AcDbEntity
  8
CURVE
100
AcDbLine
 62
250
  6
CONTINUOUS
 10
0.2418392292
 20
6.751902311
 11
0.2416981318
 21
6.76962625
  0
LINE
  5
622
100
AcDbEntity
  8
CURVE
100
AcDbLine
 62
250
  6
CONTINUOUS
 10
-0.6412668862
 20
-12.4662714566
 11
-0.6401380053
 21
-12.4524577101
  0
LINE
  5
623
100
AcDbEntity
  8
CURVE
100
AcDbLine
 62
250
  6
CONTINUOUS
 10
-0.6876570101
 20
-10.6602801804
 11
-0.6860515976
 21
-10.6465526346
  0
LINE
  5
624
100
AcDbEntity
  8
CURVE
100
AcDbLine
 62
250
  6
CONTINUOUS
 10
-0.6432254663
 20
-12.4796617225
 11
-0.6412668862
 21
-12.4662714566
  0
LINE
  5
625
100
AcDbEntity
  8
CURVE
100
AcDbLine
 62
250
  6
CONTINUOUS
 10
-0.6887216184
 20
-10.6666714073
 11
-0.6876570101
 21
-10.6602801804
  0
LINE
  5
626
100
AcDbEntity
  8
CURVE
100
AcDbLine
 62
250
  6
CONTINUOUS
 10
-1.4778916482
 20
-10.3562138233
 11
-1.480281276
 21
-10.3696339933
  0
LINE
  5
627
100
AcDbEntity
  8
CURVE
100
AcDbLine
 62
250
  6
CONTINUOUS
 10
-1.4445264324
 20
-11.6853306012
 11
-1.446874551
 21
-11.6984858014
  0
LINE
  5
628
100
AcDbEntity
  8
CURVE
100
AcDbLine
 62
250
  6
CONTINUOUS
 10
-2.0130223206
 20
-12.6109543412
 11
-2.0107990768
 21
-12.5991846067
  0
LINE
  5
629
100
AcDbEntity
  8
CURVE
100
AcDbLine
 62
250
  6
CONTINUOUS
 10
-1.824627869
 20
-11.0214348279
 11
-1.8203202445
 21
-11.0014157873
  0
LINE
  5
62A
100
AcDbEntity
  8
CURVE
100
AcDbLine
 62
250
  6
CONTINUOUS
 10
-0.6915295683
 20
-10.6794440901
 11
-0.6887216184
 21
-10.6666714073
  0
LINE
  5
62B
100
AcDbEntity
  8
CURVE
100
AcDbLine
 62
250
  6
CONTINUOUS
 10
-1.4766717468
 20
-10.3508652718
 11
-1.4778916482
 21
-10.3562138233
  0
LINE
  5
62C
100
AcDbEntity
  8
CURVE
100
AcDbLine
 62
250
  6
CONTINUOUS
 10
-1.4413967229
 20
-11.6729164666
 11
-1.4445264324
 21
-11.6853306012
  0
LINE
  5
62D
100
AcDbEntity
  8
CURVE
100
AcDbLine
 62
250
  6
CONTINUOUS
 10
-2.0157023944
 20
-12.6211562496
 11
-2.0130223206
 21
-12.6109543412
  0
LINE
  5
62E
100
AcDbEntity
  8
CURVE
100
AcDbLine
 62
250
  6
CONTINUOUS
 10
-2.4354565372
 20
-11.7479079308
 11
-2.438221906
 21
-11.7583732628
  0
LINE
  5
62F
100
AcDbEntity
  8
CURVE
100
AcDbLine
 62
250
  6
CONTINUOUS
 10
-2.0978596087
 20
-9.481105262
 11
-2.095067517
 21
-9.4708158515
  0
LINE
  5
630
100
AcDbEntity
  8
CURVE
100
AcDbLine
 62
250
  6
CONTINUOUS
 10
-1.8295799493
 20
-11.0393779919
 11
-1.824627869
 21
-11.0214348279
  0
LINE
  5
631
100
AcDbEntity
  8
CURVE
100
AcDbLine
 62
250
  6
CONTINUOUS
 10
-3.0562970438
 20
-10.8878015359
 11
-3.0528527118
 21
-10.8758180074
  0
LINE
  5
632
100
AcDbEntity
  8
CURVE
100
AcDbLine
 62
250
  6
CONTINUOUS
 10
-2.7077579687
 20
-10.1954756075
 11
-2.7136720734
 21
-10.2154699969
  0
LINE
  5
633
100
AcDbEntity
  8
CURVE
100
AcDbLine
 62
250
  6
CONTINUOUS
 10
-1.4731020944
 20
-10.3388091902
 11
-1.4766717468
 21
-10.3508652718
  0
LINE
  5
634
100
AcDbEntity
  8
CURVE
100
AcDbLine
 62
250
  6
CONTINUOUS
 10
-3.0923245384
 20
-9.5651662249
 11
-3.0885808944
 21
-9.5538878198
  0
LINE
  5
635
100
AcDbEntity
  8
CURVE
100
AcDbLine
 62
250
  6
CONTINUOUS
 10
-2.4319938058
 20
-11.7380605119
 11
-2.4354565372
 21
-11.7479079308
  0
LINE
  5
636
100
AcDbEntity
  8
CURVE
100
AcDbLine
 62
250
  6
CONTINUOUS
 10
-2.1014364019
 20
-9.4909885463
 11
-2.0978596087
 21
-9.481105262
  0
LINE
  5
637
100
AcDbEntity
  8
CURVE
100
AcDbLine
 62
250
  6
CONTINUOUS
 10
-2.5085048579
 20
-8.5949201348
 11
-2.5120864168
 21
-8.6048061706
  0
LINE
  5
638
100
AcDbEntity
  8
CURVE
100
AcDbLine
 62
250
  6
CONTINUOUS
 10
-2.7008389943
 20
-10.176386018
 11
-2.7077579687
 21
-10.1954756075
  0
LINE
  5
639
100
AcDbEntity
  8
CURVE
100
AcDbLine
 62
250
  6
CONTINUOUS
 10
-3.0605259247
 20
-10.8990921467
 11
-3.0562970438
 21
-10.8878015359
  0
LINE
  5
63A
100
AcDbEntity
  8
CURVE
100
AcDbLine
 62
250
  6
CONTINUOUS
 10
-3.0968744432
 20
-9.5758370683
 11
-3.0923245384
 21
-9.5651662249
  0
LINE
  5
63B
100
AcDbEntity
  8
CURVE
100
AcDbLine
 62
250
  6
CONTINUOUS
 10
-2.6929317938
 20
-10.1582578248
 11
-2.7008389943
 21
-10.176386018
  0
LINE
  5
63C
100
AcDbEntity
  8
CURVE
100
AcDbLine
 62
250
  6
CONTINUOUS
 10
-3.8054245315
 20
-10.502620345
 11
-3.8101763816
 21
-10.512997158
  0
LINE
  5
63D
100
AcDbEntity
  8
CURVE
100
AcDbLine
 62
250
  6
CONTINUOUS
 10
-2.5041174567
 20
-8.5854746181
 11
-2.5085048579
 21
-8.5949201348
  0
LINE
  5
63E
100
AcDbEntity
  8
CURVE
100
AcDbLine
 62
250
  6
CONTINUOUS
 10
-3.8494120453
 20
-8.6880772436
 11
-3.8544046125
 21
-8.6984502027
  0
LINE
  5
63F
100
AcDbEntity
  8
CURVE
100
AcDbLine
 62
250
  6
CONTINUOUS
 10
-3.8023818132
 20
-10.4970616167
 11
-3.8054245315
 21
-10.502620345
  0
LINE
  5
640
100
AcDbEntity
  8
CURVE
100
AcDbLine
 62
250
  6
CONTINUOUS
 10
-3.8437071256
 20
-8.6785632898
 11
-3.8494120453
 21
-8.6880772436
  0
LINE
  5
641
100
AcDbEntity
  8
ASSI
100
AcDbLine
 62
7
  6
CONTINUOUS
 10
8.9183233724
 20
-3.519934365
 11
8.9985867596
 21
-3.5662774389
  0
LINE
  5
642
100
AcDbEntity
  8
CURVE
100
AcDbLine
 62
250
  6
CONTINUOUS
 10
-2.4304079405
 20
5.3569156704
 11
-2.4167338303
 21
5.340905293
  0
LINE
  5
643
100
AcDbEntity
  8
CURVE
100
AcDbLine
 62
250
  6
CONTINUOUS
 10
-3.999983867
 20
7.0628828945
 11
-3.9859868709
 21
7.0462545115
  0
LINE
  5
644
100
AcDbEntity
  8
CURVE
100
AcDbLine
 62
250
  6
CONTINUOUS
 10
-2.4434537425
 20
5.3736418881
 11
-2.4304079405
 21
5.3569156704
  0
LINE
  5
645
100
AcDbEntity
  8
CURVE
100
AcDbLine
 62
250
  6
CONTINUOUS
 10
-4.0133098563
 20
7.0802770863
 11
-3.999983867
 21
7.0628828945
  0
LINE
  5
646
100
AcDbEntity
  8
CURVE
100
AcDbLine
 62
250
  6
CONTINUOUS
 10
-2.4557790028
 20
5.3909500567
 11
-2.4434537425
 21
5.3736418881
  0
LINE
  5
647
100
AcDbEntity
  8
CURVE
100
AcDbLine
 62
250
  6
CONTINUOUS
 10
-4.0258598477
 20
7.0982803262
 11
-4.0133098563
 21
7.0802770863
  0
LINE
  5
648
100
AcDbEntity
  8
CURVE
100
AcDbLine
 62
250
  6
CONTINUOUS
 10
-4.6350620463
 20
9.3636330284
 11
-4.6231083265
 21
9.3460745021
  0
LINE
  5
649
100
AcDbEntity
  8
CURVE
100
AcDbLine
 62
250
  6
CONTINUOUS
 10
-2.4673059836
 20
5.4087116738
 11
-2.4557790028
 21
5.3909500567
  0
LINE
  5
64A
100
AcDbEntity
  8
CURVE
100
AcDbLine
 62
250
  6
CONTINUOUS
 10
-3.1246653399
 20
7.6946893258
 11
-3.1367183927
 21
7.7134003963
  0
LINE
  5
64B
100
AcDbEntity
  8
CURVE
100
AcDbLine
 62
250
  6
CONTINUOUS
 10
-4.037545608
 20
7.1167413889
 11
-4.0258598477
 21
7.0982803262
  0
LINE
  5
64C
100
AcDbEntity
  8
CURVE
100
AcDbLine
 62
250
  6
CONTINUOUS
 10
-4.6462410039
 20
9.3816568857
 11
-4.6350620463
 21
9.3636330284
  0
LINE
  5
64D
100
AcDbEntity
  8
CURVE
100
AcDbLine
 62
250
  6
CONTINUOUS
 10
-2.7559709075
 20
7.8809871661
 11
-2.7086828612
 21
7.8009761743
  0
LINE
  5
64E
100
AcDbEntity
  8
CURVE
100
AcDbLine
 62
250
  6
CONTINUOUS
 10
-2.4779717144
 20
5.4268073943
 11
-2.4673059836
 21
5.4087116738
  0
LINE
  5
64F
100
AcDbEntity
  8
CURVE
100
AcDbLine
 62
250
  6
CONTINUOUS
 10
-2.1514049489
 20
6.6373675776
 11
-2.1620219519
 21
6.6554338952
  0
LINE
  5
650
100
AcDbEntity
  8
CURVE
100
AcDbLine
 62
250
  6
CONTINUOUS
 10
-3.113509109
 20
7.6755727231
 11
-3.1246653399
 21
7.6946893258
  0
LINE
  5
651
100
AcDbEntity
  8
CURVE
100
AcDbLine
 62
250
  6
CONTINUOUS
 10
-3.4865600821
 20
9.0538260198
 11
-3.4969823441
 21
9.0720804129
  0
LINE
  5
652
100
AcDbEntity
  8
CURVE
100
AcDbLine
 62
250
  6
CONTINUOUS
 10
-4.6565800718
 20
9.4000195655
 11
-4.6462410039
 21
9.3816568857
  0
LINE
  5
653
100
AcDbEntity
  8
CURVE
100
AcDbLine
 62
250
  6
CONTINUOUS
 10
-3.9587629433
 20
10.8857920464
 11
-3.3631047633
 21
9.7849834917
  0
LINE
  5
654
100
AcDbEntity
  8
CURVE
100
AcDbLine
 62
250
  6
CONTINUOUS
 10
-1.4798745559
 20
6.3902232018
 11
-1.4694511723
 21
6.3707342533
  0
LINE
  5
655
100
AcDbEntity
  8
CURVE
100
AcDbLine
 62
250
  6
CONTINUOUS
 10
-2.4880540901
 20
5.4457636627
 11
-2.4779717144
 21
5.4268073943
  0
LINE
  5
656
100
AcDbEntity
  8
CURVE
100
AcDbLine
 62
250
  6
CONTINUOUS
 10
-2.1413331252
 20
6.6184052166
 11
-2.1514049489
 21
6.6373675776
  0
LINE
  5
657
100
AcDbEntity
  8
CURVE
100
AcDbLine
 62
250
  6
CONTINUOUS
 10
-3.476886428
 20
9.0352560034
 11
-3.4865600821
 21
9.0538260198
  0
LINE
  5
658
100
AcDbEntity
  8
CURVE
100
AcDbLine
 62
250
  6
CONTINUOUS
 10
-3.1032473237
 20
7.6558454226
 11
-3.113509109
 21
7.6755727231
  0
LINE
  5
659
100
AcDbEntity
  8
CURVE
100
AcDbLine
 62
250
  6
CONTINUOUS
 10
-2.7987438665
 20
7.9637452642
 11
-2.7559709075
 21
7.8809871661
  0
LINE
  5
65A
100
AcDbEntity
  8
CURVE
100
AcDbLine
 62
250
  6
CONTINUOUS
 10
-3.9687945549
 20
10.9053866039
 11
-3.9587629433
 21
10.8857920464
  0
LINE
  5
65B
100
AcDbEntity
  8
CURVE
100
AcDbLine
 62
250
  6
CONTINUOUS
 10
-4.6662038841
 20
9.4189829449
 11
-4.6565800718
 21
9.4000195655
  0
LINE
  5
65C
100
AcDbEntity
  8
CURVE
100
AcDbLine
 62
250
  6
CONTINUOUS
 10
-2.4973439087
 20
5.4651729182
 11
-2.4880540901
 21
5.4457636627
  0
LINE
  5
65D
100
AcDbEntity
  8
CURVE
100
AcDbLine
 62
250
  6
CONTINUOUS
 10
-1.489475358
 20
6.4102904373
 11
-1.4798745559
 21
6.3902232018
  0
LINE
  5
65E
100
AcDbEntity
  8
CURVE
100
AcDbLine
 62
250
  6
CONTINUOUS
 10
-2.1320566697
 20
6.5989882453
 11
-2.1413331252
 21
6.6184052166
  0
LINE
  5
65F
100
AcDbEntity
  8
CURVE
100
AcDbLine
 62
250
  6
CONTINUOUS
 10
-3.4679271063
 20
9.0160980676
 11
-3.476886428
 21
9.0352560034
  0
LINE
  5
660
100
AcDbEntity
  8
CURVE
100
AcDbLine
 62
250
  6
CONTINUOUS
 10
-3.0937959098
 20
7.6355529397
 11
-3.1032473237
 21
7.6558454226
  0
LINE
  5
661
100
AcDbEntity
  8
CURVE
100
AcDbLine
 62
250
  6
CONTINUOUS
 10
-3.0369202851
 20
9.9222250019
 11
-3.0462739395
 21
9.942529522
  0
LINE
  5
662
100
AcDbEntity
  8
CURVE
100
AcDbLine
 62
250
  6
CONTINUOUS
 10
-3.9779955997
 20
10.9255041913
 11
-3.9687945549
 21
10.9053866039
  0
LINE
  5
663
100
AcDbEntity
  8
CURVE
100
AcDbLine
 62
250
  6
CONTINUOUS
 10
-2.8360440227
 20
8.0483969232
 11
-2.7987438665
 21
7.9637452642
  0
LINE
  5
664
100
AcDbEntity
  8
CURVE
100
AcDbLine
 62
250
  6
CONTINUOUS
 10
-0.5093510888
 20
5.4043266624
 11
-0.5181349725
 21
5.4245716852
  0
LINE
  5
665
100
AcDbEntity
  8
CURVE
100
AcDbLine
 62
250
  6
CONTINUOUS
 10
-2.1236352232
 20
6.5792277015
 11
-2.1320566697
 21
6.5989882453
  0
LINE
  5
666
100
AcDbEntity
  8
CURVE
100
AcDbLine
 62
250
  6
CONTINUOUS
 10
-1.4981769846
 20
6.4308007267
 11
-1.489475358
 21
6.4102904373
  0
LINE
  5
667
100
AcDbEntity
  8
CURVE
100
AcDbLine
 62
250
  6
CONTINUOUS
 10
-2.4081208244
 20
9.7504373549
 11
-2.399845542
 21
9.7306352189
  0
LINE
  5
668
100
AcDbEntity
  8
CURVE
100
AcDbLine
 62
250
  6
CONTINUOUS
 10
-3.4597506952
 20
8.9964700333
 11
-3.4679271063
 21
9.0160980676
  0
LINE
  5
669
100
AcDbEntity
  8
CURVE
100
AcDbLine
 62
250
  6
CONTINUOUS
 10
-3.0284658094
 20
9.9015095744
 11
-3.0369202851
 21
9.9222250019
  0
LINE
  5
66A
100
AcDbEntity
  8
CURVE
100
AcDbLine
 62
250
  6
CONTINUOUS
 10
-3.9863043457
 20
10.9460289401
 11
-3.9779955997
 21
10.9255041913
  0
LINE
  5
66B
100
AcDbEntity
  8
CURVE
100
AcDbLine
 62
250
  6
CONTINUOUS
 10
-1.6647585391
 20
8.1933529625
 11
-1.6973819136
 21
8.2791573419
  0
LINE
  5
66C
100
AcDbEntity
  8
CURVE
100
AcDbLine
 62
250
  6
CONTINUOUS
 10
-0.5015476026
 20
5.383790965
 11
-0.5093510888
 21
5.4043266624
  0
LINE
  5
66D
100
AcDbEntity
  8
CURVE
100
AcDbLine
 62
250
  6
CONTINUOUS
 10
-1.0699368071
 20
7.3587454142
 11
-1.0623945442
 21
7.3388652765
  0
LINE
  5
66E
100
AcDbEntity
  8
CURVE
100
AcDbLine
 62
250
  6
CONTINUOUS
 10
-2.116126045
 20
6.5592442447
 11
-2.1236352232
 21
6.5792277015
  0
LINE
  5
66F
100
AcDbEntity
  8
CURVE
100
AcDbLine
 62
250
  6
CONTINUOUS
 10
-2.8678960072
 20
8.1340840752
 11
-2.8360440227
 21
8.0483969232
  0
LINE
  5
670
100
AcDbEntity
  8
CURVE
100
AcDbLine
 62
250
  6
CONTINUOUS
 10
-1.5059046143
 20
6.4516018403
 11
-1.4981769846
 21
6.4308007267
  0
LINE
  5
671
100
AcDbEntity
  8
CURVE
100
AcDbLine
 62
250
  6
CONTINUOUS
 10
-2.4154785579
 20
9.7704645649
 11
-2.4081208244
 21
9.7504373549
  0
LINE
  5
672
100
AcDbEntity
  8
CURVE
100
AcDbLine
 62
250
  6
CONTINUOUS
 10
-1.4506789929
 20
8.7377448978
 11
-1.4430355523
 21
8.7168116183
  0
LINE
  5
673
100
AcDbEntity
  8
CURVE
100
AcDbLine
 62
250
  6
CONTINUOUS
 10
-3.0209812993
 20
9.880534138
 11
-3.0284658094
 21
9.9015095744
  0
LWPOLYLINE
  5
674
100
AcDbEntity
  8
ASSI
100
AcDbPolyline
 62
250
  6
CONTINUOUS
 90
8
 70
0
 10
1.1377508224
 20
-2.7653765467
 10
1.1411807353
 20
-2.7754007013
 10
1.1501085723
 20
-2.7899715653
 10
1.163379364
 20
-2.8034760437
 10
1.1807581031
 20
-2.815218174
 10
1.2020586356
 20
-2.8250291742
 10
1.2270843475
 20
-2.8333408203
 10
1.2555185823
 20
-2.8403447896
  0
LINE
  5
675
100
AcDbEntity
  8
CURVE
100
AcDbLine
 62
250
  6
CONTINUOUS
 10
-1.0765297813
 20
7.3788072404
 11
-1.0699368071
 21
7.3587454142
  0
LINE
  5
676
100
AcDbEntity
  8
CURVE
100
AcDbLine
 62
250
  6
CONTINUOUS
 10
-0.4947862821
 20
5.3631058958
 11
-0.5015476026
 21
5.383790965
  0
LINE
  5
677
100
AcDbEntity
  8
CURVE
100
AcDbLine
 62
250
  6
CONTINUOUS
 10
-1.4541766168
 20
8.7484824552
 11
-1.4506789929
 21
8.7377448978
  0
LWPOLYLINE
  5
678
100
AcDbEntity
  8
ASSI
100
AcDbPolyline
 62
250
  6
CONTINUOUS
 90
18
 70
0
 10
1.2221302049
 20
-2.7165021898
 10
1.1825380985
 20
-2.593030278
 10
1.1367472738
 20
-2.4699259327
 10
1.0844545856
 20
-2.3465135971
 10
1.0259778172
 20
-2.2234598374
 10
0.9622525612
 20
-2.102775202
 10
0.8932387274
 20
-1.9845730244
 10
0.8189921371
 20
-1.8687303699
 10
0.7405878879
 20
-1.7569060105
 10
0.6579802648
 20
-1.6491507643
 10
0.5712302183
 20
-1.545404618
 10
0.4815671625
 20
-1.447163528
 10
0.3888777635
 20
-1.3544469897
 10
0.2932877511
 20
-1.2672281433
 10
0.1963773429
 20
-1.1869381046
 10
0.0986729538
 20
-1.1140541572
 10
-0.0003472267
 20
-1.0480964217
 10
-0.1006795398
 20
-0.9890628151
  0
LINE
  5
679
100
AcDbEntity
  8
CURVE
100
AcDbLine
 62
250
  6
CONTINUOUS
 10
-1.5125886803
 20
6.4725279759
 11
-1.5059046143
 21
6.4516018403
  0
LINE
  5
67A
100
AcDbEntity
  8
CURVE
100
AcDbLine
 62
250
  6
CONTINUOUS
 10
-2.4214631542
 20
9.7892147498
 11
-2.4154785579
 21
9.7704645649
  0
LINE
  5
67B
100
AcDbEntity
  8
CURVE
100
AcDbLine
 62
250
  6
CONTINUOUS
 10
-1.9980407724
 20
10.8135466157
 11
-2.0043854935
 21
10.8335243506
  0
LINE
  5
67C
100
AcDbEntity
  8
CURVE
100
AcDbLine
 62
250
  6
CONTINUOUS
 10
-1.6380870482
 20
8.1073474354
 11
-1.6647585391
 21
8.1933529625
  0
LINE
  5
67D
100
AcDbEntity
  8
CURVE
100
AcDbLine
 62
250
  6
CONTINUOUS
 10
-1.4601782372
 20
8.7694359396
 11
-1.4541766168
 21
8.7484824552
  0
LINE
  5
67E
100
AcDbEntity
  8
CURVE
100
AcDbLine
 62
250
  6
CONTINUOUS
 10
-1.5156410502
 20
6.4834378066
 11
-1.5125886803
 21
6.4725279759
  0
LINE
  5
67F
100
AcDbEntity
  8
CURVE
100
AcDbLine
 62
250
  6
CONTINUOUS
 10
-1.0819077163
 20
7.3980765717
 11
-1.0765297813
 21
7.3788072404
  0
LINE
  5
680
100
AcDbEntity
  8
CURVE
100
AcDbLine
 62
250
  6
CONTINUOUS
 10
-0.4891232135
 20
5.3424230103
 11
-0.4947862821
 21
5.3631058958
  0
LINE
  5
681
100
AcDbEntity
  8
CURVE
100
AcDbLine
 62
250
  6
CONTINUOUS
 10
-2.4269029143
 20
9.8092858726
 11
-2.4214631542
 21
9.7892147498
  0
LINE
  5
682
100
AcDbEntity
  8
ASSI
100
AcDbLine
 62
250
  6
CONTINUOUS
 10
1.2555185823
 20
-2.8403447896
 11
1.2221302049
 21
-2.7165021898
  0
LINE
  5
683
100
AcDbEntity
  8
CURVE
100
AcDbLine
 62
250
  6
CONTINUOUS
 10
-1.9926988422
 20
10.793560367
 11
-1.9980407724
 21
10.8135466157
  0
LINE
  5
684
100
AcDbEntity
  8
ASSI
100
AcDbLine
 62
7
  6
CONTINUOUS
 10
1.1377164125
 20
-2.7652346839
 11
1.1377508224
 21
-2.7653765467
  0
LINE
  5
685
100
AcDbEntity
  8
CURVE
100
AcDbLine
 62
250
  6
CONTINUOUS
 10
-1.6173601813
 20
8.0215668753
 11
-1.6380870482
 21
8.1073474354
  0
LINE
  5
686
100
AcDbEntity
  8
CURVE
100
AcDbLine
 62
250
  6
CONTINUOUS
 10
-1.465030493
 20
8.7901703225
 11
-1.4601782372
 21
8.7694359396
  0
LINE
  5
687
100
AcDbEntity
  8
CURVE
100
AcDbLine
 62
250
  6
CONTINUOUS
 10
-0.3945952794
 20
9.0825723784
 11
-0.3994487519
 21
9.1033212633
  0
LINE
  5
688
100
AcDbEntity
  8
CURVE
100
AcDbLine
 62
250
  6
CONTINUOUS
 10
-0.4864748618
 20
5.3310156206
 11
-0.4891232135
 21
5.3424230103
  0
LINE
  5
689
100
AcDbEntity
  8
CURVE
100
AcDbLine
 62
250
  6
CONTINUOUS
 10
-1.0864710128
 20
7.4179904108
 11
-1.0819077163
 21
7.3980765717
  0
LINE
  5
68A
100
AcDbEntity
  8
CURVE
100
AcDbLine
 62
250
  6
CONTINUOUS
 10
-1.9885267415
 20
10.7743700679
 11
-1.9926988422
 21
10.793560367
  0
LINE
  5
68B
100
AcDbEntity
  8
CURVE
100
AcDbLine
 62
250
  6
CONTINUOUS
 10
-0.4826171607
 20
5.3106946993
 11
-0.4864748618
 21
5.3310156206
  0
LINE
  5
68C
100
AcDbEntity
  8
CURVE
100
AcDbLine
 62
250
  6
CONTINUOUS
 10
-1.4687054562
 20
8.8105273879
 11
-1.465030493
 21
8.7901703225
  0
LINE
  5
68D
100
AcDbEntity
  8
CURVE
100
AcDbLine
 62
250
  6
CONTINUOUS
 10
0.2380353642
 20
6.8071606614
 11
0.2345126983
 21
6.8267163517
  0
LINE
  5
68E
100
AcDbEntity
  8
CURVE
100
AcDbLine
 62
250
  6
CONTINUOUS
 10
-0.3909219426
 20
9.0621454786
 11
-0.3945952794
 21
9.0825723784
  0
LINE
  5
68F
100
AcDbEntity
  8
CURVE
100
AcDbLine
 62
250
  6
CONTINUOUS
 10
-1.0899382508
 20
7.4375624544
 11
-1.0864710128
 21
7.4179904108
  0
LINE
  5
690
100
AcDbEntity
  8
CURVE
100
AcDbLine
 62
250
  6
CONTINUOUS
 10
-0.4799577786
 20
5.2908236773
 11
-0.4826171607
 21
5.3106946993
  0
LINE
  5
691
100
AcDbEntity
  8
CURVE
100
AcDbLine
 62
250
  6
CONTINUOUS
 10
0.2404321708
 20
6.7880853042
 11
0.2380353642
 21
6.8071606614
  0
LINE
  5
692
100
AcDbEntity
  8
CURVE
100
AcDbLine
 62
250
  6
CONTINUOUS
 10
-0.3884469417
 20
9.0421874557
 11
-0.3909219426
 21
9.0621454786
  0
LINE
  5
693
100
AcDbEntity
  8
CURVE
100
AcDbLine
 62
250
  6
CONTINUOUS
 10
-0.6460101828
 20
-12.492527118
 11
-0.6432254663
 21
-12.4796617225
  0
LWPOLYLINE
  5
694
100
AcDbEntity
  8
ASSI
100
AcDbPolyline
 62
250
  6
CONTINUOUS
 90
11
 70
0
 10
1.1463214552
 20
-3.4863570772
 10
1.1408106882
 20
-3.5066266431
 10
1.1364772364
 20
-3.5371307655
 10
1.1366388502
 20
-3.5683426823
 10
1.141183252
 20
-3.600324348
 10
1.1501123719
 20
-3.6323607028
 10
1.1633839184
 20
-3.6638858078
 10
1.1807627595
 20
-3.6950987221
 10
1.2020626396
 20
-3.7256289872
 10
1.22708682
 20
-3.7545638391
 10
1.2555185823
 20
-3.7813059916
  0
LINE
  5
695
100
AcDbEntity
  8
CURVE
100
AcDbLine
 62
250
  6
CONTINUOUS
 10
-0.6477793349
 20
-12.4989709536
 11
-0.6460101828
 21
-12.492527118
  0
LINE
  5
696
100
AcDbEntity
  8
CURVE
100
AcDbLine
 62
250
  6
CONTINUOUS
 10
-0.6951379351
 20
-10.6915225248
 11
-0.6915295683
 21
-10.6794440901
  0
LINE
  5
697
100
AcDbEntity
  8
CURVE
100
AcDbLine
 62
250
  6
CONTINUOUS
 10
-1.4397454161
 20
-11.6678071739
 11
-1.4413967229
 21
-11.6729164666
  0
LINE
  5
698
100
AcDbEntity
  8
ASSI
100
AcDbLine
 62
7
  6
CONTINUOUS
 10
1.146392102
 20
-3.48614142
 11
1.1463214552
 21
-3.4863570772
  0
LWPOLYLINE
  5
699
100
AcDbEntity
  8
ASSI
100
AcDbPolyline
 62
7
  6
CONTINUOUS
 90
9
 70
0
 10
1.1462643422
 20
-3.486491655
 10
1.1413937033
 20
-3.5007913845
 10
1.1219934221
 20
-3.5493314049
 10
1.0997070491
 20
-3.5933132412
 10
1.0750244777
 20
-3.6319713492
 10
1.0480989829
 20
-3.6654189559
 10
1.0183388206
 20
-3.694384249
 10
0.985180102
 20
-3.7189683999
 10
0.9743296492
 20
-3.7255646146
  0
LINE
  5
69A
100
AcDbEntity
  8
CURVE
100
AcDbLine
 62
250
  6
CONTINUOUS
 10
-1.8353666582
 20
-11.0562448028
 11
-1.8295799493
 21
-11.0393779919
  0
LINE
  5
69B
100
AcDbEntity
  8
CURVE
100
AcDbLine
 62
250
  6
CONTINUOUS
 10
-2.0191604311
 20
-12.6309998516
 11
-2.0157023944
 21
-12.6211562496
  0
LINE
  5
69C
100
AcDbEntity
  8
CURVE
100
AcDbLine
 62
250
  6
CONTINUOUS
 10
-1.4687375471
 20
-10.3274529345
 11
-1.4731020944
 21
-10.3388091902
  0
LINE
  5
69D
100
AcDbEntity
  8
CURVE
100
AcDbLine
 62
250
  6
CONTINUOUS
 10
-1.4353290587
 20
-11.6563902851
 11
-1.4397454161
 21
-11.6678071739
  0
LINE
  5
69E
100
AcDbEntity
  8
CURVE
100
AcDbLine
 62
250
  6
CONTINUOUS
 10
-0.6995461796
 20
-10.7029040107
 11
-0.6951379351
 21
-10.6915225248
  0
LINE
  5
69F
100
AcDbEntity
  8
CURVE
100
AcDbLine
 62
250
  6
CONTINUOUS
 10
-1.8422745392
 20
-11.072554308
 11
-1.8353666582
 21
-11.0562448028
  0
LINE
  5
6A0
100
AcDbEntity
  8
CURVE
100
AcDbLine
 62
250
  6
CONTINUOUS
 10
-2.427731809
 20
-11.7286690956
 11
-2.4319938058
 21
-11.7380605119
  0
LINE
  5
6A1
100
AcDbEntity
  8
CURVE
100
AcDbLine
 62
250
  6
CONTINUOUS
 10
-2.0234090003
 20
-12.6403521245
 11
-2.0191604311
 21
-12.6309998516
  0
LINE
  5
6A2
100
AcDbEntity
  8
CURVE
100
AcDbLine
 62
250
  6
CONTINUOUS
 10
-1.4665119937
 20
-10.3225725089
 11
-1.4687375471
 21
-10.3274529345
  0
LINE
  5
6A3
100
AcDbEntity
  8
CURVE
100
AcDbLine
 62
250
  6
CONTINUOUS
 10
-2.1058213052
 20
-9.5004326207
 11
-2.1014364019
 21
-9.4909885463
  0
LINE
  5
6A4
100
AcDbEntity
  8
CURVE
100
AcDbLine
 62
250
  6
CONTINUOUS
 10
-3.0655259104
 20
-10.9096388962
 11
-3.0605259247
 21
-10.8990921467
  0
LINE
  5
6A5
100
AcDbEntity
  8
CURVE
100
AcDbLine
 62
250
  6
CONTINUOUS
 10
-2.6837211523
 20
-10.1404982709
 11
-2.6929317938
 21
-10.1582578248
  0
LINE
  5
6A6
100
AcDbEntity
  8
CURVE
100
AcDbLine
 62
250
  6
CONTINUOUS
 10
-3.1022217016
 20
-9.5858436656
 11
-3.0968744432
 21
-9.5758370683
  0
LINE
  5
6A7
100
AcDbEntity
  8
CURVE
100
AcDbLine
 62
250
  6
CONTINUOUS
 10
-2.498920383
 20
-8.5765236888
 11
-2.5041174567
 21
-8.5854746181
  0
LINE
  5
6A8
100
AcDbEntity
  8
CURVE
100
AcDbLine
 62
250
  6
CONTINUOUS
 10
-2.1110180081
 20
-9.5093833359
 11
-2.1058213052
 21
-9.5004326207
  0
LINE
  5
6A9
100
AcDbEntity
  8
CURVE
100
AcDbLine
 62
250
  6
CONTINUOUS
 10
-3.071279472
 20
-10.9193928586
 11
-3.0655259104
 21
-10.9096388962
  0
LINE
  5
6AA
100
AcDbEntity
  8
CURVE
100
AcDbLine
 62
250
  6
CONTINUOUS
 10
-2.6734625001
 20
-10.1239383553
 11
-2.6837211523
 21
-10.1404982709
  0
LINE
  5
6AB
100
AcDbEntity
  8
CURVE
100
AcDbLine
 62
250
  6
CONTINUOUS
 10
-3.7964814019
 20
-10.4879815152
 11
-3.8023818132
 21
-10.4970616167
  0
LINE
  5
6AC
100
AcDbEntity
  8
CURVE
100
AcDbLine
 62
250
  6
CONTINUOUS
 10
-3.1083499174
 20
-9.5951256033
 11
-3.1022217016
 21
-9.5858436656
  0
LINE
  5
6AD
100
AcDbEntity
  8
CURVE
100
AcDbLine
 62
250
  6
CONTINUOUS
 10
-2.4929184171
 20
-8.5681291801
 11
-2.498920383
 21
-8.5765236888
  0
LINE
  5
6AE
100
AcDbEntity
  8
CURVE
100
AcDbLine
 62
250
  6
CONTINUOUS
 10
-3.8373226621
 20
-8.6699536493
 11
-3.8437071256
 21
-8.6785632898
  0
LINE
  5
6AF
100
AcDbEntity
  8
CURVE
100
AcDbLine
 62
250
  6
CONTINUOUS
 10
-3.8302943163
 20
-8.662286077
 11
-3.8373226621
 21
-8.6699536493
  0
LWPOLYLINE
  5
6B0
100
AcDbEntity
  8
ASSI
100
AcDbPolyline
 62
250
  6
CONTINUOUS
 90
13
 70
0
 10
0.1722239193
 20
-3.6678077253
 10
0.136392094
 20
-3.6927559404
 10
0.1012123464
 20
-3.7228151548
 10
0.067283624
 20
-3.7574735999
 10
0.0351835749
 20
-3.7961412039
 10
0.0054587135
 20
-3.8381596374
 10
-0.0213848845
 20
-3.882813522
 10
-0.0448901976
 20
-3.9293426098
 10
-0.0646570398
 20
-3.9769547271
 10
-0.0803488737
 20
-4.0248392614
 10
-0.0916985405
 20
-4.0721809619
 10
-0.0985128081
 20
-4.1181738198
 10
-0.1006756613
 20
-4.162034791
  0
LINE
  5
6B1
100
AcDbEntity
  8
ASSI
100
AcDbLine
 62
250
  6
CONTINUOUS
 10
1.3042322819
 20
-3.0027859118
 11
0.1721109949
 21
-3.6677549631
  0
LINE
  5
6B2
100
AcDbEntity
  8
CURVE
100
AcDbLine
 62
250
  6
CONTINUOUS
 10
-2.3441407117
 20
5.2768649117
 11
-2.3292862498
 21
5.2676431569
  0
LINE
  5
6B3
100
AcDbEntity
  8
CURVE
100
AcDbLine
 62
250
  6
CONTINUOUS
 10
-2.3590916244
 20
5.2874414864
 11
-2.3441407117
 21
5.2768649117
  0
LINE
  5
6B4
100
AcDbEntity
  8
CURVE
100
AcDbLine
 62
250
  6
CONTINUOUS
 10
-3.9328835524
 20
6.9957598833
 11
-3.9176111895
 21
6.984521775
  0
LINE
  5
6B5
100
AcDbEntity
  8
CURVE
100
AcDbLine
 62
250
  6
CONTINUOUS
 10
-2.3740318116
 20
5.299315958
 11
-2.3590916244
 21
5.2874414864
  0
LINE
  5
6B6
100
AcDbEntity
  8
CURVE
100
AcDbLine
 62
250
  6
CONTINUOUS
 10
-3.9481194711
 20
7.0083827078
 11
-3.9328835524
 21
6.9957598833
  0
LINE
  5
6B7
100
AcDbEntity
  8
CURVE
100
AcDbLine
 62
250
  6
CONTINUOUS
 10
-0.7621787668
 20
5.1713254508
 11
-0.7466005483
 21
5.1578129778
  0
LINE
  5
6B8
100
AcDbEntity
  8
CURVE
100
AcDbLine
 62
250
  6
CONTINUOUS
 10
-2.3888449348
 20
5.3124124578
 11
-2.3740318116
 21
5.299315958
  0
LINE
  5
6B9
100
AcDbEntity
  8
CURVE
100
AcDbLine
 62
250
  6
CONTINUOUS
 10
-3.9631918677
 20
7.0223020743
 11
-3.9481194711
 21
7.0083827078
  0
LINE
  5
6BA
100
AcDbEntity
  8
CURVE
100
AcDbLine
 62
250
  6
CONTINUOUS
 10
-0.7774242272
 20
5.1860079747
 11
-0.7621787668
 21
5.1713254508
  0
LINE
  5
6BB
100
AcDbEntity
  8
CURVE
100
AcDbLine
 62
250
  6
CONTINUOUS
 10
-2.4025366494
 20
5.325745374
 11
-2.3888449348
 21
5.3124124578
  0
LINE
  5
6BC
100
AcDbEntity
  8
CURVE
100
AcDbLine
 62
250
  6
CONTINUOUS
 10
-2.2265710145
 20
6.7382400048
 11
-2.2404139044
 21
6.7517241659
  0
LINE
  5
6BD
100
AcDbEntity
  8
CURVE
100
AcDbLine
 62
250
  6
CONTINUOUS
 10
-3.1846453956
 20
7.7735393159
 11
-3.199503684
 21
7.7885717486
  0
LINE
  5
6BE
100
AcDbEntity
  8
CURVE
100
AcDbLine
 62
250
  6
CONTINUOUS
 10
-4.5841624629
 20
9.2982970221
 11
-4.5700657566
 21
9.2839158281
  0
LINE
  5
6BF
100
AcDbEntity
  8
CURVE
100
AcDbLine
 62
250
  6
CONTINUOUS
 10
-3.9779667504
 20
7.0374077543
 11
-3.9631918677
 21
7.0223020743
  0
LINE
  5
6C0
100
AcDbEntity
  8
CURVE
100
AcDbLine
 62
250
  6
CONTINUOUS
 10
-0.7858617778
 20
5.1947976006
 11
-0.7774242272
 21
5.1860079747
  0
LINE
  5
6C1
100
AcDbEntity
  8
CURVE
100
AcDbLine
 62
250
  6
CONTINUOUS
 10
-2.4167338303
 20
5.340905293
 11
-2.4025366494
 21
5.325745374
  0
LINE
  5
6C2
100
AcDbEntity
  8
CURVE
100
AcDbLine
 62
250
  6
CONTINUOUS
 10
-2.212405775
 20
6.7230998131
 11
-2.2265710145
 21
6.7382400048
  0
LINE
  5
6C3
100
AcDbEntity
  8
CURVE
100
AcDbLine
 62
250
  6
CONTINUOUS
 10
-3.9859868709
 20
7.0462545115
 11
-3.9779667504
 21
7.0374077543
  0
LINE
  5
6C4
100
AcDbEntity
  8
CURVE
100
AcDbLine
 62
250
  6
CONTINUOUS
 10
-3.1701821269
 20
7.7574085038
 11
-3.1846453956
 21
7.7735393159
  0
LINE
  5
6C5
100
AcDbEntity
  8
CURVE
100
AcDbLine
 62
250
  6
CONTINUOUS
 10
-4.5971998109
 20
9.3128848239
 11
-4.5841624629
 21
9.2982970221
  0
LINE
  5
6C6
100
AcDbEntity
  8
CURVE
100
AcDbLine
 62
250
  6
CONTINUOUS
 10
-0.8003174451
 20
5.211053482
 11
-0.7858617778
 21
5.1947976006
  0
LINE
  5
6C7
100
AcDbEntity
  8
CURVE
100
AcDbLine
 62
250
  6
CONTINUOUS
 10
-2.6014664357
 20
7.6517672263
 11
-2.5424795062
 21
7.5839947715
  0
LINE
  5
6C8
100
AcDbEntity
  8
CURVE
100
AcDbLine
 62
250
  6
CONTINUOUS
 10
-2.1987724768
 20
6.7071189208
 11
-2.212405775
 21
6.7230998131
  0
LINE
  5
6C9
100
AcDbEntity
  8
CURVE
100
AcDbLine
 62
250
  6
CONTINUOUS
 10
-3.1631849279
 20
7.7490293456
 11
-3.1701821269
 21
7.7574085038
  0
LINE
  5
6CA
100
AcDbEntity
  8
CURVE
100
AcDbLine
 62
250
  6
CONTINUOUS
 10
-3.5330508947
 20
9.124259428
 11
-3.5464213558
 21
9.140370992
  0
LINE
  5
6CB
100
AcDbEntity
  8
CURVE
100
AcDbLine
 62
250
  6
CONTINUOUS
 10
-4.6104577343
 20
9.3291137232
 11
-4.5971998109
 21
9.3128848239
  0
LINE
  5
6CC
100
AcDbEntity
  8
CURVE
100
AcDbLine
 62
250
  6
CONTINUOUS
 10
-0.8141192191
 20
5.2281396035
 11
-0.8003174451
 21
5.211053482
  0
LINE
  5
6CD
100
AcDbEntity
  8
CURVE
100
AcDbLine
 62
250
  6
CONTINUOUS
 10
-1.1948861209
 20
6.6056199605
 11
-1.2085448775
 21
6.6227335169
  0
LINE
  5
6CE
100
AcDbEntity
  8
CURVE
100
AcDbLine
 62
250
  6
CONTINUOUS
 10
-2.1857735638
 20
6.6904287449
 11
-2.1987724768
 21
6.7071189208
  0
LINE
  5
6CF
100
AcDbEntity
  8
CURVE
100
AcDbLine
 62
250
  6
CONTINUOUS
 10
-3.1495895082
 20
7.7315632872
 11
-3.1631849279
 21
7.7490293456
  0
LINE
  5
6D0
100
AcDbEntity
  8
CURVE
100
AcDbLine
 62
250
  6
CONTINUOUS
 10
-3.3277967677
 20
9.7291217468
 11
-3.3145036741
 21
9.7117970614
  0
LINE
  5
6D1
100
AcDbEntity
  8
CURVE
100
AcDbLine
 62
250
  6
CONTINUOUS
 10
-2.6568617319
 20
7.7242852436
 11
-2.6014664357
 21
7.6517672263
  0
LINE
  5
6D2
100
AcDbEntity
  8
CURVE
100
AcDbLine
 62
250
  6
CONTINUOUS
 10
-3.5202976199
 20
9.1074211753
 11
-3.5330508947
 21
9.124259428
  0
LINE
  5
6D3
100
AcDbEntity
  8
CURVE
100
AcDbLine
 62
250
  6
CONTINUOUS
 10
-4.6231083265
 20
9.3460745021
 11
-4.6104577343
 21
9.3291137232
  0
LINE
  5
6D4
100
AcDbEntity
  8
CURVE
100
AcDbLine
 62
250
  6
CONTINUOUS
 10
-0.8271731591
 20
5.2459268794
 11
-0.8141192191
 21
5.2281396035
  0
LINE
  5
6D5
100
AcDbEntity
  8
CURVE
100
AcDbLine
 62
250
  6
CONTINUOUS
 10
-1.1819489424
 20
6.587778085
 11
-1.1948861209
 21
6.6056199605
  0
LINE
  5
6D6
100
AcDbEntity
  8
CURVE
100
AcDbLine
 62
250
  6
CONTINUOUS
 10
-2.1734983792
 20
6.6731591107
 11
-2.1857735638
 21
6.6904287449
  0
LINE
  5
6D7
100
AcDbEntity
  8
CURVE
100
AcDbLine
 62
250
  6
CONTINUOUS
 10
-3.1367183927
 20
7.7134003963
 11
-3.1495895082
 21
7.7315632872
  0
LINE
  5
6D8
100
AcDbEntity
  8
CURVE
100
AcDbLine
 62
250
  6
CONTINUOUS
 10
-3.3403748237
 20
9.7471709752
 11
-3.3277967677
 21
9.7291217468
  0
LINE
  5
6D9
100
AcDbEntity
  8
CURVE
100
AcDbLine
 62
250
  6
CONTINUOUS
 10
-3.6759003633
 20
11.1000078039
 11
-3.6883794624
 21
11.1180579301
  0
LINE
  5
6DA
100
AcDbEntity
  8
CURVE
100
AcDbLine
 62
250
  6
CONTINUOUS
 10
-3.5082493832
 20
9.0899857786
 11
-3.5202976199
 21
9.1074211753
  0
LINE
  5
6DB
100
AcDbEntity
  8
CURVE
100
AcDbLine
 62
250
  6
CONTINUOUS
 10
-1.8261619705
 20
8.5270246615
 11
-1.8782933128
 21
8.6035364793
  0
LINE
  5
6DC
100
AcDbEntity
  8
CURVE
100
AcDbLine
 62
250
  6
CONTINUOUS
 10
-2.7086828612
 20
7.8009761743
 11
-2.6568617319
 21
7.7242852436
  0
LINE
  5
6DD
100
AcDbEntity
  8
CURVE
100
AcDbLine
 62
250
  6
CONTINUOUS
 10
-0.8393976752
 20
5.2642886938
 11
-0.8271731591
 21
5.2459268794
  0
LINE
  5
6DE
100
AcDbEntity
  8
CURVE
100
AcDbLine
 62
250
  6
CONTINUOUS
 10
-1.1698088357
 20
6.5693225719
 11
-1.1819489424
 21
6.587778085
  0
LINE
  5
6DF
100
AcDbEntity
  8
CURVE
100
AcDbLine
 62
250
  6
CONTINUOUS
 10
-1.0239707046
 20
7.2635998309
 11
-1.0123299837
 21
7.2458425899
  0
LINE
  5
6E0
100
AcDbEntity
  8
CURVE
100
AcDbLine
 62
250
  6
CONTINUOUS
 10
-2.1620219519
 20
6.6554338952
 11
-2.1734983792
 21
6.6731591107
  0
LINE
  5
6E1
100
AcDbEntity
  8
CURVE
100
AcDbLine
 62
250
  6
CONTINUOUS
 10
-2.3703116271
 20
9.674034489
 11
-2.3589962668
 21
9.6562465632
  0
LINE
  5
6E2
100
AcDbEntity
  8
CURVE
100
AcDbLine
 62
250
  6
CONTINUOUS
 10
-3.3521649368
 20
9.7658285704
 11
-3.3403748237
 21
9.7471709752
  0
LINE
  5
6E3
100
AcDbEntity
  8
CURVE
100
AcDbLine
 62
250
  6
CONTINUOUS
 10
-3.4969823441
 20
9.0720804129
 11
-3.5082493832
 21
9.0899857786
  0
LINE
  5
6E4
100
AcDbEntity
  8
CURVE
100
AcDbLine
 62
250
  6
CONTINUOUS
 10
-3.6642315636
 20
11.0813934553
 11
-3.6759003633
 21
11.1000078039
  0
LINE
  5
6E5
100
AcDbEntity
  8
CURVE
100
AcDbLine
 62
250
  6
CONTINUOUS
 10
-0.8507242273
 20
5.2831046733
 11
-0.8393976752
 21
5.2642886938
  0
LINE
  5
6E6
100
AcDbEntity
  8
CURVE
100
AcDbLine
 62
250
  6
CONTINUOUS
 10
-1.1585305219
 20
6.5503630888
 11
-1.1698088357
 21
6.5693225719
  0
LINE
  5
6E7
100
AcDbEntity
  8
CURVE
100
AcDbLine
 62
250
  6
CONTINUOUS
 10
-1.034737811
 20
7.2817153666
 11
-1.0239707046
 21
7.2635998309
  0
LINE
  5
6E8
100
AcDbEntity
  8
CURVE
100
AcDbLine
 62
250
  6
CONTINUOUS
 10
-1.7785650395
 20
8.4467700931
 11
-1.8261619705
 21
8.5270246615
  0
LINE
  5
6E9
100
AcDbEntity
  8
CURVE
100
AcDbLine
 62
250
  6
CONTINUOUS
 10
-1.4144665274
 20
8.656253659
 11
-1.4034522076
 21
8.6375667525
  0
LINE
  5
6EA
100
AcDbEntity
  8
CURVE
100
AcDbLine
 62
250
  6
CONTINUOUS
 10
-2.3807665242
 20
9.6921768221
 11
-2.3703116271
 21
9.674034489
  0
LINE
  5
6EB
100
AcDbEntity
  8
CURVE
100
AcDbLine
 62
250
  6
CONTINUOUS
 10
-3.3631047633
 20
9.7849834917
 11
-3.3521649368
 21
9.7658285704
  0
LINE
  5
6EC
100
AcDbEntity
  8
CURVE
100
AcDbLine
 62
250
  6
CONTINUOUS
 10
-0.5383855712
 20
5.4636928886
 11
-0.9519074008
 21
6.1867792653
  0
LINE
  5
6ED
100
AcDbEntity
  8
CURVE
100
AcDbLine
 62
250
  6
CONTINUOUS
 10
-0.9519074008
 20
6.1867792653
 11
-1.1585305219
 21
6.5503630888
  0
LINE
  5
6EE
100
AcDbEntity
  8
CURVE
100
AcDbLine
 62
250
  6
CONTINUOUS
 10
-3.6534361799
 20
11.0623316828
 11
-3.6642315636
 21
11.0813934553
  0
LWPOLYLINE
  5
6EF
100
AcDbEntity
  8
CURVE
100
AcDbPolyline
 62
250
  6
CONTINUOUS
 90
3
 70
0
 10
-1.4694511723
 20
6.3707342533
 10
-1.3663836976
 20
6.1886069751
 10
-0.8507242273
 20
5.2831046733
  0
LINE
  5
6F0
100
AcDbEntity
  8
CURVE
100
AcDbLine
 62
250
  6
CONTINUOUS
 10
-0.5278346722
 20
5.4443980506
 11
-0.5383855712
 21
5.4636928886
  0
LINE
  5
6F1
100
AcDbEntity
  8
CURVE
100
AcDbLine
 62
250
  6
CONTINUOUS
 10
-3.0564536833
 20
9.9622877718
 11
-3.4538908783
 21
10.693205387
  0
LINE
  5
6F2
100
AcDbEntity
  8
CURVE
100
AcDbLine
 62
250
  6
CONTINUOUS
 10
-3.4538908783
 20
10.693205387
 11
-3.6534361799
 21
11.0623316828
  0
LINE
  5
6F3
100
AcDbEntity
  8
CURVE
100
AcDbLine
 62
250
  6
CONTINUOUS
 10
-1.0447260311
 20
7.3002248435
 11
-1.034737811
 21
7.2817153666
  0
LINE
  5
6F4
100
AcDbEntity
  8
CURVE
100
AcDbLine
 62
250
  6
CONTINUOUS
 10
-1.4248497673
 20
8.6759108362
 11
-1.4144665274
 21
8.656253659
  0
LINE
  5
6F5
100
AcDbEntity
  8
CURVE
100
AcDbLine
 62
250
  6
CONTINUOUS
 10
-2.0290064546
 20
10.8922820353
 11
-2.0389189466
 21
10.9111380319
  0
LINE
  5
6F6
100
AcDbEntity
  8
CURVE
100
AcDbLine
 62
250
  6
CONTINUOUS
 10
-1.7349910698
 20
8.363489947
 11
-1.7785650395
 21
8.4467700931
  0
LINE
  5
6F7
100
AcDbEntity
  8
CURVE
100
AcDbLine
 62
250
  6
CONTINUOUS
 10
-2.3907081428
 20
9.7111781712
 11
-2.3807665242
 21
9.6921768221
  0
LINE
  5
6F8
100
AcDbEntity
  8
CURVE
100
AcDbLine
 62
250
  6
CONTINUOUS
 10
-3.0462739395
 20
9.942529522
 11
-3.0564536833
 21
9.9622877718
  0
LINE
  5
6F9
100
AcDbEntity
  8
CURVE
100
AcDbLine
 62
250
  6
CONTINUOUS
 10
0.2015057326
 20
6.9252720721
 11
0.1921701317
 21
6.9442127488
  0
LINE
  5
6FA
100
AcDbEntity
  8
CURVE
100
AcDbLine
 62
250
  6
CONTINUOUS
 10
-0.5181349725
 20
5.4245716852
 11
-0.5278346722
 21
5.4443980506
  0
LINE
  5
6FB
100
AcDbEntity
  8
CURVE
100
AcDbLine
 62
250
  6
CONTINUOUS
 10
-1.0539680542
 20
7.3193139306
 11
-1.0447260311
 21
7.3002248435
  0
LINE
  5
6FC
100
AcDbEntity
  8
CURVE
100
AcDbLine
 62
250
  6
CONTINUOUS
 10
-1.4344000554
 20
8.6961462333
 11
-1.4248497673
 21
8.6759108362
  0
LINE
  5
6FD
100
AcDbEntity
  8
CURVE
100
AcDbLine
 62
250
  6
CONTINUOUS
 10
-2.0199146814
 20
10.8729977929
 11
-2.0290064546
 21
10.8922820353
  0
LINE
  5
6FE
100
AcDbEntity
  8
CURVE
100
AcDbLine
 62
250
  6
CONTINUOUS
 10
-2.399845542
 20
9.7306352189
 11
-2.3907081428
 21
9.7111781712
  0
LINE
  5
6FF
100
AcDbEntity
  8
CURVE
100
AcDbLine
 62
250
  6
CONTINUOUS
 10
-1.6973819136
 20
8.2791573419
 11
-1.7349910698
 21
8.363489947
  0
LINE
  5
700
100
AcDbEntity
  8
CURVE
100
AcDbLine
 62
250
  6
CONTINUOUS
 10
0.2100284871
 20
6.905844012
 11
0.2015057326
 21
6.9252720721
  0
LINE
  5
701
100
AcDbEntity
  8
CURVE
100
AcDbLine
 62
250
  6
CONTINUOUS
 10
-1.0623945442
 20
7.3388652765
 11
-1.0539680542
 21
7.3193139306
  0
LINE
  5
702
100
AcDbEntity
  8
CURVE
100
AcDbLine
 62
250
  6
CONTINUOUS
 10
-0.4164986018
 20
9.155515712
 11
-0.4251042788
 21
9.1759989383
  0
LINE
  5
703
100
AcDbEntity
  8
CURVE
100
AcDbLine
 62
250
  6
CONTINUOUS
 10
-2.0116918517
 20
10.8533779645
 11
-2.0199146814
 21
10.8729977929
  0
LINE
  5
704
100
AcDbEntity
  8
CURVE
100
AcDbLine
 62
250
  6
CONTINUOUS
 10
-1.4430355523
 20
8.7168116183
 11
-1.4344000554
 21
8.6961462333
  0
LINE
  5
705
100
AcDbEntity
  8
CURVE
100
AcDbLine
 62
250
  6
CONTINUOUS
 10
0.2176671846
 20
6.8860617923
 11
0.2100284871
 21
6.905844012
  0
LINE
  5
706
100
AcDbEntity
  8
CURVE
100
AcDbLine
 62
250
  6
CONTINUOUS
 10
-2.0043854935
 20
10.8335243506
 11
-2.0116918517
 21
10.8533779645
  0
LINE
  5
707
100
AcDbEntity
  8
CURVE
100
AcDbLine
 62
250
  6
CONTINUOUS
 10
-0.4088823201
 20
9.1347346244
 11
-0.4164986018
 21
9.155515712
  0
LINE
  5
708
100
AcDbEntity
  8
CURVE
100
AcDbLine
 62
250
  6
CONTINUOUS
 10
0.2243539498
 20
6.8660733281
 11
0.2176671846
 21
6.8860617923
  0
LINE
  5
709
100
AcDbEntity
  8
CURVE
100
AcDbLine
 62
250
  6
CONTINUOUS
 10
-0.4054514508
 20
9.1242338546
 11
-0.4088823201
 21
9.1347346244
  0
LINE
  5
70A
100
AcDbEntity
  8
CURVE
100
AcDbLine
 62
250
  6
CONTINUOUS
 10
-0.3994487519
 20
9.1033212633
 11
-0.4054514508
 21
9.1242338546
  0
LINE
  5
70B
100
AcDbEntity
  8
CURVE
100
AcDbLine
 62
250
  6
CONTINUOUS
 10
0.2298817076
 20
6.8466020328
 11
0.2243539498
 21
6.8660733281
  0
LINE
  5
70C
100
AcDbEntity
  8
CURVE
100
AcDbLine
 62
250
  6
CONTINUOUS
 10
0.2345126983
 20
6.8267163517
 11
0.2298817076
 21
6.8466020328
  0
LWPOLYLINE
  5
70D
100
AcDbEntity
  8
ASSI
100
AcDbPolyline
 62
250
  6
CONTINUOUS
 90
10
 70
0
 10
5.6970268994
 20
-22.2701179199
 10
5.6299468328
 20
-20.4043783688
 10
5.5717014175
 20
-18.5644384336
 10
5.5219113514
 20
-16.750574617
 10
5.4806367714
 20
-14.9834044917
 10
5.4469185665
 20
-13.2429357646
 10
5.4195714529
 20
-11.468088314
 10
5.3987614191
 20
-9.6381914331
 10
5.3852120317
 20
-7.7734625687
 10
5.3792972488
 20
-5.8737238645
  0
LINE
  5
70E
100
AcDbEntity
  8
ASSI
100
AcDbLine
 62
7
  6
CONTINUOUS
 10
3.2703384543
 20
17.2949221544
 11
3.2916728333
 21
16.6746968064
  0
LWPOLYLINE
  5
70F
100
AcDbEntity
  8
ASSI
100
AcDbPolyline
 62
250
  6
CONTINUOUS
 90
19
 70
0
 10
5.6970269148
 20
11.8214426333
 10
5.7026768575
 20
11.9048899402
 10
5.7139000252
 20
11.9908286801
 10
5.730624867
 20
12.0786787387
 10
5.7527542623
 20
12.1678328187
 10
5.7801375663
 20
12.257701206
 10
5.8125758912
 20
12.3477163115
 10
5.8498764944
 20
12.4372732167
 10
5.8917980694
 20
12.525757173
 10
5.9380264157
 20
12.6125888491
 10
5.9882769085
 20
12.697173407
 10
6.0422283168
 20
12.7789328297
 10
6.0994725866
 20
12.8573342139
 10
6.1596481975
 20
12.9318323418
 10
6.22237559
 20
13.0019193479
 10
6.2871921126
 20
13.0671549571
 10
6.3536667013
 20
13.1270988081
 10
6.4214015922
 20
13.1813154952
 10
6.4899683955
 20
13.2294225909
  0
LINE
  5
710
100
AcDbEntity
  8
CURVE
100
AcDbLine
 62
250
  6
CONTINUOUS
 10
-0.6517273378
 20
-12.5106252208
 11
-0.6477793349
 21
-12.4989709536
  0
LINE
  5
711
100
AcDbEntity
  8
CURVE
100
AcDbLine
 62
250
  6
CONTINUOUS
 10
-0.6539795943
 20
-12.5161368928
 11
-0.6517273378
 21
-12.5106252208
  0
LINE
  5
712
100
AcDbEntity
  8
CURVE
100
AcDbLine
 62
250
  6
CONTINUOUS
 10
-0.7017929902
 20
-10.70779671
 11
-0.6995461796
 21
-10.7029040107
  0
LINE
  5
713
100
AcDbEntity
  8
CURVE
100
AcDbLine
 62
250
  6
CONTINUOUS
 10
-0.65909431
 20
-12.5266594896
 11
-0.6539795943
 21
-12.5161368928
  0
LINE
  5
714
100
AcDbEntity
  8
CURVE
100
AcDbLine
 62
250
  6
CONTINUOUS
 10
-1.4301702752
 20
-11.6458097343
 11
-1.4353290587
 21
-11.6563902851
  0
LINE
  5
715
100
AcDbEntity
  8
CURVE
100
AcDbLine
 62
250
  6
CONTINUOUS
 10
-1.8503150651
 20
-11.0882551635
 11
-1.8422745392
 21
-11.072554308
  0
LINE
  5
716
100
AcDbEntity
  8
CURVE
100
AcDbLine
 62
250
  6
CONTINUOUS
 10
-1.4610288664
 20
-10.3123377546
 11
-1.4665119937
 21
-10.3225725089
  0
LINE
  5
717
100
AcDbEntity
  8
CURVE
100
AcDbLine
 62
250
  6
CONTINUOUS
 10
-0.7073263642
 20
-10.7180604763
 11
-0.7017929902
 21
-10.70779671
  0
LINE
  5
718
100
AcDbEntity
  8
CURVE
100
AcDbLine
 62
250
  6
CONTINUOUS
 10
-2.4226652512
 20
-11.7197815837
 11
-2.427731809
 21
-11.7286690956
  0
LINE
  5
719
100
AcDbEntity
  8
CURVE
100
AcDbLine
 62
250
  6
CONTINUOUS
 10
-2.0284502786
 20
-12.6491654782
 11
-2.0234090003
 21
-12.6403521245
  0
LINE
  5
71A
100
AcDbEntity
  8
CURVE
100
AcDbLine
 62
250
  6
CONTINUOUS
 10
-1.424284935
 20
-11.6360877448
 11
-1.4301702752
 21
-11.6458097343
  0
LINE
  5
71B
100
AcDbEntity
  8
CURVE
100
AcDbLine
 62
250
  6
CONTINUOUS
 10
-1.8594939254
 20
-11.1032882382
 11
-1.8503150651
 21
-11.0882551635
  0
LINE
  5
71C
100
AcDbEntity
  8
CURVE
100
AcDbLine
 62
250
  6
CONTINUOUS
 10
-1.4548129006
 20
-10.3029501644
 11
-1.4610288664
 21
-10.3123377546
  0
LINE
  5
71D
100
AcDbEntity
  8
CURVE
100
AcDbLine
 62
250
  6
CONTINUOUS
 10
-3.0739942208
 20
-10.9233516333
 11
-3.071279472
 21
-10.9193928586
  0
LINE
  5
71E
100
AcDbEntity
  8
CURVE
100
AcDbLine
 62
250
  6
CONTINUOUS
 10
-2.4167960337
 20
-11.7114533706
 11
-2.4226652512
 21
-11.7197815837
  0
LINE
  5
71F
100
AcDbEntity
  8
CURVE
100
AcDbLine
 62
250
  6
CONTINUOUS
 10
-2.1170215494
 20
-9.5177787541
 11
-2.1110180081
 21
-9.5093833359
  0
LINE
  5
720
100
AcDbEntity
  8
CURVE
100
AcDbLine
 62
250
  6
CONTINUOUS
 10
-1.8698087648
 20
-11.117587054
 11
-1.8594939254
 21
-11.1032882382
  0
LINE
  5
721
100
AcDbEntity
  8
CURVE
100
AcDbLine
 62
250
  6
CONTINUOUS
 10
-2.6626753372
 20
-10.1091134054
 11
-2.6734625001
 21
-10.1239383553
  0
LINE
  5
722
100
AcDbEntity
  8
CURVE
100
AcDbLine
 62
250
  6
CONTINUOUS
 10
-3.0807803651
 20
-10.9318817563
 11
-3.0739942208
 21
-10.9233516333
  0
LINE
  5
723
100
AcDbEntity
  8
CURVE
100
AcDbLine
 62
250
  6
CONTINUOUS
 10
-3.7899068027
 20
-10.4798163129
 11
-3.7964814019
 21
-10.4879815152
  0
LINE
  5
724
100
AcDbEntity
  8
CURVE
100
AcDbLine
 62
250
  6
CONTINUOUS
 10
-3.1152337207
 20
-9.603620525
 11
-3.1083499174
 21
-9.5951256033
  0
LINE
  5
725
100
AcDbEntity
  8
CURVE
100
AcDbLine
 62
250
  6
CONTINUOUS
 10
-2.6502085452
 20
-10.0947063179
 11
-2.6626753372
 21
-10.1091134054
  0
LINE
  5
726
100
AcDbEntity
  8
CURVE
100
AcDbLine
 62
250
  6
CONTINUOUS
 10
-2.4861279522
 20
-8.5603593636
 11
-2.4929184171
 21
-8.5681291801
  0
LINE
  5
727
100
AcDbEntity
  8
CURVE
100
AcDbLine
 62
250
  6
CONTINUOUS
 10
-2.1238153137
 20
-9.5255504757
 11
-2.1170215494
 21
-9.5177787541
  0
LINE
  5
728
100
AcDbEntity
  8
CURVE
100
AcDbLine
 62
250
  6
CONTINUOUS
 10
-3.7853162579
 20
-10.474924276
 11
-3.7899068027
 21
-10.4798163129
  0
LINE
  5
729
100
AcDbEntity
  8
CURVE
100
AcDbLine
 62
250
  6
CONTINUOUS
 10
-3.1189700638
 20
-9.6075752656
 11
-3.1152337207
 21
-9.603620525
  0
LINE
  5
72A
100
AcDbEntity
  8
CURVE
100
AcDbLine
 62
250
  6
CONTINUOUS
 10
-2.4789847108
 20
-8.5536313736
 11
-2.4861279522
 21
-8.5603593636
  0
LINE
  5
72B
100
AcDbEntity
  8
CURVE
100
AcDbLine
 62
250
  6
CONTINUOUS
 10
-3.8228033352
 20
-8.6554574466
 11
-3.8302943163
 21
-8.662286077
  0
LINE
  5
72C
100
AcDbEntity
  8
CURVE
100
AcDbLine
 62
250
  6
CONTINUOUS
 10
-3.8146359451
 20
-8.6495401997
 11
-3.8228033352
 21
-8.6554574466
  0
LWPOLYLINE
  5
72D
100
AcDbEntity
  8
ASSI
100
AcDbPolyline
 62
250
  6
CONTINUOUS
 90
13
 70
0
 10
1.5239590055
 20
-3.2857838408
 10
1.4876651494
 20
-3.3113196102
 10
1.4534004859
 20
-3.3416081142
 10
1.4209363924
 20
-3.3761270939
 10
1.3896550352
 20
-3.4145980349
 10
1.3600966269
 20
-3.456799152
 10
1.3338260229
 20
-3.5018886105
 10
1.3108961293
 20
-3.5484555434
 10
1.2911459743
 20
-3.5959470813
 10
1.275767586
 20
-3.6440985423
 10
1.2650995091
 20
-3.6919652913
 10
1.2584750491
 20
-3.7380821014
 10
1.2555185823
 20
-3.7813059916
  0
LINE
  5
72E
100
AcDbEntity
  8
ASSI
100
AcDbLine
 62
7
  6
CONTINUOUS
 10
1.5459838728
 20
-3.1338469711
 11
1.3218942667
 21
-3.267181192
  0
LINE
  5
72F
100
AcDbEntity
  8
ASSI
100
AcDbLine
 62
250
  6
CONTINUOUS
 10
1.6694425579
 20
-3.1992207275
 11
1.5239590091
 21
-3.2857838427
  0
LINE
  5
730
100
AcDbEntity
  8
ASSI
100
AcDbLine
 62
7
  6
CONTINUOUS
 10
0.9742902981
 20
-3.7256019148
 11
0.9767964918
 21
-3.7241277258
  0
LWPOLYLINE
  5
731
100
AcDbEntity
  8
ASSI
100
AcDbPolyline
 62
250
  6
CONTINUOUS
 90
9
 70
0
 10
1.3218942667
 20
-3.267181192
 10
1.3325446631
 20
-3.2614830323
 10
1.3556394647
 20
-3.2529149276
 10
1.3806440068
 20
-3.248350543
 10
1.4072787051
 20
-3.2478408475
 10
1.4352456532
 20
-3.251391486
 10
1.4642320756
 20
-3.2589626841
 10
1.4939138328
 20
-3.2704697147
 10
1.5239590055
 20
-3.2857838408
  0
LINE
  5
732
100
AcDbEntity
  8
CURVE
100
AcDbLine
 62
250
  6
CONTINUOUS
 10
-0.5833652874
 20
5.0994048659
 11
-0.5697078354
 21
5.1023865195
  0
LINE
  5
733
100
AcDbEntity
  8
CURVE
100
AcDbLine
 62
250
  6
CONTINUOUS
 10
-0.5976898632
 20
5.0979429973
 11
-0.5833652874
 21
5.0994048659
  0
LINE
  5
734
100
AcDbEntity
  8
CURVE
100
AcDbLine
 62
250
  6
CONTINUOUS
 10
-0.6051432482
 20
5.0977887471
 11
-0.5976898632
 21
5.0979429973
  0
LINE
  5
735
100
AcDbEntity
  8
CURVE
100
AcDbLine
 62
250
  6
CONTINUOUS
 10
-0.6202495496
 20
5.0986418998
 11
-0.6051432482
 21
5.0977887471
  0
LINE
  5
736
100
AcDbEntity
  8
CURVE
100
AcDbLine
 62
250
  6
CONTINUOUS
 10
-2.2544093823
 20
5.2407745606
 11
-2.2408420773
 21
5.239529868
  0
LINE
  5
737
100
AcDbEntity
  8
CURVE
100
AcDbLine
 62
250
  6
CONTINUOUS
 10
-0.6357154216
 20
5.1010221467
 11
-0.6202495496
 21
5.0986418998
  0
LINE
  5
738
100
AcDbEntity
  8
CURVE
100
AcDbLine
 62
250
  6
CONTINUOUS
 10
-2.2692111972
 20
5.243477442
 11
-2.2544093823
 21
5.2407745606
  0
LINE
  5
739
100
AcDbEntity
  8
CURVE
100
AcDbLine
 62
250
  6
CONTINUOUS
 10
-0.6514280315
 20
5.1049027017
 11
-0.6357154216
 21
5.1010221467
  0
LINE
  5
73A
100
AcDbEntity
  8
CURVE
100
AcDbLine
 62
250
  6
CONTINUOUS
 10
-2.2842190527
 20
5.2475675055
 11
-2.2692111972
 21
5.243477442
  0
LINE
  5
73B
100
AcDbEntity
  8
CURVE
100
AcDbLine
 62
250
  6
CONTINUOUS
 10
-0.6672790608
 20
5.1102458388
 11
-0.6514280315
 21
5.1049027017
  0
LINE
  5
73C
100
AcDbEntity
  8
CURVE
100
AcDbLine
 62
250
  6
CONTINUOUS
 10
-2.2993095105
 20
5.2529981331
 11
-2.2842190527
 21
5.2475675055
  0
LINE
  5
73D
100
AcDbEntity
  8
CURVE
100
AcDbLine
 62
250
  6
CONTINUOUS
 10
-0.6831674843
 20
5.1170057085
 11
-0.6672790608
 21
5.1102458388
  0
LINE
  5
73E
100
AcDbEntity
  8
CURVE
100
AcDbLine
 62
250
  6
CONTINUOUS
 10
-2.3143668632
 20
5.2597116618
 11
-2.2993095105
 21
5.2529981331
  0
LINE
  5
73F
100
AcDbEntity
  8
CURVE
100
AcDbLine
 62
250
  6
CONTINUOUS
 10
-3.8871966409
 20
6.9663238558
 11
-3.8718317425
 21
6.9592330311
  0
LINE
  5
740
100
AcDbEntity
  8
CURVE
100
AcDbLine
 62
250
  6
CONTINUOUS
 10
-0.6990015599
 20
5.1251314603
 11
-0.6831674843
 21
5.1170057085
  0
LINE
  5
741
100
AcDbEntity
  8
CURVE
100
AcDbLine
 62
250
  6
CONTINUOUS
 10
-2.3292862498
 20
5.2676431569
 11
-2.3143668632
 21
5.2597116618
  0
LINE
  5
742
100
AcDbEntity
  8
CURVE
100
AcDbLine
 62
250
  6
CONTINUOUS
 10
-2.3000669739
 20
6.7965453486
 11
-2.315026307
 21
6.8044993094
  0
LINE
  5
743
100
AcDbEntity
  8
CURVE
100
AcDbLine
 62
250
  6
CONTINUOUS
 10
-3.9024186186
 20
6.9747342794
 11
-3.8871966409
 21
6.9663238558
  0
LINE
  5
744
100
AcDbEntity
  8
CURVE
100
AcDbLine
 62
250
  6
CONTINUOUS
 10
-0.7149045109
 20
5.1346485276
 11
-0.6990015599
 21
5.1251314603
  0
LINE
  5
745
100
AcDbEntity
  8
CURVE
100
AcDbLine
 62
250
  6
CONTINUOUS
 10
-1.2928501099
 20
6.6991414875
 11
-1.3087132064
 21
6.7088034912
  0
LINE
  5
746
100
AcDbEntity
  8
CURVE
100
AcDbLine
 62
250
  6
CONTINUOUS
 10
-2.2851724886
 20
6.7873001348
 11
-2.3000669739
 21
6.7965453486
  0
LINE
  5
747
100
AcDbEntity
  8
CURVE
100
AcDbLine
 62
250
  6
CONTINUOUS
 10
-2.3526076863
 20
7.4173840969
 11
-2.2864539904
 21
7.3754076497
  0
LINE
  5
748
100
AcDbEntity
  8
CURVE
100
AcDbLine
 62
250
  6
CONTINUOUS
 10
-3.2452265087
 20
7.8260353577
 11
-3.2604780607
 21
7.8357280536
  0
LINE
  5
749
100
AcDbEntity
  8
CURVE
100
AcDbLine
 62
250
  6
CONTINUOUS
 10
-3.9176111895
 20
6.984521775
 11
-3.9024186186
 21
6.9747342794
  0
LINE
  5
74A
100
AcDbEntity
  8
CURVE
100
AcDbLine
 62
250
  6
CONTINUOUS
 10
-0.7308053952
 20
5.1455621545
 11
-0.7149045109
 21
5.1346485276
  0
LINE
  5
74B
100
AcDbEntity
  8
CURVE
100
AcDbLine
 62
250
  6
CONTINUOUS
 10
-1.2770349686
 20
6.6881114166
 11
-1.2928501099
 21
6.6991414875
  0
LINE
  5
74C
100
AcDbEntity
  8
CURVE
100
AcDbLine
 62
250
  6
CONTINUOUS
 10
-2.2701916318
 20
6.7767058672
 11
-2.2851724886
 21
6.7873001348
  0
LINE
  5
74D
100
AcDbEntity
  8
CURVE
100
AcDbLine
 62
250
  6
CONTINUOUS
 10
-3.2299106943
 20
7.814904705
 11
-3.2452265087
 21
7.8260353577
  0
LINE
  5
74E
100
AcDbEntity
  8
CURVE
100
AcDbLine
 62
250
  6
CONTINUOUS
 10
-4.5411878282
 20
9.2585844379
 11
-4.5266082118
 21
9.247787701
  0
LINE
  5
74F
100
AcDbEntity
  8
CURVE
100
AcDbLine
 62
250
  6
CONTINUOUS
 10
-2.4175696917
 20
7.4663773473
 11
-2.3526076863
 21
7.4173840969
  0
LINE
  5
750
100
AcDbEntity
  8
CURVE
100
AcDbLine
 62
250
  6
CONTINUOUS
 10
-0.7466005483
 20
5.1578129778
 11
-0.7308053952
 21
5.1455621545
  0
LINE
  5
751
100
AcDbEntity
  8
CURVE
100
AcDbLine
 62
250
  6
CONTINUOUS
 10
-0.929717297
 20
7.1547399385
 11
-0.9146063253
 21
7.143016618
  0
LINE
  5
752
100
AcDbEntity
  8
CURVE
100
AcDbLine
 62
250
  6
CONTINUOUS
 10
-1.2613637314
 20
6.6757722754
 11
-1.2770349686
 21
6.6881114166
  0
LINE
  5
753
100
AcDbEntity
  8
CURVE
100
AcDbLine
 62
250
  6
CONTINUOUS
 10
-2.2552330652
 20
6.764821412
 11
-2.2701916318
 21
6.7767058672
  0
LINE
  5
754
100
AcDbEntity
  8
CURVE
100
AcDbLine
 62
250
  6
CONTINUOUS
 10
-3.5884987191
 20
9.182480401
 11
-3.6031881823
 21
9.1944675508
  0
LINE
  5
755
100
AcDbEntity
  8
CURVE
100
AcDbLine
 62
250
  6
CONTINUOUS
 10
-3.2146322711
 20
7.802391847
 11
-3.2299106943
 21
7.814904705
  0
LINE
  5
756
100
AcDbEntity
  8
CURVE
100
AcDbLine
 62
250
  6
CONTINUOUS
 10
-4.5557061937
 20
9.2706499218
 11
-4.5411878282
 21
9.2585844379
  0
LINE
  5
757
100
AcDbEntity
  8
CURVE
100
AcDbLine
 62
250
  6
CONTINUOUS
 10
-0.9446639105
 20
7.1676668891
 11
-0.929717297
 21
7.1547399385
  0
LINE
  5
758
100
AcDbEntity
  8
CURVE
100
AcDbLine
 62
250
  6
CONTINUOUS
 10
-2.4813447056
 20
7.5222440469
 11
-2.4175696917
 21
7.4663773473
  0
LINE
  5
759
100
AcDbEntity
  8
CURVE
100
AcDbLine
 62
250
  6
CONTINUOUS
 10
-1.2459381245
 20
6.6621966438
 11
-1.2613637314
 21
6.6757722754
  0
LINE
  5
75A
100
AcDbEntity
  8
CURVE
100
AcDbLine
 62
250
  6
CONTINUOUS
 10
-2.2404139044
 20
6.7517241659
 11
-2.2552330652
 21
6.764821412
  0
LINE
  5
75B
100
AcDbEntity
  8
CURVE
100
AcDbLine
 62
250
  6
CONTINUOUS
 10
-3.5739781829
 20
9.169302741
 11
-3.5884987191
 21
9.182480401
  0
LINE
  5
75C
100
AcDbEntity
  8
CURVE
100
AcDbLine
 62
250
  6
CONTINUOUS
 10
-3.199503684
 20
7.7885717486
 11
-3.2146322711
 21
7.802391847
  0
LINE
  5
75D
100
AcDbEntity
  8
CURVE
100
AcDbLine
 62
250
  6
CONTINUOUS
 10
-3.2780511631
 20
9.6717907653
 11
-3.2629907523
 21
9.6580042741
  0
LINE
  5
75E
100
AcDbEntity
  8
CURVE
100
AcDbLine
 62
250
  6
CONTINUOUS
 10
-4.5700657566
 20
9.2839158281
 11
-4.5557061937
 21
9.2706499218
  0
LINE
  5
75F
100
AcDbEntity
  8
CURVE
100
AcDbLine
 62
250
  6
CONTINUOUS
 10
-0.9593378313
 20
7.1817148066
 11
-0.9446639105
 21
7.1676668891
  0
LINE
  5
760
100
AcDbEntity
  8
CURVE
100
AcDbLine
 62
250
  6
CONTINUOUS
 10
-1.2308631766
 20
6.6474704232
 11
-1.2459381245
 21
6.6621966438
  0
LINE
  5
761
100
AcDbEntity
  8
CURVE
100
AcDbLine
 62
250
  6
CONTINUOUS
 10
-1.9932138946
 20
8.7433754704
 11
-2.0545559429
 21
8.8048658917
  0
LINE
  5
762
100
AcDbEntity
  8
CURVE
100
AcDbLine
 62
250
  6
CONTINUOUS
 10
-3.5597317816
 20
9.1550199035
 11
-3.5739781829
 21
9.169302741
  0
LINE
  5
763
100
AcDbEntity
  8
CURVE
100
AcDbLine
 62
250
  6
CONTINUOUS
 10
-2.5424795062
 20
7.5839947715
 11
-2.4813447056
 21
7.5222440469
  0
LINE
  5
764
100
AcDbEntity
  8
CURVE
100
AcDbLine
 62
250
  6
CONTINUOUS
 10
-3.2927567331
 20
9.6867302599
 11
-3.2780511631
 21
9.6717907653
  0
LINE
  5
765
100
AcDbEntity
  8
CURVE
100
AcDbLine
 62
250
  6
CONTINUOUS
 10
0.1197744857
 20
7.0476759947
 11
0.1059238233
 21
7.0620129804
  0
LINE
  5
766
100
AcDbEntity
  8
CURVE
100
AcDbLine
 62
250
  6
CONTINUOUS
 10
-0.9729098497
 20
7.1959938965
 11
-0.9593378313
 21
7.1817148066
  0
LINE
  5
767
100
AcDbEntity
  8
CURVE
100
AcDbLine
 62
250
  6
CONTINUOUS
 10
-1.2228395063
 20
6.6390021585
 11
-1.2308631766
 21
6.6474704232
  0
LINE
  5
768
100
AcDbEntity
  8
CURVE
100
AcDbLine
 62
250
  6
CONTINUOUS
 10
-1.3504792858
 20
8.5675683403
 11
-1.342592438
 21
8.5591877927
  0
LINE
  5
769
100
AcDbEntity
  8
CURVE
100
AcDbLine
 62
250
  6
CONTINUOUS
 10
-2.320533684
 20
9.6061685965
 11
-2.3064916759
 21
9.5909907763
  0
LINE
  5
76A
100
AcDbEntity
  8
CURVE
100
AcDbLine
 62
250
  6
CONTINUOUS
 10
-3.7154551774
 20
11.1519672388
 11
-3.7298668499
 21
11.1675727977
  0
LINE
  5
76B
100
AcDbEntity
  8
CURVE
100
AcDbLine
 62
250
  6
CONTINUOUS
 10
-3.3005784986
 20
9.6953151022
 11
-3.2927567331
 21
9.6867302599
  0
LINE
  5
76C
100
AcDbEntity
  8
CURVE
100
AcDbLine
 62
250
  6
CONTINUOUS
 10
-3.5464213558
 20
9.140370992
 11
-3.5597317816
 21
9.1550199035
  0
LINE
  5
76D
100
AcDbEntity
  8
CURVE
100
AcDbLine
 62
250
  6
CONTINUOUS
 10
0.1336894649
 20
7.0318788286
 11
0.1197744857
 21
7.0476759947
  0
LINE
  5
76E
100
AcDbEntity
  8
CURVE
100
AcDbLine
 62
250
  6
CONTINUOUS
 10
-1.2085448775
 20
6.6227335169
 11
-1.2228395063
 21
6.6390021585
  0
LINE
  5
76F
100
AcDbEntity
  8
CURVE
100
AcDbLine
 62
250
  6
CONTINUOUS
 10
-1.9339761649
 20
8.6757478243
 11
-1.9932138946
 21
8.7433754704
  0
LINE
  5
770
100
AcDbEntity
  8
CURVE
100
AcDbLine
 62
250
  6
CONTINUOUS
 10
-1.3648746952
 20
8.584049851
 11
-1.3504792858
 21
8.5675683403
  0
LINE
  5
771
100
AcDbEntity
  8
CURVE
100
AcDbLine
 62
250
  6
CONTINUOUS
 10
-0.9867123621
 20
7.211908357
 11
-0.9729098497
 21
7.1959938965
  0
LINE
  5
772
100
AcDbEntity
  8
CURVE
100
AcDbLine
 62
250
  6
CONTINUOUS
 10
-3.3145036741
 20
9.7117970614
 11
-3.3005784986
 21
9.6953151022
  0
LINE
  5
773
100
AcDbEntity
  8
CURVE
100
AcDbLine
 62
250
  6
CONTINUOUS
 10
-2.3340287209
 20
9.6221895797
 11
-2.320533684
 21
9.6061685965
  0
LINE
  5
774
100
AcDbEntity
  8
CURVE
100
AcDbLine
 62
250
  6
CONTINUOUS
 10
-3.7015934802
 20
11.1354201228
 11
-3.7154551774
 21
11.1519672388
  0
LINE
  5
775
100
AcDbEntity
  8
CURVE
100
AcDbLine
 62
250
  6
CONTINUOUS
 10
0.14696409
 20
7.0153415971
 11
0.1336894649
 21
7.0318788286
  0
LINE
  5
776
100
AcDbEntity
  8
CURVE
100
AcDbLine
 62
250
  6
CONTINUOUS
 10
-1.3785726839
 20
8.6013155141
 11
-1.3648746952
 21
8.584049851
  0
LINE
  5
777
100
AcDbEntity
  8
CURVE
100
AcDbLine
 62
250
  6
CONTINUOUS
 10
-0.9998834927
 20
7.2285685836
 11
-0.9867123621
 21
7.211908357
  0
LINE
  5
778
100
AcDbEntity
  8
CURVE
100
AcDbLine
 62
250
  6
CONTINUOUS
 10
-1.8782933128
 20
8.6035364793
 11
-1.9339761649
 21
8.6757478243
  0
LINE
  5
779
100
AcDbEntity
  8
CURVE
100
AcDbLine
 62
250
  6
CONTINUOUS
 10
-2.3468781127
 20
9.6389246067
 11
-2.3340287209
 21
9.6221895797
  0
LINE
  5
77A
100
AcDbEntity
  8
CURVE
100
AcDbLine
 62
250
  6
CONTINUOUS
 10
-2.0730302044
 20
10.9647383883
 11
-2.0859002139
 21
10.9814963725
  0
LINE
  5
77B
100
AcDbEntity
  8
CURVE
100
AcDbLine
 62
250
  6
CONTINUOUS
 10
-3.6883794624
 20
11.1180579301
 11
-3.7015934802
 21
11.1354201228
  0
LINE
  5
77C
100
AcDbEntity
  8
CURVE
100
AcDbLine
 62
250
  6
CONTINUOUS
 10
0.1595069208
 20
6.9981917728
 11
0.14696409
 21
7.0153415971
  0
LINE
  5
77D
100
AcDbEntity
  8
CURVE
100
AcDbLine
 62
250
  6
CONTINUOUS
 10
-1.0123299837
 20
7.2458425899
 11
-0.9998834927
 21
7.2285685836
  0
LINE
  5
77E
100
AcDbEntity
  8
CURVE
100
AcDbLine
 62
250
  6
CONTINUOUS
 10
-1.3914628067
 20
8.619205973
 11
-1.3785726839
 21
8.6013155141
  0
LINE
  5
77F
100
AcDbEntity
  8
CURVE
100
AcDbLine
 62
250
  6
CONTINUOUS
 10
-2.0608644885
 20
10.947350024
 11
-2.0730302044
 21
10.9647383883
  0
LINE
  5
780
100
AcDbEntity
  8
CURVE
100
AcDbLine
 62
250
  6
CONTINUOUS
 10
-2.3589962668
 20
9.6562465632
 11
-2.3468781127
 21
9.6389246067
  0
LINE
  5
781
100
AcDbEntity
  8
CURVE
100
AcDbLine
 62
250
  6
CONTINUOUS
 10
0.1712386646
 20
6.9805547218
 11
0.1595069208
 21
6.9981917728
  0
LINE
  5
782
100
AcDbEntity
  8
CURVE
100
AcDbLine
 62
250
  6
CONTINUOUS
 10
-0.4562215577
 20
9.2343101816
 11
-0.4684118468
 21
9.2527552936
  0
LINE
  5
783
100
AcDbEntity
  8
CURVE
100
AcDbLine
 62
250
  6
CONTINUOUS
 10
-1.4034522076
 20
8.6375667525
 11
-1.3914628067
 21
8.619205973
  0
LINE
  5
784
100
AcDbEntity
  8
CURVE
100
AcDbLine
 62
250
  6
CONTINUOUS
 10
-2.0494742633
 20
10.9294468967
 11
-2.0608644885
 21
10.947350024
  0
LINE
  5
785
100
AcDbEntity
  8
CURVE
100
AcDbLine
 62
250
  6
CONTINUOUS
 10
0.182093103
 20
6.962549862
 11
0.1712386646
 21
6.9805547218
  0
LINE
  5
786
100
AcDbEntity
  8
CURVE
100
AcDbLine
 62
250
  6
CONTINUOUS
 10
-0.4449882895
 20
9.2154929619
 11
-0.4562215577
 21
9.2343101816
  0
LINE
  5
787
100
AcDbEntity
  8
CURVE
100
AcDbLine
 62
250
  6
CONTINUOUS
 10
-2.0389189466
 20
10.9111380319
 11
-2.0494742633
 21
10.9294468967
  0
LINE
  5
788
100
AcDbEntity
  8
CURVE
100
AcDbLine
 62
250
  6
CONTINUOUS
 10
0.1921701317
 20
6.9442127488
 11
0.182093103
 21
6.962549862
  0
LINE
  5
789
100
AcDbEntity
  8
CURVE
100
AcDbLine
 62
250
  6
CONTINUOUS
 10
-0.4346261754
 20
9.1960359453
 11
-0.4449882895
 21
9.2154929619
  0
LINE
  5
78A
100
AcDbEntity
  8
CURVE
100
AcDbLine
 62
250
  6
CONTINUOUS
 10
-0.4251042788
 20
9.1759989383
 11
-0.4346261754
 21
9.1960359453
  0
LWPOLYLINE
  5
78B
100
AcDbEntity
  8
ASSI
100
AcDbPolyline
 62
250
  6
CONTINUOUS
 90
10
 70
0
 10
6.369718614
 20
-22.2448084422
 10
6.3018547849
 20
-20.3797389734
 10
6.2422472124
 20
-18.5410727097
 10
6.1908958966
 20
-16.7288096511
 10
6.1482052395
 20
-14.9632684345
 10
6.1137708391
 20
-13.2241304231
 10
6.0863794887
 20
-11.4504397061
 10
6.0656267862
 20
-9.6218776468
 10
6.0519171338
 20
-7.7587628819
 10
6.0452505315
 20
-5.8610954115
  0
LWPOLYLINE
  5
78C
100
AcDbEntity
  8
ASSI
100
AcDbPolyline
 62
250
  6
CONTINUOUS
 90
10
 70
0
 10
6.0452505785
 20
-4.9273937212
 10
6.0497230942
 20
-3.2292884075
 10
6.0614853961
 20
-1.5007090551
 10
6.0805374844
 20
0.2583443361
 10
6.1060725773
 20
2.0345656525
 10
6.1388974565
 20
3.8412610076
 10
6.1814324667
 20
5.7183487417
 10
6.2344843892
 20
7.679134968
 10
6.2972464427
 20
9.7103135734
 10
6.3697186271
 20
11.8118845576
  0
LWPOLYLINE
  5
78D
100
AcDbEntity
  8
ASSI
100
AcDbPolyline
 62
250
  6
CONTINUOUS
 90
10
 70
0
 10
5.3792972676
 20
-4.9378750797
 10
5.3841835963
 20
-3.2378532904
 10
5.3956017104
 20
-1.5075112479
 10
5.4138510405
 20
0.2532887792
 10
5.4390227468
 20
2.0316384579
 10
5.4715362441
 20
3.8406636445
 10
5.5126446543
 20
5.7198038566
 10
5.5635073339
 20
7.6825825809
 10
5.6246846148
 20
9.7163270042
 10
5.6970269042
 20
11.8214426347
  0
LWPOLYLINE
  5
78E
100
AcDbEntity
  8
ASSI
100
AcDbPolyline
 62
250
  6
CONTINUOUS
 90
19
 70
0
 10
6.3697186271
 20
11.8118845576
 10
6.3732577338
 20
11.8606995863
 10
6.3800791772
 20
11.9103214085
 10
6.3901829574
 20
11.9607500244
 10
6.4036796135
 20
12.0123616902
 10
6.4204586063
 20
12.0647801496
 10
6.4401883187
 20
12.1168766336
 10
6.4629280862
 20
12.1686195988
 10
6.4886185733
 20
12.2200405886
 10
6.5167501562
 20
12.2701054652
 10
6.5473753417
 20
12.3187888123
 10
6.580441623
 20
12.3661160462
 10
6.615281855
 20
12.4111292777
 10
6.6519548666
 20
12.4537936263
 10
6.6904018288
 20
12.4941439726
 10
6.7297791102
 20
12.5313270689
 10
6.7698055003
 20
12.5650584992
 10
6.8107622096
 20
12.5956226795
 10
6.8526492382
 20
12.6230196098
  0
LINE
  5
78F
100
AcDbEntity
  8
CURVE
100
AcDbLine
 62
250
  6
CONTINUOUS
 10
-0.6649454829
 20
-12.5363380913
 11
-0.65909431
 21
-12.5266594896
  0
LINE
  5
790
100
AcDbEntity
  8
CURVE
100
AcDbLine
 62
250
  6
CONTINUOUS
 10
-0.7135964987
 20
-10.7274793427
 11
-0.7073263642
 21
-10.7180604763
  0
LINE
  5
791
100
AcDbEntity
  8
CURVE
100
AcDbLine
 62
250
  6
CONTINUOUS
 10
-2.0342798999
 20
-12.6573863879
 11
-2.0284502786
 21
-12.6491654782
  0
LINE
  5
792
100
AcDbEntity
  8
CURVE
100
AcDbLine
 62
250
  6
CONTINUOUS
 10
-1.4176891354
 20
-11.627244753
 11
-1.424284935
 21
-11.6360877448
  0
LINE
  5
793
100
AcDbEntity
  8
CURVE
100
AcDbLine
 62
250
  6
CONTINUOUS
 10
-1.4478955825
 20
-10.2944522443
 11
-1.4548129006
 21
-10.3029501644
  0
LINE
  5
794
100
AcDbEntity
  8
CURVE
100
AcDbLine
 62
250
  6
CONTINUOUS
 10
-0.7205714302
 20
-10.7360105281
 11
-0.7135964987
 21
-10.7274793427
  0
LINE
  5
795
100
AcDbEntity
  8
CURVE
100
AcDbLine
 62
250
  6
CONTINUOUS
 10
-1.8812467542
 20
-11.1310785721
 11
-1.8698087648
 21
-11.117587054
  0
LINE
  5
796
100
AcDbEntity
  8
CURVE
100
AcDbLine
 62
250
  6
CONTINUOUS
 10
-2.410136133
 20
-11.7037463006
 11
-2.4167960337
 21
-11.7114533706
  0
LINE
  5
797
100
AcDbEntity
  8
CURVE
100
AcDbLine
 62
250
  6
CONTINUOUS
 10
-3.087966837
 20
-10.9393341056
 11
-3.0807803651
 21
-10.9318817563
  0
LINE
  5
798
100
AcDbEntity
  8
CURVE
100
AcDbLine
 62
250
  6
CONTINUOUS
 10
-1.440579962
 20
-10.2869583609
 11
-1.4478955825
 21
-10.2944522443
  0
LINE
  5
799
100
AcDbEntity
  8
CURVE
100
AcDbLine
 62
250
  6
CONTINUOUS
 10
-1.8937820767
 20
-11.1436844079
 11
-1.8812467542
 21
-11.1310785721
  0
LINE
  5
79A
100
AcDbEntity
  8
CURVE
100
AcDbLine
 62
250
  6
CONTINUOUS
 10
-2.6367098552
 20
-10.0817040093
 11
-2.6502085452
 21
-10.0947063179
  0
LINE
  5
79B
100
AcDbEntity
  8
CURVE
100
AcDbLine
 62
250
  6
CONTINUOUS
 10
-2.1309630446
 20
-9.532281058
 11
-2.1238153137
 21
-9.5255504757
  0
LINE
  5
79C
100
AcDbEntity
  8
CURVE
100
AcDbLine
 62
250
  6
CONTINUOUS
 10
-3.777605515
 20
-10.4680144759
 11
-3.7853162579
 21
-10.474924276
  0
LINE
  5
79D
100
AcDbEntity
  8
CURVE
100
AcDbLine
 62
250
  6
CONTINUOUS
 10
-3.1268734719
 20
-9.6145111532
 11
-3.1189700638
 21
-9.6075752656
  0
LINE
  5
79E
100
AcDbEntity
  8
CURVE
100
AcDbLine
 62
250
  6
CONTINUOUS
 10
-3.0926361501
 20
-10.9433972155
 11
-3.087966837
 21
-10.9393341056
  0
LINE
  5
79F
100
AcDbEntity
  8
CURVE
100
AcDbLine
 62
250
  6
CONTINUOUS
 10
-2.6231895193
 20
-10.0706883406
 11
-2.6367098552
 21
-10.0817040093
  0
LINE
  5
7A0
100
AcDbEntity
  8
CURVE
100
AcDbLine
 62
250
  6
CONTINUOUS
 10
-2.4742031048
 20
-8.5497836301
 11
-2.4789847108
 21
-8.5536313736
  0
LINE
  5
7A1
100
AcDbEntity
  8
CURVE
100
AcDbLine
 62
250
  6
CONTINUOUS
 10
-2.1362230347
 20
-9.5364926449
 11
-2.1309630446
 21
-9.532281058
  0
LINE
  5
7A2
100
AcDbEntity
  8
CURVE
100
AcDbLine
 62
250
  6
CONTINUOUS
 10
-3.769408418
 20
-10.4621584926
 11
-3.777605515
 21
-10.4680144759
  0
LINE
  5
7A3
100
AcDbEntity
  8
CURVE
100
AcDbLine
 62
250
  6
CONTINUOUS
 10
-3.1354365829
 20
-9.6205179422
 11
-3.1268734719
 21
-9.6145111532
  0
LINE
  5
7A4
100
AcDbEntity
  8
CURVE
100
AcDbLine
 62
250
  6
CONTINUOUS
 10
-2.4656614072
 20
-8.5439961111
 11
-2.4742031048
 21
-8.5497836301
  0
LINE
  5
7A5
100
AcDbEntity
  8
CURVE
100
AcDbLine
 62
250
  6
CONTINUOUS
 10
-2.1448118363
 20
-9.5422575766
 11
-2.1362230347
 21
-9.5364926449
  0
LINE
  5
7A6
100
AcDbEntity
  8
CURVE
100
AcDbLine
 62
250
  6
CONTINUOUS
 10
-3.8058220698
 20
-8.6445668414
 11
-3.8146359451
 21
-8.6495401997
  0
LINE
  5
7A7
100
AcDbEntity
  8
CURVE
100
AcDbLine
 62
250
  6
CONTINUOUS
 10
-2.4566073391
 20
-8.5391511933
 11
-2.4656614072
 21
-8.5439961111
  0
LINE
  5
7A8
100
AcDbEntity
  8
CURVE
100
AcDbLine
 62
250
  6
CONTINUOUS
 10
-3.7963966838
 20
-8.6405667691
 11
-3.8058220698
 21
-8.6445668414
  0
LINE
  5
7A9
100
AcDbEntity
  8
CURVE
100
AcDbLine
 62
250
  6
CONTINUOUS
 10
0.136675773
 20
6.5977417529
 11
0.1497217852
 21
6.6008841412
  0
LINE
  5
7AA
100
AcDbEntity
  8
CURVE
100
AcDbLine
 62
250
  6
CONTINUOUS
 10
-2.213456156
 20
5.2410654739
 11
-2.2007720857
 21
5.2439323847
  0
LINE
  5
7AB
100
AcDbEntity
  8
CURVE
100
AcDbLine
 62
250
  6
CONTINUOUS
 10
-1.424389951
 20
6.7349468174
 11
-1.4377239424
 21
6.7319667353
  0
LINE
  5
7AC
100
AcDbEntity
  8
CURVE
100
AcDbLine
 62
250
  6
CONTINUOUS
 10
0.1229942259
 20
6.5960018282
 11
0.136675773
 21
6.5977417529
  0
LINE
  5
7AD
100
AcDbEntity
  8
CURVE
100
AcDbLine
 62
250
  6
CONTINUOUS
 10
-2.22684624
 20
5.2395884754
 11
-2.213456156
 21
5.2410654739
  0
LINE
  5
7AE
100
AcDbEntity
  8
CURVE
100
AcDbLine
 62
250
  6
CONTINUOUS
 10
-1.4103282669
 20
6.7364204589
 11
-1.424389951
 21
6.7349468174
  0
LINE
  5
7AF
100
AcDbEntity
  8
CURVE
100
AcDbLine
 62
250
  6
CONTINUOUS
 10
0.1087583034
 20
6.5956827196
 11
0.1229942259
 21
6.5960018282
  0
LINE
  5
7B0
100
AcDbEntity
  8
CURVE
100
AcDbLine
 62
250
  6
CONTINUOUS
 10
-2.3887335436
 20
6.8247249554
 11
-2.4026910794
 21
6.8246502641
  0
LINE
  5
7B1
100
AcDbEntity
  8
CURVE
100
AcDbLine
 62
250
  6
CONTINUOUS
 10
-2.2408420773
 20
5.239529868
 11
-2.22684624
 21
5.2395884754
  0
LINE
  5
7B2
100
AcDbEntity
  8
CURVE
100
AcDbLine
 62
250
  6
CONTINUOUS
 10
-1.3956404329
 20
6.736361638
 11
-1.4103282669
 21
6.7364204589
  0
LINE
  5
7B3
100
AcDbEntity
  8
CURVE
100
AcDbLine
 62
250
  6
CONTINUOUS
 10
-3.8181236731
 20
6.9457461689
 11
-3.8037912718
 21
6.9454102627
  0
LINE
  5
7B4
100
AcDbEntity
  8
CURVE
100
AcDbLine
 62
250
  6
CONTINUOUS
 10
0.094743475
 20
6.596710173
 11
0.1087583034
 21
6.5956827196
  0
LINE
  5
7B5
100
AcDbEntity
  8
CURVE
100
AcDbLine
 62
250
  6
CONTINUOUS
 10
-1.3873555755
 20
6.7356735612
 11
-1.3956404329
 21
6.736361638
  0
LINE
  5
7B6
100
AcDbEntity
  8
CURVE
100
AcDbLine
 62
250
  6
CONTINUOUS
 10
-2.3750343445
 20
6.8234737197
 11
-2.3887335436
 21
6.8247249554
  0
LINE
  5
7B7
100
AcDbEntity
  8
CURVE
100
AcDbLine
 62
250
  6
CONTINUOUS
 10
-3.8329488582
 20
6.9476311717
 11
-3.8181236731
 21
6.9457461689
  0
LINE
  5
7B8
100
AcDbEntity
  8
CURVE
100
AcDbLine
 62
250
  6
CONTINUOUS
 10
-1.3719490876
 20
6.7332304247
 11
-1.3873555755
 21
6.7356735612
  0
LINE
  5
7B9
100
AcDbEntity
  8
CURVE
100
AcDbLine
 62
250
  6
CONTINUOUS
 10
0.0797113358
 20
6.5991758284
 11
0.094743475
 21
6.596710173
  0
LINE
  5
7BA
100
AcDbEntity
  8
CURVE
100
AcDbLine
 62
250
  6
CONTINUOUS
 10
-2.3602377534
 20
6.8207682436
 11
-2.3750343445
 21
6.8234737197
  0
LINE
  5
7BB
100
AcDbEntity
  8
CURVE
100
AcDbLine
 62
250
  6
CONTINUOUS
 10
-3.8411627461
 20
6.9493019514
 11
-3.8329488582
 21
6.9476311717
  0
LINE
  5
7BC
100
AcDbEntity
  8
CURVE
100
AcDbLine
 62
250
  6
CONTINUOUS
 10
-1.3562617621
 20
6.7292760069
 11
-1.3719490876
 21
6.7332304247
  0
LINE
  5
7BD
100
AcDbEntity
  8
CURVE
100
AcDbLine
 62
250
  6
CONTINUOUS
 10
0.0644300499
 20
6.6030417951
 11
0.0797113358
 21
6.5991758284
  0
LINE
  5
7BE
100
AcDbEntity
  8
CURVE
100
AcDbLine
 62
250
  6
CONTINUOUS
 10
-3.3069209727
 20
7.8568335057
 11
-3.3222545623
 21
7.8609971642
  0
LINE
  5
7BF
100
AcDbEntity
  8
CURVE
100
AcDbLine
 62
250
  6
CONTINUOUS
 10
-2.3452231761
 20
6.81667168
 11
-2.3602377534
 21
6.8207682436
  0
LINE
  5
7C0
100
AcDbEntity
  8
CURVE
100
AcDbLine
 62
250
  6
CONTINUOUS
 10
-3.856443798
 20
6.9535372806
 11
-3.8411627461
 21
6.9493019514
  0
LINE
  5
7C1
100
AcDbEntity
  8
CURVE
100
AcDbLine
 62
250
  6
CONTINUOUS
 10
-2.1544668301
 20
7.3147570127
 11
-2.0900987216
 21
7.2969245999
  0
LINE
  5
7C2
100
AcDbEntity
  8
CURVE
100
AcDbLine
 62
250
  6
CONTINUOUS
 10
0.0489953164
 20
6.6082774604
 11
0.0644300499
 21
6.6030417951
  0
LINE
  5
7C3
100
AcDbEntity
  8
CURVE
100
AcDbLine
 62
250
  6
CONTINUOUS
 10
-1.3404167643
 20
6.7238508091
 11
-1.3562617621
 21
6.7292760069
  0
LINE
  5
7C4
100
AcDbEntity
  8
CURVE
100
AcDbLine
 62
250
  6
CONTINUOUS
 10
-2.3301138625
 20
6.8112296854
 11
-2.3452231761
 21
6.81667168
  0
LINE
  5
7C5
100
AcDbEntity
  8
CURVE
100
AcDbLine
 62
250
  6
CONTINUOUS
 10
-3.291438154
 20
7.8511965906
 11
-3.3069209727
 21
7.8568335057
  0
LINE
  5
7C6
100
AcDbEntity
  8
CURVE
100
AcDbLine
 62
250
  6
CONTINUOUS
 10
-3.8718317425
 20
6.9592330311
 11
-3.856443798
 21
6.9535372806
  0
LINE
  5
7C7
100
AcDbEntity
  8
CURVE
100
AcDbLine
 62
250
  6
CONTINUOUS
 10
-2.2200818282
 20
7.341011315
 11
-2.1544668301
 21
7.3147570127
  0
LINE
  5
7C8
100
AcDbEntity
  8
CURVE
100
AcDbLine
 62
250
  6
CONTINUOUS
 10
0.0334987757
 20
6.6148445127
 11
0.0489953164
 21
6.6082774604
  0
LINE
  5
7C9
100
AcDbEntity
  8
CURVE
100
AcDbLine
 62
250
  6
CONTINUOUS
 10
-1.3245312463
 20
6.7170067125
 11
-1.3404167643
 21
6.7238508091
  0
LINE
  5
7CA
100
AcDbEntity
  8
CURVE
100
AcDbLine
 62
250
  6
CONTINUOUS
 10
-0.8874754751
 20
7.6286521537
 11
-0.9028282008
 21
7.6353105768
  0
LINE
  5
7CB
100
AcDbEntity
  8
CURVE
100
AcDbLine
 62
250
  6
CONTINUOUS
 10
-2.315026307
 20
6.8044993094
 11
-2.3301138625
 21
6.8112296854
  0
LINE
  5
7CC
100
AcDbEntity
  8
CURVE
100
AcDbLine
 62
250
  6
CONTINUOUS
 10
-3.2759213402
 20
7.8441405451
 11
-3.291438154
 21
7.8511965906
  0
LINE
  5
7CD
100
AcDbEntity
  8
CURVE
100
AcDbLine
 62
250
  6
CONTINUOUS
 10
-3.6299474987
 20
8.7091266652
 11
-3.6150446712
 21
8.7022128433
  0
LINE
  5
7CE
100
AcDbEntity
  8
CURVE
100
AcDbLine
 62
250
  6
CONTINUOUS
 10
0.0180260854
 20
6.6226991123
 11
0.0334987757
 21
6.6148445127
  0
LINE
  5
7CF
100
AcDbEntity
  8
CURVE
100
AcDbLine
 62
250
  6
CONTINUOUS
 10
-0.8721507575
 20
7.6207116035
 11
-0.8874754751
 21
7.6286521537
  0
LINE
  5
7D0
100
AcDbEntity
  8
CURVE
100
AcDbLine
 62
250
  6
CONTINUOUS
 10
-2.2864539904
 20
7.3754076497
 11
-2.2200818282
 21
7.341011315
  0
LINE
  5
7D1
100
AcDbEntity
  8
CURVE
100
AcDbLine
 62
250
  6
CONTINUOUS
 10
-1.3087132064
 20
6.7088034912
 11
-1.3245312463
 21
6.7170067125
  0
LINE
  5
7D2
100
AcDbEntity
  8
CURVE
100
AcDbLine
 62
250
  6
CONTINUOUS
 10
-3.2604780607
 20
7.8357280536
 11
-3.2759213402
 21
7.8441405451
  0
LINE
  5
7D3
100
AcDbEntity
  8
CURVE
100
AcDbLine
 62
250
  6
CONTINUOUS
 10
-3.6448225918
 20
8.7173267203
 11
-3.6299474987
 21
8.7091266652
  0
LWPOLYLINE
  5
7D4
100
AcDbEntity
  8
CURVE
100
AcDbPolyline
 62
250
  6
CONTINUOUS
 90
3
 70
0
 10
0.0300350764
 20
7.1198694472
 10
-0.6473862823
 20
7.4950643871
 10
-0.8721499798
 20
7.6207426658
  0
LWPOLYLINE
  5
7D5
100
AcDbEntity
  8
CURVE
100
AcDbPolyline
 62
250
  6
CONTINUOUS
 90
3
 70
0
 10
-0.8842877497
 20
7.123459506
 10
-0.6594979013
 20
6.9977965335
 10
0.0180251918
 20
6.6226611391
  0
LINE
  5
7D6
100
AcDbEntity
  8
CURVE
100
AcDbLine
 62
250
  6
CONTINUOUS
 10
-4.5000462482
 20
9.7355207433
 11
-4.5147766748
 21
9.7438040193
  0
LINE
  5
7D7
100
AcDbEntity
  8
CURVE
100
AcDbLine
 62
250
  6
CONTINUOUS
 10
0.0453632789
 20
7.1108340757
 11
0.0300360321
 21
7.1199080171
  0
LWPOLYLINE
  5
7D8
100
AcDbEntity
  8
CURVE
100
AcDbPolyline
 62
250
  6
CONTINUOUS
 90
3
 70
0
 10
-3.6326840946
 20
9.2146404618
 10
-4.2840092854
 20
9.6048235109
 10
-4.5000472038
 20
9.7354821734
  0
LINE
  5
7D9
100
AcDbEntity
  8
CURVE
100
AcDbLine
 62
250
  6
CONTINUOUS
 10
-0.8994325538
 20
7.1325629388
 11
-0.8842884769
 21
7.1234289244
  0
LWPOLYLINE
  5
7DA
100
AcDbEntity
  8
CURVE
100
AcDbPolyline
 62
250
  6
CONTINUOUS
 90
3
 70
0
 10
-4.5120570885
 20
9.2382738653
 10
-4.2960569618
 20
9.1075930832
 10
-3.6448218646
 20
8.7173573019
  0
LINE
  5
7DB
100
AcDbEntity
  8
CURVE
100
AcDbLine
 62
250
  6
CONTINUOUS
 10
-1.2805457662
 20
8.5070223601
 11
-1.2649219383
 21
8.4974448283
  0
LINE
  5
7DC
100
AcDbEntity
  8
CURVE
100
AcDbLine
 62
250
  6
CONTINUOUS
 10
-3.2322119738
 20
9.6342265025
 11
-3.2166867925
 21
9.6243693908
  0
LINE
  5
7DD
100
AcDbEntity
  8
CURVE
100
AcDbLine
 62
250
  6
CONTINUOUS
 10
-2.1835393496
 20
8.9095835807
 11
-2.2492331668
 21
8.9514035786
  0
LINE
  5
7DE
100
AcDbEntity
  8
CURVE
100
AcDbLine
 62
250
  6
CONTINUOUS
 10
-3.6179472595
 20
9.2051950108
 11
-3.6326848723
 21
9.2146093995
  0
LINE
  5
7DF
100
AcDbEntity
  8
CURVE
100
AcDbLine
 62
250
  6
CONTINUOUS
 10
-4.5266082118
 20
9.247787701
 11
-4.5120561949
 21
9.2383118386
  0
LINE
  5
7E0
100
AcDbEntity
  8
CURVE
100
AcDbLine
 62
250
  6
CONTINUOUS
 10
0.0607144087
 20
7.1004484594
 11
0.0453632789
 21
7.1108340757
  0
LINE
  5
7E1
100
AcDbEntity
  8
CURVE
100
AcDbLine
 62
250
  6
CONTINUOUS
 10
-0.9146063253
 20
7.143016618
 11
-0.8994325538
 21
7.1325629388
  0
LINE
  5
7E2
100
AcDbEntity
  8
CURVE
100
AcDbLine
 62
250
  6
CONTINUOUS
 10
-1.2962497141
 20
8.5180600288
 11
-1.2805457662
 21
8.5070223601
  0
LINE
  5
7E3
100
AcDbEntity
  8
CURVE
100
AcDbLine
 62
250
  6
CONTINUOUS
 10
-2.2627247987
 20
9.5521206351
 11
-2.2477716684
 21
9.5415178284
  0
LINE
  5
7E4
100
AcDbEntity
  8
CURVE
100
AcDbLine
 62
250
  6
CONTINUOUS
 10
-3.2476779083
 20
9.645458201
 11
-3.2322119738
 21
9.6342265025
  0
LINE
  5
7E5
100
AcDbEntity
  8
CURVE
100
AcDbLine
 62
250
  6
CONTINUOUS
 10
-3.6031881823
 20
9.1944675508
 11
-3.6179472595
 21
9.2051950108
  0
LINE
  5
7E6
100
AcDbEntity
  8
CURVE
100
AcDbLine
 62
250
  6
CONTINUOUS
 10
-2.1184840899
 20
8.8606441741
 11
-2.1835393496
 21
8.9095835807
  0
LINE
  5
7E7
100
AcDbEntity
  8
CURVE
100
AcDbLine
 62
250
  6
CONTINUOUS
 10
0.0759947394
 20
7.0888024691
 11
0.0607144087
 21
7.1004484594
  0
LINE
  5
7E8
100
AcDbEntity
  8
CURVE
100
AcDbLine
 62
250
  6
CONTINUOUS
 10
-1.31191425
 20
8.5304945785
 11
-1.2962497141
 21
8.5180600288
  0
LINE
  5
7E9
100
AcDbEntity
  8
CURVE
100
AcDbLine
 62
250
  6
CONTINUOUS
 10
-2.2776340328
 20
9.5640168807
 11
-2.2627247987
 21
9.5521206351
  0
LINE
  5
7EA
100
AcDbEntity
  8
CURVE
100
AcDbLine
 62
250
  6
CONTINUOUS
 10
-3.2629907523
 20
9.6580042741
 11
-3.2476779083
 21
9.645458201
  0
LINE
  5
7EB
100
AcDbEntity
  8
CURVE
100
AcDbLine
 62
250
  6
CONTINUOUS
 10
-3.7533928092
 20
11.1899255081
 11
-3.7686424074
 21
11.2025111787
  0
LINE
  5
7EC
100
AcDbEntity
  8
CURVE
100
AcDbLine
 62
250
  6
CONTINUOUS
 10
0.0911010129
 20
7.0759630064
 11
0.0759947394
 21
7.0888024691
  0
LINE
  5
7ED
100
AcDbEntity
  8
CURVE
100
AcDbLine
 62
250
  6
CONTINUOUS
 10
-2.0545559429
 20
8.8048658917
 11
-2.1184840899
 21
8.8606441741
  0
LINE
  5
7EE
100
AcDbEntity
  8
CURVE
100
AcDbLine
 62
250
  6
CONTINUOUS
 10
-0.5329726251
 20
9.3274966806
 11
-0.5485232789
 21
9.3411320801
  0
LINE
  5
7EF
100
AcDbEntity
  8
CURVE
100
AcDbLine
 62
250
  6
CONTINUOUS
 10
-1.3274081343
 20
8.5442400608
 11
-1.31191425
 21
8.5304945785
  0
LINE
  5
7F0
100
AcDbEntity
  8
CURVE
100
AcDbLine
 62
250
  6
CONTINUOUS
 10
-2.2923828859
 20
9.5771288195
 11
-2.2776340328
 21
9.5640168807
  0
LINE
  5
7F1
100
AcDbEntity
  8
CURVE
100
AcDbLine
 62
250
  6
CONTINUOUS
 10
-3.7383762792
 20
11.1760862473
 11
-3.7533928092
 21
11.1899255081
  0
LINE
  5
7F2
100
AcDbEntity
  8
CURVE
100
AcDbLine
 62
250
  6
CONTINUOUS
 10
0.1059238233
 20
7.0620129804
 11
0.0911010129
 21
7.0759630064
  0
LINE
  5
7F3
100
AcDbEntity
  8
CURVE
100
AcDbLine
 62
250
  6
CONTINUOUS
 10
-0.517704181
 20
9.3126327117
 11
-0.5329726251
 21
9.3274966806
  0
LINE
  5
7F4
100
AcDbEntity
  8
CURVE
100
AcDbLine
 62
250
  6
CONTINUOUS
 10
-2.3064916759
 20
9.5909907763
 11
-2.2923828859
 21
9.5771288195
  0
LINE
  5
7F5
100
AcDbEntity
  8
CURVE
100
AcDbLine
 62
250
  6
CONTINUOUS
 10
-2.1128278152
 20
11.0120424538
 11
-2.127241694
 21
11.0262248044
  0
LINE
  5
7F6
100
AcDbEntity
  8
CURVE
100
AcDbLine
 62
250
  6
CONTINUOUS
 10
-1.342592438
 20
8.5591877927
 11
-1.3274081343
 21
8.5442400608
  0
LINE
  5
7F7
100
AcDbEntity
  8
CURVE
100
AcDbLine
 62
250
  6
CONTINUOUS
 10
-3.7298668499
 20
11.1675727977
 11
-3.7383762792
 21
11.1760862473
  0
LINE
  5
7F8
100
AcDbEntity
  8
CURVE
100
AcDbLine
 62
250
  6
CONTINUOUS
 10
-0.5098623532
 20
9.3043930956
 11
-0.517704181
 21
9.3126327117
  0
LINE
  5
7F9
100
AcDbEntity
  8
CURVE
100
AcDbLine
 62
250
  6
CONTINUOUS
 10
-2.0993918857
 20
10.9975049245
 11
-2.1128278152
 21
11.0120424538
  0
LINE
  5
7FA
100
AcDbEntity
  8
CURVE
100
AcDbLine
 62
250
  6
CONTINUOUS
 10
-0.4953361902
 20
9.2879507003
 11
-0.5098623532
 21
9.3043930956
  0
LINE
  5
7FB
100
AcDbEntity
  8
CURVE
100
AcDbLine
 62
250
  6
CONTINUOUS
 10
-2.0859002139
 20
10.9814963725
 11
-2.0993918857
 21
10.9975049245
  0
LINE
  5
7FC
100
AcDbEntity
  8
CURVE
100
AcDbLine
 62
250
  6
CONTINUOUS
 10
-0.4814818534
 20
9.2706860675
 11
-0.4953361902
 21
9.2879507003
  0
LINE
  5
7FD
100
AcDbEntity
  8
CURVE
100
AcDbLine
 62
250
  6
CONTINUOUS
 10
-0.4684118468
 20
9.2527552936
 11
-0.4814818534
 21
9.2706860675
  0
LINE
  5
7FE
100
AcDbEntity
  8
CURVE
100
AcDbLine
 62
250
  6
CONTINUOUS
 10
-0.6714952219
 20
-12.5451212201
 11
-0.6649454829
 21
-12.5363380913
  0
LINE
  5
7FF
100
AcDbEntity
  8
CURVE
100
AcDbLine
 62
250
  6
CONTINUOUS
 10
-2.0408847486
 20
-12.6649566639
 11
-2.0342798999
 21
-12.6573863879
  0
LINE
  5
800
100
AcDbEntity
  8
CURVE
100
AcDbLine
 62
250
  6
CONTINUOUS
 10
-1.4103989493
 20
-11.6192995705
 11
-1.4176891354
 21
-11.627244753
  0
LINE
  5
801
100
AcDbEntity
  8
CURVE
100
AcDbLine
 62
250
  6
CONTINUOUS
 10
-0.6787024015
 20
-12.552966665
 11
-0.6714952219
 21
-12.5451212201
  0
LINE
  5
802
100
AcDbEntity
  8
CURVE
100
AcDbLine
 62
250
  6
CONTINUOUS
 10
-0.7254177055
 20
-10.7411103456
 11
-0.7205714302
 21
-10.7360105281
  0
LINE
  5
803
100
AcDbEntity
  8
CURVE
100
AcDbLine
 62
250
  6
CONTINUOUS
 10
-2.4029649204
 20
-11.6969447509
 11
-2.410136133
 21
-11.7037463006
  0
LINE
  5
804
100
AcDbEntity
  8
CURVE
100
AcDbLine
 62
250
  6
CONTINUOUS
 10
-2.0482408423
 20
-12.6718152477
 11
-2.0408847486
 21
-12.6649566639
  0
LINE
  5
805
100
AcDbEntity
  8
CURVE
100
AcDbLine
 62
250
  6
CONTINUOUS
 10
-1.4026832358
 20
-11.6123885419
 11
-1.4103989493
 21
-11.6192995705
  0
LINE
  5
806
100
AcDbEntity
  8
CURVE
100
AcDbLine
 62
250
  6
CONTINUOUS
 10
-1.9013852721
 20
-11.1504448562
 11
-1.8937820767
 21
-11.1436844079
  0
LINE
  5
807
100
AcDbEntity
  8
CURVE
100
AcDbLine
 62
250
  6
CONTINUOUS
 10
-0.7333876617
 20
-10.7481740726
 11
-0.7254177055
 21
-10.7411103456
  0
LINE
  5
808
100
AcDbEntity
  8
CURVE
100
AcDbLine
 62
250
  6
CONTINUOUS
 10
-1.4325402261
 20
-10.2803335312
 11
-1.440579962
 21
-10.2869583609
  0
LINE
  5
809
100
AcDbEntity
  8
CURVE
100
AcDbLine
 62
250
  6
CONTINUOUS
 10
-2.3978191674
 20
-11.6928999648
 11
-2.4029649204
 21
-11.6969447509
  0
LINE
  5
80A
100
AcDbEntity
  8
CURVE
100
AcDbLine
 62
250
  6
CONTINUOUS
 10
-1.9156998292
 20
-11.161659348
 11
-1.9013852721
 21
-11.1504448562
  0
LWPOLYLINE
  5
80B
100
AcDbEntity
  8
ASSI
100
AcDbPolyline
 62
250
  6
CONTINUOUS
 90
13
 70
0
 10
5.6342503482
 20
-5.371417961
 10
5.6008342409
 20
-5.3975041636
 10
5.5680263183
 20
-5.4286584869
 10
5.536382567
 20
-5.4643529674
 10
5.5064392445
 20
-5.5039827005
 10
5.4787037918
 20
-5.5468760924
 10
5.4536462334
 20
-5.5923062407
 10
5.4316912125
 20
-5.6395032534
 10
5.4132107943
 20
-5.6876672957
 10
5.3985181607
 20
-5.735982145
 10
5.3878623032
 20
-5.7836290229
 10
5.3814238032
 20
-5.829800471
 10
5.3793117716
 20
-5.8737140344
  0
LINE
  5
80C
100
AcDbEntity
  8
CURVE
100
AcDbLine
 62
250
  6
CONTINUOUS
 10
-3.1008865308
 20
-10.9493731392
 11
-3.0926361501
 21
-10.9433972155
  0
LINE
  5
80D
100
AcDbEntity
  8
CURVE
100
AcDbLine
 62
250
  6
CONTINUOUS
 10
-0.7418763453
 20
-10.7542089826
 11
-0.7333876617
 21
-10.7481740726
  0
LINE
  5
80E
100
AcDbEntity
  8
CURVE
100
AcDbLine
 62
250
  6
CONTINUOUS
 10
-1.4274567208
 20
-10.2768439465
 11
-1.4325402261
 21
-10.2803335312
  0
LINE
  5
80F
100
AcDbEntity
  8
CURVE
100
AcDbLine
 62
250
  6
CONTINUOUS
 10
-2.6089049056
 20
-10.0609311132
 11
-2.6231895193
 21
-10.0706883406
  0
LINE
  5
810
100
AcDbEntity
  8
CURVE
100
AcDbLine
 62
250
  6
CONTINUOUS
 10
-2.3891370046
 20
-11.6871373017
 11
-2.3978191674
 21
-11.6928999648
  0
LINE
  5
811
100
AcDbEntity
  8
CURVE
100
AcDbLine
 62
250
  6
CONTINUOUS
 10
-1.930517417
 20
-11.1714173174
 11
-1.9156998292
 21
-11.161659348
  0
LINE
  5
812
100
AcDbEntity
  8
CURVE
100
AcDbLine
 62
250
  6
CONTINUOUS
 10
-2.5939043947
 20
-10.0524580812
 11
-2.6089049056
 21
-10.0609311132
  0
LINE
  5
813
100
AcDbEntity
  8
CURVE
100
AcDbLine
 62
250
  6
CONTINUOUS
 10
-3.1096645338
 20
-10.9543303643
 11
-3.1008865308
 21
-10.9493731392
  0
LINE
  5
814
100
AcDbEntity
  8
CURVE
100
AcDbLine
 62
250
  6
CONTINUOUS
 10
-1.4184417587
 20
-10.2717607701
 11
-1.4274567208
 21
-10.2768439465
  0
LWPOLYLINE
  5
815
100
AcDbEntity
  8
ASSI
100
AcDbPolyline
 62
250
  6
CONTINUOUS
 90
8
 70
0
 10
5.9594951221
 20
-5.1120821574
 10
5.9628338786
 20
-5.1102193273
 10
5.9868244269
 20
-5.0924131378
 10
6.0071046855
 20
-5.0689182991
 10
6.0233275982
 20
-5.0401366468
 10
6.0352155665
 20
-5.0065604591
 10
6.0425651638
 20
-4.9687639877
 10
6.0452505766
 20
-4.9273937222
  0
LINE
  5
816
100
AcDbEntity
  8
ASSI
100
AcDbLine
 62
250
  6
CONTINUOUS
 10
5.7674404669
 20
-5.3684160356
 11
8.9985867596
 21
-3.5662774389
  0
LINE
  5
817
100
AcDbEntity
  8
ASSI
100
AcDbLine
 62
250
  6
CONTINUOUS
 10
6.0452505315
 20
-5.8610954115
 11
9.2814617954
 21
-4.0561318793
  0
LINE
  5
818
100
AcDbEntity
  8
CURVE
100
AcDbLine
 62
250
  6
CONTINUOUS
 10
-3.7607733242
 20
-10.4573653943
 11
-3.769408418
 21
-10.4621584926
  0
LINE
  5
819
100
AcDbEntity
  8
CURVE
100
AcDbLine
 62
250
  6
CONTINUOUS
 10
-3.144616261
 20
-9.625557996
 11
-3.1354365829
 21
-9.6205179422
  0
LINE
  5
81A
100
AcDbEntity
  8
ASSI
100
AcDbLine
 62
250
  6
CONTINUOUS
 10
9.2814617954
 20
-3.1859859254
 11
6.0452505785
 21
-4.9273937212
  0
LINE
  5
81B
100
AcDbEntity
  8
ASSI
100
AcDbLine
 62
7
  6
CONTINUOUS
 10
9.1951639231
 20
-3.3709662474
 11
5.9594502471
 21
-5.1121063161
  0
LINE
  5
81C
100
AcDbEntity
  8
CURVE
100
AcDbLine
 62
250
  6
CONTINUOUS
 10
-2.1538558709
 20
-9.5470535992
 11
-2.1448118363
 21
-9.5422575766
  0
LWPOLYLINE
  5
81D
100
AcDbEntity
  8
ASSI
100
AcDbPolyline
 62
250
  6
CONTINUOUS
 90
16
 70
0
 10
6.045250581
 20
-4.9273937199
 10
6.0084040721
 20
-4.9455943194
 10
5.9686591983
 20
-4.9616422966
 10
5.9263928372
 20
-4.9753865321
 10
5.8820086439
 20
-4.9866965705
 10
5.8359236555
 20
-4.9954678861
 10
5.7885632265
 20
-5.001620995
 10
5.7403688001
 20
-5.0050972653
 10
5.6918006519
 20
-5.0058620217
 10
5.6433233112
 20
-5.0039087428
 10
5.5954011175
 20
-4.9992569806
 10
5.548479451
 20
-4.991950682
 10
5.5029876016
 20
-4.9820565963
 10
5.459352021
 20
-4.9696650931
 10
5.4179910169
 20
-4.9548919478
 10
5.379297269
 20
-4.9378750776
  0
LINE
  5
81E
100
AcDbEntity
  8
CURVE
100
AcDbLine
 62
250
  6
CONTINUOUS
 10
-2.5782376773
 20
-10.0452889977
 11
-2.5939043947
 21
-10.0524580812
  0
LINE
  5
81F
100
AcDbEntity
  8
CURVE
100
AcDbLine
 62
250
  6
CONTINUOUS
 10
-3.1484270408
 20
-9.6272862083
 11
-3.144616261
 21
-9.625557996
  0
LINE
  5
820
100
AcDbEntity
  8
CURVE
100
AcDbLine
 62
250
  6
CONTINUOUS
 10
-3.7517448391
 20
-10.4536358393
 11
-3.7607733242
 21
-10.4573653943
  0
LINE
  5
821
100
AcDbEntity
  8
CURVE
100
AcDbLine
 62
250
  6
CONTINUOUS
 10
-2.4470823311
 20
-8.5352633351
 11
-2.4566073391
 21
-8.5391511933
  0
LINE
  5
822
100
AcDbEntity
  8
CURVE
100
AcDbLine
 62
250
  6
CONTINUOUS
 10
-2.1633021704
 20
-9.5508685323
 11
-2.1538558709
 21
-9.5470535992
  0
LINE
  5
823
100
AcDbEntity
  8
CURVE
100
AcDbLine
 62
250
  6
CONTINUOUS
 10
-3.1583727957
 20
-9.6309198085
 11
-3.1484270408
 21
-9.6272862083
  0
LINE
  5
824
100
AcDbEntity
  8
CURVE
100
AcDbLine
 62
250
  6
CONTINUOUS
 10
-3.7863995963
 20
-8.6375652477
 11
-3.7963966838
 21
-8.6405667691
  0
LINE
  5
825
100
AcDbEntity
  8
CURVE
100
AcDbLine
 62
250
  6
CONTINUOUS
 10
-2.4371284143
 20
-8.5323417233
 11
-2.4470823311
 21
-8.5352633351
  0
LINE
  5
826
100
AcDbEntity
  8
CURVE
100
AcDbLine
 62
250
  6
CONTINUOUS
 10
-2.4160384552
 20
6.8231578487
 11
-2.4286791989
 21
6.8202759266
  0
LINE
  5
827
100
AcDbEntity
  8
CURVE
100
AcDbLine
 62
250
  6
CONTINUOUS
 10
-0.9894587514
 20
7.6465814871
 11
-1.0025522638
 21
7.6435968612
  0
LINE
  5
828
100
AcDbEntity
  8
CURVE
100
AcDbLine
 62
250
  6
CONTINUOUS
 10
-1.1491148188
 20
8.4713351984
 11
-1.1356782392
 21
8.4743485132
  0
LINE
  5
829
100
AcDbEntity
  8
CURVE
100
AcDbLine
 62
250
  6
CONTINUOUS
 10
-3.3735644204
 20
7.8634086181
 11
-3.386642059
 21
7.8606025504
  0
LINE
  5
82A
100
AcDbEntity
  8
CURVE
100
AcDbLine
 62
250
  6
CONTINUOUS
 10
-3.7900695988
 20
6.9466139118
 11
-3.7770622402
 21
6.949331377
  0
LINE
  5
82B
100
AcDbEntity
  8
CURVE
100
AcDbLine
 62
250
  6
CONTINUOUS
 10
-1.967095634
 20
7.2863597251
 11
-1.9089682263
 21
7.2933342523
  0
LINE
  5
82C
100
AcDbEntity
  8
CURVE
100
AcDbLine
 62
250
  6
CONTINUOUS
 10
-0.9757610723
 20
7.6481539701
 11
-0.9894587514
 21
7.6465814871
  0
LINE
  5
82D
100
AcDbEntity
  8
CURVE
100
AcDbLine
 62
250
  6
CONTINUOUS
 10
-2.4026910794
 20
6.8246502641
 11
-2.4160384552
 21
6.8231578487
  0
LINE
  5
82E
100
AcDbEntity
  8
CURVE
100
AcDbLine
 62
250
  6
CONTINUOUS
 10
-3.3597976738
 20
7.8646963518
 11
-3.3735644204
 21
7.8634086181
  0
LINE
  5
82F
100
AcDbEntity
  8
CURVE
100
AcDbLine
 62
250
  6
CONTINUOUS
 10
-3.8037912718
 20
6.9454102627
 11
-3.7900695988
 21
6.9466139118
  0
LINE
  5
830
100
AcDbEntity
  8
CURVE
100
AcDbLine
 62
250
  6
CONTINUOUS
 10
-0.9615406153
 20
7.6482995963
 11
-0.9757610723
 21
7.6481539701
  0
LINE
  5
831
100
AcDbEntity
  8
CURVE
100
AcDbLine
 62
250
  6
CONTINUOUS
 10
-1.1779797745
 20
8.4698741818
 11
-1.163247846
 21
8.4698359805
  0
LINE
  5
832
100
AcDbEntity
  8
CURVE
100
AcDbLine
 62
250
  6
CONTINUOUS
 10
-2.0274778198
 20
7.287365895
 11
-1.967095634
 21
7.2863597251
  0
LINE
  5
833
100
AcDbEntity
  8
CURVE
100
AcDbLine
 62
250
  6
CONTINUOUS
 10
-3.3454363537
 20
7.8644441678
 11
-3.3597976738
 21
7.8646963518
  0
LINE
  5
834
100
AcDbEntity
  8
CURVE
100
AcDbLine
 62
250
  6
CONTINUOUS
 10
-0.948222715
 20
7.6471883973
 11
-0.9615406153
 21
7.6482995963
  0
LINE
  5
835
100
AcDbEntity
  8
CURVE
100
AcDbLine
 62
250
  6
CONTINUOUS
 10
-3.5709766801
 20
8.6896037442
 11
-3.5578719166
 21
8.6882741404
  0
LINE
  5
836
100
AcDbEntity
  8
CURVE
100
AcDbLine
 62
250
  6
CONTINUOUS
 10
-1.19320157
 20
8.4714594997
 11
-1.1779797745
 21
8.4698741818
  0
LINE
  5
837
100
AcDbEntity
  8
CURVE
100
AcDbLine
 62
250
  6
CONTINUOUS
 10
-3.3305863342
 20
7.8626441934
 11
-3.3454363537
 21
7.8644441678
  0
LINE
  5
838
100
AcDbEntity
  8
CURVE
100
AcDbLine
 62
250
  6
CONTINUOUS
 10
-2.0900987216
 20
7.2969245999
 11
-2.0274778198
 21
7.287365895
  0
LINE
  5
839
100
AcDbEntity
  8
CURVE
100
AcDbLine
 62
250
  6
CONTINUOUS
 10
-0.9332904655
 20
7.6446137163
 11
-0.948222715
 21
7.6471883973
  0
LINE
  5
83A
100
AcDbEntity
  8
CURVE
100
AcDbLine
 62
250
  6
CONTINUOUS
 10
-1.2017370653
 20
8.4729888881
 11
-1.19320157
 21
8.4714594997
  0
LINE
  5
83B
100
AcDbEntity
  8
CURVE
100
AcDbLine
 62
250
  6
CONTINUOUS
 10
-3.5854734123
 20
8.6924153591
 11
-3.5709766801
 21
8.6896037442
  0
LINE
  5
83C
100
AcDbEntity
  8
CURVE
100
AcDbLine
 62
250
  6
CONTINUOUS
 10
-3.3222545623
 20
7.8609971642
 11
-3.3305863342
 21
7.8626441934
  0
LINE
  5
83D
100
AcDbEntity
  8
CURVE
100
AcDbLine
 62
250
  6
CONTINUOUS
 10
-1.2174368449
 20
8.4769411139
 11
-1.2017370653
 21
8.4729888881
  0
LINE
  5
83E
100
AcDbEntity
  8
CURVE
100
AcDbLine
 62
250
  6
CONTINUOUS
 10
-0.9181286641
 20
7.6406438936
 11
-0.9332904655
 21
7.6446137163
  0
LINE
  5
83F
100
AcDbEntity
  8
CURVE
100
AcDbLine
 62
250
  6
CONTINUOUS
 10
-3.1702499348
 20
9.6034588239
 11
-3.1548435307
 21
9.5993476317
  0
LINE
  5
840
100
AcDbEntity
  8
CURVE
100
AcDbLine
 62
250
  6
CONTINUOUS
 10
-2.3806094916
 20
9.011703645
 11
-2.4453079841
 21
9.0300485576
  0
LINE
  5
841
100
AcDbEntity
  8
CURVE
100
AcDbLine
 62
250
  6
CONTINUOUS
 10
-3.6001920594
 20
8.6966292752
 11
-3.5854734123
 21
8.6924153591
  0
LINE
  5
842
100
AcDbEntity
  8
CURVE
100
AcDbLine
 62
250
  6
CONTINUOUS
 10
-4.544229624
 20
9.7564729879
 11
-4.5587832485
 21
9.7607708344
  0
LINE
  5
843
100
AcDbEntity
  8
CURVE
100
AcDbLine
 62
250
  6
CONTINUOUS
 10
-1.2332781774
 20
8.482371029
 11
-1.2174368449
 21
8.4769411139
  0
LINE
  5
844
100
AcDbEntity
  8
CURVE
100
AcDbLine
 62
250
  6
CONTINUOUS
 10
-0.9028282008
 20
7.6353105768
 11
-0.9181286641
 21
7.6406438936
  0
LINE
  5
845
100
AcDbEntity
  8
CURVE
100
AcDbLine
 62
250
  6
CONTINUOUS
 10
-2.2027269605
 20
9.5176326422
 11
-2.1875469026
 21
9.512230605
  0
LINE
  5
846
100
AcDbEntity
  8
CURVE
100
AcDbLine
 62
250
  6
CONTINUOUS
 10
-3.1857631198
 20
9.6090361137
 11
-3.1702499348
 21
9.6034588239
  0
LINE
  5
847
100
AcDbEntity
  8
CURVE
100
AcDbLine
 62
250
  6
CONTINUOUS
 10
-3.6150446712
 20
8.7022128433
 11
-3.6001920594
 21
8.6966292752
  0
LINE
  5
848
100
AcDbEntity
  8
CURVE
100
AcDbLine
 62
250
  6
CONTINUOUS
 10
-4.5295316391
 20
9.7508036135
 11
-4.544229624
 21
9.7564729879
  0
LINE
  5
849
100
AcDbEntity
  8
CURVE
100
AcDbLine
 62
250
  6
CONTINUOUS
 10
-2.3150854707
 20
8.9855374547
 11
-2.3806094916
 21
9.011703645
  0
LINE
  5
84A
100
AcDbEntity
  8
CURVE
100
AcDbLine
 62
250
  6
CONTINUOUS
 10
-0.6113656345
 20
9.3819170364
 11
-0.6273319651
 21
9.3887572675
  0
LINE
  5
84B
100
AcDbEntity
  8
CURVE
100
AcDbLine
 62
250
  6
CONTINUOUS
 10
-1.2491431589
 20
8.4892260484
 11
-1.2332781774
 21
8.482371029
  0
LINE
  5
84C
100
AcDbEntity
  8
CURVE
100
AcDbLine
 62
250
  6
CONTINUOUS
 10
-2.2178751136
 20
9.5243334963
 11
-2.2027269605
 21
9.5176326422
  0
LINE
  5
84D
100
AcDbEntity
  8
CURVE
100
AcDbLine
 62
250
  6
CONTINUOUS
 10
-3.2012747268
 20
9.6160261157
 11
-3.1857631198
 21
9.6090361137
  0
LINE
  5
84E
100
AcDbEntity
  8
CURVE
100
AcDbLine
 62
250
  6
CONTINUOUS
 10
-4.5147766748
 20
9.7438040193
 11
-4.5295316391
 21
9.7508036135
  0
LINE
  5
84F
100
AcDbEntity
  8
CURVE
100
AcDbLine
 62
250
  6
CONTINUOUS
 10
-0.5955202225
 20
9.3737317126
 11
-0.6113656345
 21
9.3819170364
  0
LINE
  5
850
100
AcDbEntity
  8
CURVE
100
AcDbLine
 62
250
  6
CONTINUOUS
 10
-2.2492331668
 20
8.9514035786
 11
-2.3150854707
 21
8.9855374547
  0
LINE
  5
851
100
AcDbEntity
  8
CURVE
100
AcDbLine
 62
250
  6
CONTINUOUS
 10
-1.2649219383
 20
8.4974448283
 11
-1.2491431589
 21
8.4892260484
  0
LINE
  5
852
100
AcDbEntity
  8
CURVE
100
AcDbLine
 62
250
  6
CONTINUOUS
 10
-2.2328834895
 20
9.5322679899
 11
-2.2178751136
 21
9.5243334963
  0
LINE
  5
853
100
AcDbEntity
  8
CURVE
100
AcDbLine
 62
250
  6
CONTINUOUS
 10
-3.2166867925
 20
9.6243693908
 11
-3.2012747268
 21
9.6160261157
  0
LINE
  5
854
100
AcDbEntity
  8
CURVE
100
AcDbLine
 62
250
  6
CONTINUOUS
 10
-3.7994157994
 20
11.2236208595
 11
-3.8146481705
 21
11.232013558
  0
LINE
  5
855
100
AcDbEntity
  8
CURVE
100
AcDbLine
 62
250
  6
CONTINUOUS
 10
-0.5799222902
 20
9.3643205265
 11
-0.5955202225
 21
9.3737317126
  0
LINE
  5
856
100
AcDbEntity
  8
CURVE
100
AcDbLine
 62
250
  6
CONTINUOUS
 10
-2.2477716684
 20
9.5415178284
 11
-2.2328834895
 21
9.5322679899
  0
LINE
  5
857
100
AcDbEntity
  8
CURVE
100
AcDbLine
 62
250
  6
CONTINUOUS
 10
-2.1718050773
 20
11.0617805612
 11
-2.186761919
 21
11.0710699957
  0
LINE
  5
858
100
AcDbEntity
  8
CURVE
100
AcDbLine
 62
250
  6
CONTINUOUS
 10
-3.7840172069
 20
11.2137640572
 11
-3.7994157994
 21
11.2236208595
  0
LINE
  5
859
100
AcDbEntity
  8
CURVE
100
AcDbLine
 62
250
  6
CONTINUOUS
 10
-0.5642169078
 20
9.3534340951
 11
-0.5799222902
 21
9.3643205265
  0
LINE
  5
85A
100
AcDbEntity
  8
CURVE
100
AcDbLine
 62
250
  6
CONTINUOUS
 10
-2.1568346586
 20
11.0511709908
 11
-2.1718050773
 21
11.0617805612
  0
LINE
  5
85B
100
AcDbEntity
  8
CURVE
100
AcDbLine
 62
250
  6
CONTINUOUS
 10
-3.7686424074
 20
11.2025111787
 11
-3.7840172069
 21
11.2137640572
  0
LINE
  5
85C
100
AcDbEntity
  8
CURVE
100
AcDbLine
 62
250
  6
CONTINUOUS
 10
-0.5485232789
 20
9.3411320801
 11
-0.5642169078
 21
9.3534340951
  0
LINE
  5
85D
100
AcDbEntity
  8
CURVE
100
AcDbLine
 62
250
  6
CONTINUOUS
 10
-2.1419461111
 20
11.0392958428
 11
-2.1568346586
 21
11.0511709908
  0
LINE
  5
85E
100
AcDbEntity
  8
CURVE
100
AcDbLine
 62
250
  6
CONTINUOUS
 10
-2.127241694
 20
11.0262248044
 11
-2.1419461111
 21
11.0392958428
  0
LINE
  5
85F
100
AcDbEntity
  8
ASSI
100
AcDbLine
 62
7
  6
CONTINUOUS
 10
8.737939337
 20
13.7671822369
 11
9.2814617954
 21
7.0747017237
  0
LINE
  5
860
100
AcDbEntity
  8
ASSI
100
AcDbLine
 62
7
  6
CONTINUOUS
 10
9.2814617954
 20
7.0747017237
 11
9.2814617954
 21
-3.1859859254
  0
LINE
  5
861
100
AcDbEntity
  8
ASSI
100
AcDbLine
 62
7
  6
CONTINUOUS
 10
9.2814617954
 20
-4.0561318793
 11
9.2814617954
 21
-14.3168195283
  0
LINE
  5
862
100
AcDbEntity
  8
CURVE
100
AcDbLine
 62
250
  6
CONTINUOUS
 10
-0.6867689156
 20
-12.5599966045
 11
-0.6787024015
 21
-12.552966665
  0
LINE
  5
863
100
AcDbEntity
  8
CURVE
100
AcDbLine
 62
250
  6
CONTINUOUS
 10
-2.0536269626
 20
-12.6761491359
 11
-2.0482408423
 21
-12.6718152477
  0
LINE
  5
864
100
AcDbEntity
  8
CURVE
100
AcDbLine
 62
250
  6
CONTINUOUS
 10
-1.3942674655
 20
-11.6063758081
 11
-1.4026832358
 21
-11.6123885419
  0
LINE
  5
865
100
AcDbEntity
  8
CURVE
100
AcDbLine
 62
250
  6
CONTINUOUS
 10
-0.6955140372
 20
-12.5661085497
 11
-0.6867689156
 21
-12.5599966045
  0
LINE
  5
866
100
AcDbEntity
  8
CURVE
100
AcDbLine
 62
250
  6
CONTINUOUS
 10
-2.0621224365
 20
-12.6818605727
 11
-2.0536269626
 21
-12.6761491359
  0
LINE
  5
867
100
AcDbEntity
  8
CURVE
100
AcDbLine
 62
250
  6
CONTINUOUS
 10
-1.3851878396
 20
-11.6012987863
 11
-1.3942674655
 21
-11.6063758081
  0
LINE
  5
868
100
AcDbEntity
  8
CURVE
100
AcDbLine
 62
250
  6
CONTINUOUS
 10
-0.7508113876
 20
-10.7591887997
 11
-0.7418763453
 21
-10.7542089826
  0
LINE
  5
869
100
AcDbEntity
  8
CURVE
100
AcDbLine
 62
250
  6
CONTINUOUS
 10
-1.9460064543
 20
-11.1798680612
 11
-1.930517417
 21
-11.1714173174
  0
LINE
  5
86A
100
AcDbEntity
  8
CURVE
100
AcDbLine
 62
250
  6
CONTINUOUS
 10
-2.3801132563
 20
-11.682397598
 11
-2.3891370046
 21
-11.6871373017
  0
LINE
  5
86B
100
AcDbEntity
  8
CURVE
100
AcDbLine
 62
250
  6
CONTINUOUS
 10
-1.9621178926
 20
-11.1869966082
 11
-1.9460064543
 21
-11.1798680612
  0
LINE
  5
86C
100
AcDbEntity
  8
CURVE
100
AcDbLine
 62
250
  6
CONTINUOUS
 10
-1.4089460799
 20
-10.2677111932
 11
-1.4184417587
 21
-10.2717607701
  0
LINE
  5
86D
100
AcDbEntity
  8
CURVE
100
AcDbLine
 62
250
  6
CONTINUOUS
 10
-3.1188736357
 20
-10.958234227
 11
-3.1096645338
 21
-10.9543303643
  0
LINE
  5
86E
100
AcDbEntity
  8
CURVE
100
AcDbLine
 62
250
  6
CONTINUOUS
 10
-0.7601256255
 20
-10.7631027337
 11
-0.7508113876
 21
-10.7591887997
  0
LINE
  5
86F
100
AcDbEntity
  8
CURVE
100
AcDbLine
 62
250
  6
CONTINUOUS
 10
-2.3707487637
 20
-11.6786579436
 11
-2.3801132563
 21
-11.682397598
  0
LINE
  5
870
100
AcDbEntity
  8
CURVE
100
AcDbLine
 62
250
  6
CONTINUOUS
 10
-2.5619549467
 20
-10.0394377878
 11
-2.5782376773
 21
-10.0452889977
  0
LINE
  5
871
100
AcDbEntity
  8
CURVE
100
AcDbLine
 62
250
  6
CONTINUOUS
 10
-1.9788031254
 20
-11.1927934819
 11
-1.9621178926
 21
-11.1869966082
  0
LINE
  5
872
100
AcDbEntity
  8
CURVE
100
AcDbLine
 62
250
  6
CONTINUOUS
 10
-1.3990635405
 20
-10.2647157302
 11
-1.4089460799
 21
-10.2677111932
  0
LINE
  5
873
100
AcDbEntity
  8
CURVE
100
AcDbLine
 62
250
  6
CONTINUOUS
 10
-3.128418033
 20
-10.9610692949
 11
-3.1188736357
 21
-10.958234227
  0
LINE
  5
874
100
AcDbEntity
  8
CURVE
100
AcDbLine
 62
250
  6
CONTINUOUS
 10
-0.7697588363
 20
-10.7659522251
 11
-0.7601256255
 21
-10.7631027337
  0
LINE
  5
875
100
AcDbEntity
  8
CURVE
100
AcDbLine
 62
250
  6
CONTINUOUS
 10
-2.1730998161
 20
-9.5536982344
 11
-2.1633021704
 21
-9.5508685323
  0
LINE
  5
876
100
AcDbEntity
  8
CURVE
100
AcDbLine
 62
250
  6
CONTINUOUS
 10
-3.7423629408
 20
-10.450964246
 11
-3.7517448391
 21
-10.4536358393
  0
LINE
  5
877
100
AcDbEntity
  8
CURVE
100
AcDbLine
 62
250
  6
CONTINUOUS
 10
-2.6251998723
 20
9.0342133661
 11
-2.6792837734
 21
9.0188843584
  0
LINE
  5
878
100
AcDbEntity
  8
CURVE
100
AcDbLine
 62
250
  6
CONTINUOUS
 10
-2.1164868647
 20
9.5060425406
 11
-2.103733836
 21
9.5089884761
  0
LINE
  5
879
100
AcDbEntity
  8
CURVE
100
AcDbLine
 62
250
  6
CONTINUOUS
 10
-0.7126660652
 20
9.3997624297
 11
-0.7261590759
 21
9.3967240556
  0
LINE
  5
87A
100
AcDbEntity
  8
CURVE
100
AcDbLine
 62
250
  6
CONTINUOUS
 10
-3.5307756663
 20
8.6895976496
 11
-3.5180638813
 21
8.6924014667
  0
LINE
  5
87B
100
AcDbEntity
  8
CURVE
100
AcDbLine
 62
250
  6
CONTINUOUS
 10
-3.1033816457
 20
9.5970253089
 11
-3.0900028479
 21
9.5998367841
  0
LINE
  5
87C
100
AcDbEntity
  8
CURVE
100
AcDbLine
 62
250
  6
CONTINUOUS
 10
-2.5678465111
 20
9.0413035869
 11
-2.6251998723
 21
9.0342133661
  0
LINE
  5
87D
100
AcDbEntity
  8
CURVE
100
AcDbLine
 62
250
  6
CONTINUOUS
 10
-2.1299411608
 20
9.504490537
 11
-2.1164868647
 21
9.5060425406
  0
LINE
  5
87E
100
AcDbEntity
  8
CURVE
100
AcDbLine
 62
250
  6
CONTINUOUS
 10
-0.6984476287
 20
9.4012949675
 11
-0.7126660652
 21
9.3997624297
  0
LINE
  5
87F
100
AcDbEntity
  8
CURVE
100
AcDbLine
 62
250
  6
CONTINUOUS
 10
-1.163247846
 20
8.4698359805
 11
-1.1491148188
 21
8.4713351984
  0
LINE
  5
880
100
AcDbEntity
  8
CURVE
100
AcDbLine
 62
250
  6
CONTINUOUS
 10
-3.5440711127
 20
8.6882173829
 11
-3.5307756663
 21
8.6895976496
  0
LINE
  5
881
100
AcDbEntity
  8
CURVE
100
AcDbLine
 62
250
  6
CONTINUOUS
 10
-4.5998496465
 20
9.7651857038
 11
-4.612891029
 21
9.7638550778
  0
LINE
  5
882
100
AcDbEntity
  8
CURVE
100
AcDbLine
 62
250
  6
CONTINUOUS
 10
-3.1174299382
 20
9.5957429778
 11
-3.1033816457
 21
9.5970253089
  0
LINE
  5
883
100
AcDbEntity
  8
CURVE
100
AcDbLine
 62
250
  6
CONTINUOUS
 10
-2.1439996097
 20
9.5043617806
 11
-2.1299411608
 21
9.504490537
  0
LINE
  5
884
100
AcDbEntity
  8
CURVE
100
AcDbLine
 62
250
  6
CONTINUOUS
 10
-3.1248209298
 20
9.595685388
 11
-3.1174299382
 21
9.5957429778
  0
LINE
  5
885
100
AcDbEntity
  8
CURVE
100
AcDbLine
 62
250
  6
CONTINUOUS
 10
-0.6836060135
 20
9.4012948646
 11
-0.6984476287
 21
9.4012949675
  0
LINE
  5
886
100
AcDbEntity
  8
CURVE
100
AcDbLine
 62
250
  6
CONTINUOUS
 10
-3.5578719166
 20
8.6882741404
 11
-3.5440711127
 21
8.6882173829
  0
LINE
  5
887
100
AcDbEntity
  8
CURVE
100
AcDbLine
 62
250
  6
CONTINUOUS
 10
-4.5862804429
 20
9.7650801597
 11
-4.5998496465
 21
9.7651857038
  0
LINE
  5
888
100
AcDbEntity
  8
CURVE
100
AcDbLine
 62
250
  6
CONTINUOUS
 10
-2.5077204708
 20
9.0398682398
 11
-2.5678465111
 21
9.0413035869
  0
LINE
  5
889
100
AcDbEntity
  8
CURVE
100
AcDbLine
 62
250
  6
CONTINUOUS
 10
-3.1396602242
 20
9.5967462304
 11
-3.1248209298
 21
9.595685388
  0
LINE
  5
88A
100
AcDbEntity
  8
CURVE
100
AcDbLine
 62
250
  6
CONTINUOUS
 10
-2.1575695722
 20
9.5055390437
 11
-2.1439996097
 21
9.5043617806
  0
LINE
  5
88B
100
AcDbEntity
  8
CURVE
100
AcDbLine
 62
250
  6
CONTINUOUS
 10
-0.6682570531
 20
9.3997500934
 11
-0.6836060135
 21
9.4012948646
  0
LINE
  5
88C
100
AcDbEntity
  8
CURVE
100
AcDbLine
 62
250
  6
CONTINUOUS
 10
-4.5731010917
 20
9.7636633533
 11
-4.5862804429
 21
9.7650801597
  0
LINE
  5
88D
100
AcDbEntity
  8
CURVE
100
AcDbLine
 62
250
  6
CONTINUOUS
 10
-2.4453079841
 20
9.0300485576
 11
-2.5077204708
 21
9.0398682398
  0
LINE
  5
88E
100
AcDbEntity
  8
CURVE
100
AcDbLine
 62
250
  6
CONTINUOUS
 10
-3.1548435307
 20
9.5993476317
 11
-3.1396602242
 21
9.5967462304
  0
LINE
  5
88F
100
AcDbEntity
  8
CURVE
100
AcDbLine
 62
250
  6
CONTINUOUS
 10
-0.6591441081
 20
9.3981419378
 11
-0.6682570531
 21
9.3997500934
  0
LINE
  5
890
100
AcDbEntity
  8
CURVE
100
AcDbLine
 62
250
  6
CONTINUOUS
 10
-2.1724528879
 20
9.5081843615
 11
-2.1575695722
 21
9.5055390437
  0
LINE
  5
891
100
AcDbEntity
  8
CURVE
100
AcDbLine
 62
250
  6
CONTINUOUS
 10
-4.5587832485
 20
9.7607708344
 11
-4.5731010917
 21
9.7636633533
  0
LINE
  5
892
100
AcDbEntity
  8
CURVE
100
AcDbLine
 62
250
  6
CONTINUOUS
 10
-0.6433007013
 20
9.3941848498
 11
-0.6591441081
 21
9.3981419378
  0
LINE
  5
893
100
AcDbEntity
  8
CURVE
100
AcDbLine
 62
250
  6
CONTINUOUS
 10
-2.2320121155
 20
11.0910547892
 11
-2.2471013369
 21
11.0950935065
  0
LINE
  5
894
100
AcDbEntity
  8
CURVE
100
AcDbLine
 62
250
  6
CONTINUOUS
 10
-2.1875469026
 20
9.512230605
 11
-2.1724528879
 21
9.5081843615
  0
LINE
  5
895
100
AcDbEntity
  8
CURVE
100
AcDbLine
 62
250
  6
CONTINUOUS
 10
-3.8453245867
 20
11.2446916917
 11
-3.8605588457
 21
11.2488606439
  0
LINE
  5
896
100
AcDbEntity
  8
CURVE
100
AcDbLine
 62
250
  6
CONTINUOUS
 10
-0.6273319651
 20
9.3887572675
 11
-0.6433007013
 21
9.3941848498
  0
LINE
  5
897
100
AcDbEntity
  8
CURVE
100
AcDbLine
 62
250
  6
CONTINUOUS
 10
-2.2168495492
 20
11.0856649132
 11
-2.2320121155
 21
11.0910547892
  0
LINE
  5
898
100
AcDbEntity
  8
CURVE
100
AcDbLine
 62
250
  6
CONTINUOUS
 10
-3.8299842485
 20
11.2390575999
 11
-3.8453245867
 21
11.2446916917
  0
LINE
  5
899
100
AcDbEntity
  8
CURVE
100
AcDbLine
 62
250
  6
CONTINUOUS
 10
-2.201730713
 20
11.078981547
 11
-2.2168495492
 21
11.0856649132
  0
LINE
  5
89A
100
AcDbEntity
  8
CURVE
100
AcDbLine
 62
250
  6
CONTINUOUS
 10
-3.8146481705
 20
11.232013558
 11
-3.8299842485
 21
11.2390575999
  0
LINE
  5
89B
100
AcDbEntity
  8
CURVE
100
AcDbLine
 62
250
  6
CONTINUOUS
 10
-2.186761919
 20
11.0710699957
 11
-2.201730713
 21
11.078981547
  0
LINE
  5
89C
100
AcDbEntity
  8
ASSI
100
AcDbLine
 62
7
  6
CONTINUOUS
 10
8.737939337
 20
-21.6049139615
 11
9.2814617954
 21
-14.3168195283
  0
LINE
  5
89D
100
AcDbEntity
  8
CURVE
100
AcDbLine
 62
250
  6
CONTINUOUS
 10
-0.704893751
 20
-12.571264358
 11
-0.6955140372
 21
-12.5661085497
  0
LINE
  5
89E
100
AcDbEntity
  8
CURVE
100
AcDbLine
 62
250
  6
CONTINUOUS
 10
-2.0710793432
 20
-12.6866065253
 11
-2.0621224365
 21
-12.6818605727
  0
LINE
  5
89F
100
AcDbEntity
  8
CURVE
100
AcDbLine
 62
250
  6
CONTINUOUS
 10
-0.7087926913
 20
-12.5730430662
 11
-0.704893751
 21
-12.571264358
  0
LINE
  5
8A0
100
AcDbEntity
  8
CURVE
100
AcDbLine
 62
250
  6
CONTINUOUS
 10
-1.3754863231
 20
-11.5971903479
 11
-1.3851878396
 21
-11.6012987863
  0
LINE
  5
8A1
100
AcDbEntity
  8
CURVE
100
AcDbLine
 62
250
  6
CONTINUOUS
 10
-2.0804450852
 20
-12.6903750292
 11
-2.0710793432
 21
-12.6866065253
  0
LINE
  5
8A2
100
AcDbEntity
  8
CURVE
100
AcDbLine
 62
250
  6
CONTINUOUS
 10
-0.7189618302
 20
-12.5768056555
 11
-0.7087926913
 21
-12.5730430662
  0
LINE
  5
8A3
100
AcDbEntity
  8
CURVE
100
AcDbLine
 62
250
  6
CONTINUOUS
 10
-1.3702957107
 20
-11.5954714798
 11
-1.3754863231
 21
-11.5971903479
  0
LINE
  5
8A4
100
AcDbEntity
  8
CURVE
100
AcDbLine
 62
250
  6
CONTINUOUS
 10
-2.090169034
 20
-12.6931621144
 11
-2.0804450852
 21
-12.6903750292
  0
LINE
  5
8A5
100
AcDbEntity
  8
CURVE
100
AcDbLine
 62
250
  6
CONTINUOUS
 10
-2.3030393969
 20
11.097247753
 11
-2.3158459414
 21
11.0943109697
  0
LINE
  5
8A6
100
AcDbEntity
  8
CURVE
100
AcDbLine
 62
250
  6
CONTINUOUS
 10
-4.612891029
 20
9.7638550778
 11
-4.6253265378
 21
9.7611043187
  0
LINE
  5
8A7
100
AcDbEntity
  8
CURVE
100
AcDbLine
 62
250
  6
CONTINUOUS
 10
-3.9120068197
 20
11.2512828452
 11
-3.9251492924
 21
11.248455134
  0
LINE
  5
8A8
100
AcDbEntity
  8
CURVE
100
AcDbLine
 62
250
  6
CONTINUOUS
 10
-2.2895350205
 20
11.0987885521
 11
-2.3030393969
 21
11.097247753
  0
LINE
  5
8A9
100
AcDbEntity
  8
CURVE
100
AcDbLine
 62
250
  6
CONTINUOUS
 10
-3.8981792086
 20
11.252583073
 11
-3.9120068197
 21
11.2512828452
  0
LINE
  5
8AA
100
AcDbEntity
  8
CURVE
100
AcDbLine
 62
250
  6
CONTINUOUS
 10
-2.2754330667
 20
11.0989041662
 11
-2.2895350205
 21
11.0987885521
  0
LINE
  5
8AB
100
AcDbEntity
  8
CURVE
100
AcDbLine
 62
250
  6
CONTINUOUS
 10
-3.8902295204
 20
11.252635699
 11
-3.8981792086
 21
11.252583073
  0
LINE
  5
8AC
100
AcDbEntity
  8
CURVE
100
AcDbLine
 62
250
  6
CONTINUOUS
 10
-3.8755683289
 20
11.2515192396
 11
-3.8902295204
 21
11.252635699
  0
LINE
  5
8AD
100
AcDbEntity
  8
CURVE
100
AcDbLine
 62
250
  6
CONTINUOUS
 10
-2.2619925907
 20
11.0977348059
 11
-2.2754330667
 21
11.0989041662
  0
LINE
  5
8AE
100
AcDbEntity
  8
CURVE
100
AcDbLine
 62
250
  6
CONTINUOUS
 10
-3.8605588457
 20
11.2488606439
 11
-3.8755683289
 21
11.2515192396
  0
LINE
  5
8AF
100
AcDbEntity
  8
CURVE
100
AcDbLine
 62
250
  6
CONTINUOUS
 10
-2.2471013369
 20
11.0950935065
 11
-2.2619925907
 21
11.0977348059
  0
LWPOLYLINE
  5
8B0
100
AcDbEntity
  8
ASSI
100
AcDbPolyline
 62
250
  6
CONTINUOUS
 90
7
 70
0
 10
-9.1930900781
 20
20.4188095779
 10
-9.230619491
 20
20.4466077106
 10
-9.2618873338
 20
20.4765913152
 10
-9.2864205304
 20
20.5083067457
 10
-9.3038478985
 20
20.5412741541
 10
-9.3139057656
 20
20.5749947504
 10
-9.3164606674
 20
20.6084239307
  0
LWPOLYLINE
  5
8B1
100
AcDbEntity
  8
ASSI
100
AcDbPolyline
 62
250
  6
CONTINUOUS
 90
13
 70
0
 10
5.6970400406
 20
11.8214506331
 10
5.7457609295
 20
11.7994485007
 10
5.7987148543
 20
11.7808028391
 10
5.8551006581
 20
11.7657957444
 10
5.914065262
 20
11.754654264
 10
5.9747165717
 20
11.7475469607
 10
6.036136974
 20
11.7445813624
 10
6.09739722
 20
11.7458023364
 10
6.1575704839
 20
11.7511914106
 10
6.2157463852
 20
11.7606670516
 10
6.2710447619
 20
11.7740858996
 10
6.3226289872
 20
11.7912449365
 10
6.369718627
 20
11.8118845577
  0
LWPOLYLINE
  5
8B2
100
AcDbEntity
  8
ASSI
100
AcDbPolyline
 62
250
  6
CONTINUOUS
 90
31
 70
0
 10
5.6970269042
 20
11.8214426347
 10
5.182998713
 20
12.080906292
 10
4.671180553
 20
12.3416061208
 10
4.1615793053
 20
12.6035360505
 10
3.6542962077
 20
12.8666408585
 10
3.1492428957
 20
13.1309631501
 10
2.6461450416
 20
13.3966456468
 10
2.1448878084
 20
13.6637508743
 10
1.6456066675
 20
13.93220863
 10
1.1484048054
 20
14.2019638411
 10
0.6533376667
 20
14.4729858533
 10
0.1603666012
 20
14.7452952683
 10
-0.3305469421
 20
15.0189135291
 10
-0.8195126636
 20
15.2939032354
 10
-1.3064015878
 20
15.5701932192
 10
-1.7908976839
 20
15.8476022694
 10
-2.2727205498
 20
16.1259636211
 10
-2.7521432065
 20
16.4054286359
 10
-3.229677033
 20
16.6862948443
 10
-3.7042746006
 20
16.9679405747
 10
-4.1769698705
 20
17.2509757471
 10
-4.6513402621
 20
17.5375765654
 10
-5.1264985457
 20
17.8272589583
 10
-5.6032164364
 20
18.1205508325
 10
-6.0874231973
 20
18.4212205848
 10
-6.5794151323
 20
18.7296196953
 10
-7.0785817644
 20
19.0455432228
 10
-7.5893283175
 20
19.3720110204
 10
-8.1129279457
 20
19.710122944
 10
-8.6476010904
 20
20.0590166276
 10
-9.1930900812
 20
20.4188095605
  0
LINE
  5
8B3
100
AcDbEntity
  8
ASSI
100
AcDbLine
 62
7
  6
CONTINUOUS
 10
5.6045065332
 20
15.3392956146
 11
6.3935230309
 21
15.4916345226
  0
LWPOLYLINE
  5
8B4
100
AcDbEntity
  8
ASSI
100
AcDbPolyline
 62
250
  6
CONTINUOUS
 90
20
 70
0
 10
6.4899683956
 20
13.229422591
 10
5.9765238869
 20
13.4871483435
 10
5.4653837963
 20
13.7461475744
 10
4.9565481239
 20
14.0064202836
 10
4.4501392889
 20
14.2679034841
 10
3.9460348721
 20
14.5306601629
 10
3.4438676154
 20
14.7948792814
 10
2.9434589471
 20
15.0606530712
 10
2.444987439
 20
15.3278893006
 10
1.9486215482
 20
15.5965002358
 10
1.4544260609
 20
15.8664516699
 10
0.9623361909
 20
16.1377778098
 10
0.4723260373
 20
16.4104935414
 10
-0.0157155306
 20
16.6846636842
 10
-0.5016773821
 20
16.9602234188
 10
-0.9852520269
 20
17.2369931731
 10
-1.4661788135
 20
17.5148211352
 10
-1.9447183933
 20
17.793859117
 10
-2.4213452303
 20
18.0743829825
 10
-2.8950448863
 20
18.3557473016
  0
LINE
  5
8B5
100
AcDbEntity
  8
ASSI
100
AcDbLine
 62
250
  6
CONTINUOUS
 10
-2.8950448863
 20
18.3557473016
 11
-3.3668317995
 21
18.6385975044
  0
LWPOLYLINE
  5
8B6
100
AcDbEntity
  8
ASSI
100
AcDbPolyline
 62
250
  6
CONTINUOUS
 90
11
 70
0
 10
-3.3668317995
 20
18.6385975044
 10
-3.8402237492
 20
18.9251457452
 10
-4.3144492417
 20
19.2148075746
 10
-4.7902797706
 20
19.508167442
 10
-5.2735475956
 20
19.80919085
 10
-5.7648642151
 20
20.1181175262
 10
-6.2636181308
 20
20.434707743
 10
-6.7738071068
 20
20.7622078199
 10
-7.296763731
 20
21.1016998633
 10
-7.8311554154
 20
21.4521017667
 10
-8.3769821601
 20
21.8134135302
  0
LWPOLYLINE
  5
8B7
100
AcDbEntity
  8
ASSI
100
AcDbPolyline
 62
250
  6
CONTINUOUS
 90
16
 70
0
 10
6.4899683955
 20
13.2294225909
 10
6.5260173272
 20
13.2053244031
 10
6.5618743622
 20
13.1771478297
 10
6.5971473278
 20
13.1452010415
 10
6.6314504389
 20
13.1098334442
 10
6.6644085185
 20
13.0714318577
 10
6.6956611005
 20
13.0304162855
 10
6.7248663718
 20
12.98723532
 10
6.7517049105
 20
12.9423612366
 10
6.7758831803
 20
12.8962848287
 10
6.7971367405
 20
12.8495100399
 10
6.8152331382
 20
12.8025484516
 10
6.8299744509
 20
12.7559136886
 10
6.8411994511
 20
12.7101158011
 10
6.8487853696
 20
12.6656556863
 10
6.8526492382
 20
12.6230196098
  0
LWPOLYLINE
  5
8B8
100
AcDbEntity
  8
ASSI
100
AcDbPolyline
 62
250
  6
CONTINUOUS
 90
9
 70
0
 10
-8.3769821975
 20
21.8134135051
 10
-8.4147573135
 20
21.8319402859
 10
-8.4519168084
 20
21.8459222901
 10
-8.4880542548
 20
21.8552066161
 10
-8.522774424
 20
21.859691745
 10
-8.5556975585
 20
21.8593286436
 10
-8.5864635348
 20
21.854121322
 10
-8.614735871
 20
21.844126786
 10
-8.6367860293
 20
21.8318068154
  0
LINE
  5
8B9
100
AcDbEntity
  8
ASSI
100
AcDbLine
 62
7
  6
CONTINUOUS
 10
-4.8606738283
 20
21.3817595959
 11
-2.315089416
 21
19.9119710599
  0
LINE
  5
8BA
100
AcDbEntity
  8
ASSI
100
AcDbLine
 62
7
  6
CONTINUOUS
 10
3.058922121
 20
16.8090841506
 11
5.6045065332
 21
15.3392956146
  0
LINE
  5
8BB
100
AcDbEntity
  8
ASSI
100
AcDbLine
 62
7
  6
CONTINUOUS
 10
-6.6088867136
 20
22.9990629506
 11
-4.649257495
 21
21.8675975997
  0
LINE
  5
8BC
100
AcDbEntity
  8
ASSI
100
AcDbLine
 62
7
  6
CONTINUOUS
 10
-1.5260729184
 20
20.0643099679
 11
3.2703384543
 21
17.2949221544
  0
LINE
  5
8BD
100
AcDbEntity
  8
ASSI
100
AcDbLine
 62
7
  6
CONTINUOUS
 10
6.3935230309
 20
15.4916345226
 11
8.3531522495
 21
14.3601691717
  0
LINE
  5
8BE
100
AcDbEntity
  8
ASSI
100
AcDbLine
 62
7
  6
CONTINUOUS
 10
-2.315089416
 20
19.9119710599
 11
-1.5260729184
 21
20.0643099679
  0
LWPOLYLINE
  5
8BF
100
AcDbEntity
  8
ASSI
100
AcDbPolyline
 62
250
  6
CONTINUOUS
 90
9
 70
0
 10
6.7280995077
 20
-22.7664987181
 10
6.7517072439
 20
-22.7525748446
 10
6.7758852061
 20
-22.7323517068
 10
6.7971383671
 20
-22.7075894197
 10
6.8152343243
 20
-22.6785588536
 10
6.8299752061
 20
-22.6455775475
 10
6.8411998312
 20
-22.6090062473
 10
6.8487854741
 20
-22.5692449631
 10
6.8526492115
 20
-22.5267285825
  0
LINE
  5
8C0
100
AcDbEntity
  8
ASSI
100
AcDbLine
 62
250
  6
CONTINUOUS
 10
8.737939337
 20
-21.6049139615
 11
6.8526492115
 21
-22.5267285825
  0
LINE
  5
8C1
100
AcDbEntity
  8
ASSI
100
AcDbLine
 62
7
  6
CONTINUOUS
 10
8.6010487897
 20
-21.8507181656
 11
6.7280995077
 21
-22.7664987181
  0
LWPOLYLINE
  5
8C2
100
AcDbEntity
  8
ASSI
100
AcDbPolyline
 62
250
  6
CONTINUOUS
 90
19
 70
0
 10
6.8526492115
 20
-22.5267285825
 10
6.810762183
 20
-22.5452331541
 10
6.7698054738
 20
-22.5595509943
 10
6.7297790837
 20
-22.5696821031
 10
6.6904018023
 20
-22.5756502264
 10
6.65195484
 20
-22.5774316184
 10
6.6152818285
 20
-22.574955041
 10
6.5804415965
 20
-22.5681211465
 10
6.5473753153
 20
-22.5570292826
 10
6.5167501297
 20
-22.5419062539
 10
6.4886185469
 20
-22.522669105
 10
6.4629280598
 20
-22.4994007913
 10
6.4401882923
 20
-22.4725769843
 10
6.4204585796
 20
-22.4421011182
 10
6.4036795865
 20
-22.4080697587
 10
6.3901829316
 20
-22.3712482744
 10
6.3800791543
 20
-22.3318917884
 10
6.3732577151
 20
-22.2897451776
 10
6.369718614
 20
-22.2448084422
  0
ARC
  5
8C3
100
AcDbEntity
  8
ASSI
100
AcDbCircle
 62
7
  6
CONTINUOUS
 10
1.5264272461
 20
-3.6109343889
 40
0.4
100
AcDbArc
 50
120.752624298
 51
161.8212586125
  0
ARC
  5
8C4
100
AcDbEntity
  8
ASSI
100
AcDbCircle
 62
7
  6
CONTINUOUS
 10
-5.5847104637
 20
1.435007227
 40
0.4
100
AcDbArc
 50
237.8888048846
 51
299.2488433792
  0
ARC
  5
8C5
100
AcDbEntity
  8
ASSI
100
AcDbCircle
 62
7
  6
CONTINUOUS
 10
1.5264272461
 20
-2.6708745631
 40
0.4
100
AcDbArc
 50
193.665610402
 51
241.9958407611
  0
ELLIPSE
  5
8C6
100
AcDbEntity
  8
ASSI
100
AcDbEllipse
 62
7
  6
CONTINUOUS
 10
8.3843080981
 20
-21.4001254455
 30
0.0
 11
-0.2148753492
 21
0.4514925988
 31
0.0
 40
0.626010046
 41
-3.1349764991
 42
-2.3100583745
  0
ELLIPSE
  5
8C7
100
AcDbEntity
  8
ASSI
100
AcDbEllipse
 62
7
  6
CONTINUOUS
 10
8.9985221266
 20
-3.8928406673
 30
0.0
 11
-0.2001163506
 21
0.3463781804
 31
0.0
 40
0.577463496
 41
-2.3564333972
 42
-0.7858655045
  0
ELLIPSE
  5
8C8
100
AcDbEntity
  8
ASSI
100
AcDbEllipse
 62
7
  6
CONTINUOUS
 10
8.3843080981
 20
13.9708557693
 30
0.0
 11
-0.280860955
 21
0.4142191515
 31
0.0
 40
0.5243459323
 41
-2.3941007373
 42
-0.8246744066
  0
ELLIPSE
  5
8C9
100
AcDbEntity
  8
ASSI
100
AcDbEllipse
 62
7
  6
CONTINUOUS
 10
8.9985221266
 20
-3.0225455
 30
0.0
 11
-0.2001619724
 21
0.3464573699
 31
0.0
 40
0.5771997317
 41
-3.1590443312
 42
-2.3566615088
  0
ELLIPSE
  5
8CA
100
AcDbEntity
  8
ASSI
100
AcDbEllipse
 62
7
  6
CONTINUOUS
 10
-6.5783765802
 20
22.6101223761
 30
0.0
 11
-0.2806490066
 21
0.4138128862
 31
0.0
 40
0.5253010868
 41
-0.8257150379
 42
-0.0027521587
  0
ENDSEC
  0
SECTION
  2
OBJECTS
  0
DICTIONARY
  5
C
100
AcDbDictionary
280
0
281
1
  3
ACAD_GROUP
350
D
  3
ACAD_MLINESTYLE
350
17
  3
ACAD_LAYOUT
350
1A
  3
ACAD_PLOTSETTINGS
350
19
  3
ACAD_PLOTSTYLENAME
350
E
  0
DICTIONARY
  5
D
102
{ACAD_REACTORS
330
C
102
}
100
AcDbDictionary
280
0
281
1
  0
ACDBDICTIONARYWDFLT
  5
E
102
{ACAD_REACTORS
330
C
102
}
100
AcDbDictionary
281
1
  3
Normal
350
F
100
AcDbDictionaryWithDefault
340
F
  0
DICTIONARY
  5
17
102
{ACAD_REACTORS
330
C
102
}
100
AcDbDictionary
280
0
281
1
  3
Standard
350
18
  0
DICTIONARY
  5
19
102
{ACAD_REACTORS
330
C
102
}
100
AcDbDictionary
281
1
  0
DICTIONARY
  5
1A
102
{ACAD_REACTORS
330
C
102
}
100
AcDbDictionary
281
1
  3
Model
350
8CB
  3
Layout1
350
8CC
  0
ACDBPLACEHOLDER
  5
F
102
{ACAD_REACTORS
330
E
102
}
  0
MLINESTYLE
  5
18
102
{ACAD_REACTORS
330
17
102
}
100
AcDbMlineStyle
  2
STANDARD
 70
0
  3

 62
256
 51
90.0
 52
90.0
 71
2
 49
0.5
 62
256
  6
BYLAYER
 49
-0.5
 62
256
  6
BYLAYER
  0
LAYOUT
  5
8CB
102
{ACAD_REACTORS
330
1A
102
}
100
AcDbPlotSettings
  1

  2
none_device
  4

  6

 40
0.0
 41
0.0
 42
0.0
 43
0.0
 44
210.0
 45
297.0
 46
0.0
 47
0.0
 48
0.0
 49
0.0
140
0.0
141
0.0
142
1.0
143
1.0
 70
1024
 72
1
 73
0
 74
0
  7

 75
0
147
1.0
148
0.0
149
0.0
100
AcDbLayout
  1
Model
 70
0
 71
0
 10
0.0
 20
0.0
 11
210.0
 21
297.0
 12
0.0
 22
0.0
 32
0.0
 14
0.0
 24
0.0
 34
0.0
 15
0.0
 25
0.0
 35
0.0
146
0.0
 13
0.0
 23
0.0
 33
0.0
 16
1.0
 26
0.0
 36
0.0
 17
0.0
 27
1.0
 37
0.0
 76
0
330
214
345
0
346
0
  0
LAYOUT
  5
8CC
102
{ACAD_REACTORS
330
1A
102
}
100
AcDbPlotSettings
  1

  2
none_device
  4

  6

 40
0.0
 41
0.0
 42
0.0
 43
0.0
 44
210.0
 45
297.0
 46
0.0
 47
0.0
 48
0.0
 49
0.0
140
0.0
141
0.0
142
1.0
143
1.0
 70
0
 72
1
 73
0
 74
0
  7

 75
0
147
1.0
148
0.0
149
0.0
100
AcDbLayout
  1
Layout1
 70
0
 71
1
 10
0.0
 20
0.0
 11
210.0
 21
297.0
 12
0.0
 22
0.0
 32
0.0
 14
0.0
 24
0.0
 34
0.0
 15
0.0
 25
0.0
 35
0.0
146
0.0
 13
0.0
 23
0.0
 33
0.0
 16
1.0
 26
0.0
 36
0.0
 17
0.0
 27
1.0
 37
0.0
 76
0
330
215
345
0
346
0
  0
ENDSEC
  0
EOF
