  0
SECTION
  2
HEADER
  9
$ACADVER
  1
AC1024
  9
$DWGCODEPAGE
  3
ANSI_1252
  9
$EXTMAX
 10
297.0
 20
210.0
 30
0.0
  9
$EXTMIN
 10
0.0
 20
0.0
 30
0.0
  9
$LIMMIN
 10
0.0
 20
0.0
  9
$LIMMAX
 10
297.0
 20
210.0
  9
$VIEWCTR
 10
148.5
 20
105.0
  9
$VIEWSIZE
 40
210.0
  9
$CLAYER
  8
0
  9
$LTSCALE
 40
16.335
  9
$CELTYPE
  6
BYLAYER
  9
$DIMSCALE
 40
1.0
  9
$DIMASZ
 40
3.0
  9
$DIMEXO
 40
0.5
  9
$DIMDLI
 40
11.286
  9
$DIMEXE
 40
1.5
  9
$DIMCEN
 40
2.673
  9
$DIMLFAC
 40
1.0
  9
$DIMBLK
  1
_FILLED
  9
$DIMALT
 70
0
  9
$DIMALTF
 40
0.0393700787
  9
$DIMTXT
 40
3.0
  9
$DIMTOL
 70
1
  9
$DIMLIM
 70
0
  9
$DIMTFAC
 40
1.0
  9
$DIMTP
 40
0.01
  9
$DIMTM
 40
0.01
  9
$DIMGAP
 40
0.625
  9
$DIMDSEP
 70
44
  9
$AUNITS
 70
0
  9
$PDMODE
 70
3
  9
$PDSIZE
 40
3.0
  9
$HANDSEED
  5
5C6
  9
$TILEMODE
 70
1
  9
$MEASUREMENT
 70
1
  9
$INSUNITS
 70
4
  0
ENDSEC
  0
SECTION
  2
CLASSES
  0
CLASS
  1
ACDBDICTIONARYWDFLT
  2
AcDbDictionaryWithDefault
  3
AutoCAD 2000
 90
0
 91
1
280
0
281
0
  0
CLASS
  1
ACDBPLACEHOLDER
  2
AcDbPlaceHolder
  3
AutoCAD 2000
 90
0
 91
1
280
0
281
0
  0
CLASS
  1
LAYOUT
  2
AcDbLayout
  3
AutoCAD 2000
 90
0
 91
0
280
0
281
0
  0
ENDSEC
  0
SECTION
  2
TABLES
  0
TABLE
  2
VPORT
  5
8
100
AcDbSymbolTable
 70
2
  0
VPORT
  5
1F4
100
AcDbSymbolTableRecord
100
AcDbViewportTableRecord
  2
*ACTIVE
 70
0
 10
0.0
 20
0.0
 11
1.0
 21
1.0
 12
148.5
 22
105.0
 13
0.0
 23
0.0
 14
1.0
 24
1.0
 15
0.0
 25
0.0
 16
0.0
 26
0.0
 36
1.0
 17
0.0
 27
0.0
 37
0.0
 40
210.0
 41
1.4142857143
 42
50.0
 43
0.0
 44
0.0
 50
0.0
 51
0.0
 71
0
 72
100
 73
1
 74
1
 75
0
 76
0
 77
0
 78
0
  0
ENDTAB
  0
TABLE
  2
LTYPE
  5
5
100
AcDbSymbolTable
 70
6
  0
LTYPE
  5
14
100
AcDbSymbolTableRecord
100
AcDbLinetypeTableRecord
  2
BYBLOCK
 70
0
  3

 72
65
 73
0
 40
0.0
  0
LTYPE
  5
15
100
AcDbSymbolTableRecord
100
AcDbLinetypeTableRecord
  2
BYLAYER
 70
0
  3

 72
65
 73
0
 40
0.0
  0
LTYPE
  5
16
100
AcDbSymbolTableRecord
100
AcDbLinetypeTableRecord
  2
CONTINUOUS
 70
64
  3
Solid line
 72
65
 73
0
 40
0.0
  0
LTYPE
  5
1F5
100
AcDbSymbolTableRecord
100
AcDbLinetypeTableRecord
  2
CENTER
 70
64
  3
____ _ ____ _ ____ _ ____ _ ____ _ ____ _ ____
 72
65
 73
4
 40
0.6
 49
0.375
 74
0
 49
-0.075
 74
0
 49
0.075
 74
0
 49
-0.075
 74
0
  0
LTYPE
  5
1F6
100
AcDbSymbolTableRecord
100
AcDbLinetypeTableRecord
  2
HIDDEN
 70
64
  3
- - - - - - - - - - - - - - - - - - - -
 72
65
 73
2
 40
0.2
 49
0.1
 74
0
 49
-0.1
 74
0
  0
LTYPE
  5
1F7
100
AcDbSymbolTableRecord
100
AcDbLinetypeTableRecord
  2
PHANTOM
 70
64
  3
_____ _ _ _____ _ _ _____ _ _ _____
 72
65
 73
6
 40
0.8
 49
0.45
 74
0
 49
-0.05
 74
0
 49
0.1
 74
0
 49
-0.05
 74
0
 49
0.1
 74
0
 49
-0.05
 74
0
  0
LTYPE
  5
1F8
100
AcDbSymbolTableRecord
100
AcDbLinetypeTableRecord
  2
DOT
 70
64
  3
. . . . . . . . . . . . . . . . . . . .
 72
65
 73
2
 40
0.2
 49
0.1
 74
0
 49
-0.1
 74
0
  0
LTYPE
  5
1F9
100
AcDbSymbolTableRecord
100
AcDbLinetypeTableRecord
  2
DASHED
 70
64
  3
- - - - - - - - - - - - - - - - - - - -
 72
65
 73
2
 40
0.2
 49
0.1
 74
0
 49
-0.1
 74
0
  0
ENDTAB
  0
TABLE
  2
LAYER
  5
2
100
AcDbSymbolTable
 70
36
  0
LAYER
  5
10
100
AcDbSymbolTableRecord
100
AcDbLayerTableRecord
  2
0
 70
0
 62
7
  6
CONTINUOUS
370
-3
390
F
  0
LAYER
  5
1FA
100
AcDbSymbolTableRecord
100
AcDbLayerTableRecord
  2
DEFAULT_1
 70
0
 62
7
  6
CENTER
370
-3
390
F
  0
LAYER
  5
1FB
100
AcDbSymbolTableRecord
100
AcDbLayerTableRecord
  2
DEFAULT_2
 70
0
 62
7
  6
HIDDEN
370
-3
390
F
  0
LAYER
  5
1FC
100
AcDbSymbolTableRecord
100
AcDbLayerTableRecord
  2
DEFAULT_3
 70
0
 62
7
  6
PHANTOM
370
-3
390
F
  0
LAYER
  5
1FD
100
AcDbSymbolTableRecord
100
AcDbLayerTableRecord
  2
ASSI
 70
0
 62
7
  6
CONTINUOUS
370
-3
390
F
  0
LAYER
  5
1FE
100
AcDbSymbolTableRecord
100
AcDbLayerTableRecord
  2
COORDINATE
 70
0
 62
7
  6
CONTINUOUS
370
-3
390
F
  0
LAYER
  5
1FF
100
AcDbSymbolTableRecord
100
AcDbLayerTableRecord
  2
COORD_ORIGINE
 70
0
 62
7
  6
CONTINUOUS
370
-3
390
F
  0
LAYER
  5
200
100
AcDbSymbolTableRecord
100
AcDbLayerTableRecord
  2
COPY_PUBLISH
 70
0
 62
7
  6
CONTINUOUS
370
-3
390
F
  0
LAYER
  5
201
100
AcDbSymbolTableRecord
100
AcDbLayerTableRecord
  2
COSMETICI
 70
0
 62
7
  6
CONTINUOUS
370
-3
390
F
  0
LAYER
  5
202
100
AcDbSymbolTableRecord
100
AcDbLayerTableRecord
  2
CURVE
 70
0
 62
7
  6
CONTINUOUS
370
-3
390
F
  0
LAYER
  5
203
100
AcDbSymbolTableRecord
100
AcDbLayerTableRecord
  2
DRAFT
 70
0
 62
7
  6
CONTINUOUS
370
-3
390
F
  0
LAYER
  5
204
100
AcDbSymbolTableRecord
100
AcDbLayerTableRecord
  2
IMPORT_IGES
 70
0
 62
7
  6
CONTINUOUS
370
-3
390
F
  0
LAYER
  5
205
100
AcDbSymbolTableRecord
100
AcDbLayerTableRecord
  2
INTF_1
 70
0
 62
7
  6
CONTINUOUS
370
-3
390
F
  0
LAYER
  5
206
100
AcDbSymbolTableRecord
100
AcDbLayerTableRecord
  2
INTF_11
 70
0
 62
7
  6
CONTINUOUS
370
-3
390
F
  0
LAYER
  5
207
100
AcDbSymbolTableRecord
100
AcDbLayerTableRecord
  2
INTF_2
 70
0
 62
7
  6
CONTINUOUS
370
-3
390
F
  0
LAYER
  5
208
100
AcDbSymbolTableRecord
100
AcDbLayerTableRecord
  2
INTF_CYAN
 70
0
 62
7
  6
CONTINUOUS
370
-3
390
F
  0
LAYER
  5
209
100
AcDbSymbolTableRecord
100
AcDbLayerTableRecord
  2
NOTE
 70
0
 62
7
  6
CONTINUOUS
370
-3
390
F
  0
LAYER
  5
20A
100
AcDbSymbolTableRecord
100
AcDbLayerTableRecord
  2
PIANI
 70
0
 62
7
  6
CONTINUOUS
370
-3
390
F
  0
LAYER
  5
20B
100
AcDbSymbolTableRecord
100
AcDbLayerTableRecord
  2
PIANI_ORIGINE
 70
0
 62
7
  6
CONTINUOUS
370
-3
390
F
  0
LAYER
  5
20C
100
AcDbSymbolTableRecord
100
AcDbLayerTableRecord
  2
PUNTI
 70
0
 62
7
  6
CONTINUOUS
370
-3
390
F
  0
LAYER
  5
20D
100
AcDbSymbolTableRecord
100
AcDbLayerTableRecord
  2
RACCORDO
 70
0
 62
7
  6
CONTINUOUS
370
-3
390
F
  0
LAYER
  5
20E
100
AcDbSymbolTableRecord
100
AcDbLayerTableRecord
  2
RGB____0____0____0__
 70
0
 62
7
  6
CONTINUOUS
370
-3
390
F
  0
LAYER
  5
20F
100
AcDbSymbolTableRecord
100
AcDbLayerTableRecord
  2
SIMBOLI
 70
0
 62
7
  6
CONTINUOUS
370
-3
390
F
  0
LAYER
  5
210
100
AcDbSymbolTableRecord
100
AcDbLayerTableRecord
  2
SMUSSO
 70
0
 62
7
  6
CONTINUOUS
370
-3
390
F
  0
LAYER
  5
211
100
AcDbSymbolTableRecord
100
AcDbLayerTableRecord
  2
SNAPLINE
 70
0
 62
7
  6
CONTINUOUS
370
-3
390
F
  0
LAYER
  5
212
100
AcDbSymbolTableRecord
100
AcDbLayerTableRecord
  2
SUPERFICI
 70
0
 62
7
  6
CONTINUOUS
370
-3
390
F
  0
LAYER
  5
213
100
AcDbSymbolTableRecord
100
AcDbLayerTableRecord
  2
TRASH
 70
0
 62
7
  6
CONTINUOUS
370
-3
390
F
  0
ENDTAB
  0
TABLE
  2
STYLE
  5
3
100
AcDbSymbolTable
 70
1
  0
STYLE
  5
11
100
AcDbSymbolTableRecord
100
AcDbTextStyleTableRecord
  2
STANDARD
 70
0
 40
0.0
 41
0.8
 50
0.0
 71
0
 42
0.2
  3
txt
  4

  0
STYLE
  5
214
100
AcDbSymbolTableRecord
100
AcDbTextStyleTableRecord
  2
TEXTSTYLE_1
 70
0
 40
0.0
 41
0.8
 50
0.0
 71
0
 42
0.2
  3
gdt
  4

  0
ENDTAB
  0
TABLE
  2
VIEW
  5
6
100
AcDbSymbolTable
 70
0
  0
ENDTAB
  0
TABLE
  2
UCS
  5
7
100
AcDbSymbolTable
 70
0
  0
ENDTAB
  0
TABLE
  2
APPID
  5
9
100
AcDbSymbolTable
 70
1
  0
APPID
  5
215
100
AcDbSymbolTableRecord
100
AcDbRegAppTableRecord
  2
ACAD
 70
0
  0
ENDTAB
  0
TABLE
  2
BLOCK_RECORD
  5
1
100
AcDbSymbolTable
 70
0
  0
BLOCK_RECORD
  5
216
100
AcDbSymbolTableRecord
100
AcDbBlockTableRecord
  2
*Model_Space
  0
BLOCK_RECORD
  5
217
100
AcDbSymbolTableRecord
100
AcDbBlockTableRecord
  2
*Paper_Space
  0
BLOCK_RECORD
  5
218
100
AcDbSymbolTableRecord
100
AcDbBlockTableRecord
  2
_FILLED
  0
ENDTAB
  0
TABLE
  2
DIMSTYLE
  5
A
100
AcDbSymbolTable
 70
1
100
AcDbDimStyleTable
 71
0
  0
DIMSTYLE
105
219
100
AcDbSymbolTableRecord
100
AcDbDimStyleTableRecord
  2
STANDARD
 70
0
  3

  4

 40
1.0
 41
3.0
 42
0.5
 43
0.38
 44
1.5
 45
0.0
 46
0.0
 47
0.01
 48
0.01
140
3.0
141
0.09
142
0.0
143
25.4
144
1.0
145
0.0
146
1.0
147
0.625
 71
1.0
 72
0.0
 73
0
 74
0
 75
0
 76
0
 77
1
 78
8
 79
2
170
0
171
1
172
0
173
0
174
0
175
0
176
0
177
0
178
0
270
2
179
2
271
2
272
2
273
2
274
2
275
0
280
0
281
0
282
0
283
1
284
8
285
0
286
0
287
3
288
0
340
11
278
44
341
218
342
218
343
218
344
218
  0
ENDTAB
  0
ENDSEC
  0
SECTION
  2
BLOCKS
  0
BLOCK
  5
20
100
AcDbEntity
  8
0
100
AcDbBlockBegin
  2
*Model_Space
 70
0
 10
0.0
 20
0.0
 30
0.0
  3
*Model_Space
  1

  0
ENDBLK
  5
21
100
AcDbEntity
  8
0
100
AcDbBlockEnd
  0
BLOCK
  5
1C
100
AcDbEntity
  8
0
100
AcDbBlockBegin
  2
*Paper_Space
 70
0
 10
0.0
 20
0.0
 30
0.0
  3
*Paper_Space
  1

  0
ENDBLK
  5
1D
100
AcDbEntity
  8
0
100
AcDbBlockEnd
  0
BLOCK
  5
21A
100
AcDbEntity
  8
0
100
AcDbBlockBegin
  2
_FILLED
 70
64
 10
0.0
 20
0.0
  3
_FILLED
  1

  0
SOLID
  5
21B
100
AcDbEntity
  8
0
  6
BYBLOCK
 62
0
100
AcDbTrace
 10
0.0
 20
0.0
 11
-1.0
 21
0.3166666667
 12
-1.0
 22
-0.3166666667
 13
-1.0
 23
-0.3166666667
  0
ENDBLK
  5
21C
100
AcDbEntity
  8
0
  6
BYBLOCK
 62
0
100
AcDbBlockEnd
  0
ENDSEC
  0
SECTION
  2
ENTITIES
  0
LWPOLYLINE
  5
21D
100
AcDbEntity
  8
ASSI
100
AcDbPolyline
 62
7
  6
CONTINUOUS
 90
13
 70
0
 10
-42.5808895707
 20
60.5754583463
 10
-42.6268737333
 20
60.5436753281
 10
-42.6809474823
 20
60.5024047829
 10
-42.7316203881
 20
60.459255939
 10
-42.7790645456
 20
60.4141269745
 10
-42.8230896832
 20
60.3672259076
 10
-42.8636289096
 20
60.3186830248
 10
-42.9009220622
 20
60.2681965907
 10
-42.9347889038
 20
60.2159144633
 10
-42.965038991
 20
60.1620659598
 10
-42.991749503
 20
60.1064437911
 10
-43.0147625435
 20
60.0491707167
 10
-43.0259428786
 20
60.0165016475
  0
LINE
  5
21E
100
AcDbEntity
  8
ASSI
100
AcDbLine
 62
7
  6
CONTINUOUS
 10
-42.5808578298
 20
60.5754765809
 11
-41.8523289919
 21
61.0569999223
  0
LINE
  5
21F
100
AcDbEntity
  8
ASSI
100
AcDbLine
 62
250
  6
CONTINUOUS
 10
-41.7479656501
 20
60.7453238129
 11
-41.3354346452
 21
61.0179874187
  0
LWPOLYLINE
  5
220
100
AcDbEntity
  8
ASSI
100
AcDbPolyline
 62
7
  6
CONTINUOUS
 90
4
 70
0
 10
-43.0259565296
 20
60.0164591741
 10
-43.031938682
 20
59.9972314592
 10
-43.0378812155
 20
59.976810685
 10
-43.0438467391
 20
59.9547126277
  0
LWPOLYLINE
  5
221
100
AcDbEntity
  8
ASSI
100
AcDbPolyline
 62
250
  6
CONTINUOUS
 90
10
 70
0
 10
-42.8812401888
 20
59.8146884308
 10
-42.8824687814
 20
59.8108010971
 10
-42.8836749785
 20
59.8069004773
 10
-42.8848587798
 20
59.8029865739
 10
-42.8860202204
 20
59.799059269
 10
-42.8871592644
 20
59.7951186854
 10
-42.8882758049
 20
59.7911651881
 10
-42.8893698061
 20
59.7871989015
 10
-42.890441303
 20
59.7832197082
 10
-42.8914902952
 20
59.7792276115
  0
LINE
  5
222
100
AcDbEntity
  8
ASSI
100
AcDbLine
 62
7
  6
CONTINUOUS
 10
-43.0259565296
 20
60.0164591741
 11
-43.0259428786
 21
60.0165016475
  0
LINE
  5
223
100
AcDbEntity
  8
ASSI
100
AcDbLine
 62
250
  6
CONTINUOUS
 10
-43.4983584915
 20
56.8425744621
 11
-43.5594262124
 21
56.4631061369
  0
LINE
  5
224
100
AcDbEntity
  8
ASSI
100
AcDbLine
 62
250
  6
CONTINUOUS
 10
-43.0290615949
 20
60.0006837999
 11
-43.0259565296
 21
60.0164591741
  0
LWPOLYLINE
  5
225
100
AcDbEntity
  8
ASSI
100
AcDbPolyline
 62
7
  6
CONTINUOUS
 90
33
 70
0
 10
-43.0438480583
 20
59.9547075371
 10
-43.1593313515
 20
59.491004337
 10
-43.2842828019
 20
58.9446120517
 10
-43.4003050014
 20
58.3901062383
 10
-43.5083910122
 20
57.827433023
 10
-43.6093745369
 20
57.2567168244
 10
-43.7039512124
 20
56.6782582404
 10
-43.7927805949
 20
56.0919634789
 10
-43.8764220884
 20
55.4977499232
 10
-43.9553067099
 20
54.895900364
 10
-44.0298525474
 20
54.2863305559
 10
-44.100421314
 20
53.6689348049
 10
-44.1672887601
 20
53.0439591926
 10
-44.2307299748
 20
52.4113261228
 10
-44.2909851017
 20
51.7709565011
 10
-44.3482361055
 20
51.123096751
 10
-44.4026716681
 20
50.4676855555
 10
-44.454459149
 20
49.8046604112
 10
-44.5037248413
 20
49.1342686308
 10
-44.5506035438
 20
48.4564648256
 10
-44.5952164418
 20
47.7711966381
 10
-44.6376549555
 20
47.0787032079
 10
-44.6780196895
 20
46.3789425753
 10
-44.7164015483
 20
45.671878697
 10
-44.7528675338
 20
44.9577616462
 10
-44.7874956231
 20
44.2365570777
 10
-44.8203553471
 20
43.5082361673
 10
-44.8514988573
 20
42.7730567371
 10
-44.8809834065
 20
42.0310966544
 10
-44.908868574
 20
41.2822256877
 10
-44.9352069762
 20
40.5263900348
 10
-44.9600368975
 20
39.7638389112
 10
-45.0053926231
 20
38.2168582917
  0
LWPOLYLINE
  5
226
100
AcDbEntity
  8
ASSI
100
AcDbPolyline
 62
250
  6
CONTINUOUS
 90
13
 70
0
 10
-42.8914902952
 20
59.7792276115
 10
-42.9577110056
 20
59.5182432714
 10
-43.0202455149
 20
59.2606405868
 10
-43.0790098664
 20
59.0079946306
 10
-43.133546332
 20
58.7637478562
 10
-43.1842084957
 20
58.5279137052
 10
-43.2321560916
 20
58.2963674954
 10
-43.2777064719
 20
58.0684917357
 10
-43.3205116091
 20
57.8469765663
 10
-43.3607426047
 20
57.6319761991
 10
-43.3980555049
 20
57.4264210388
 10
-43.432801455
 20
57.2294662693
 10
-43.4983584915
 20
56.8425744621
  0
LINE
  5
227
100
AcDbEntity
  8
ASSI
100
AcDbLine
 62
7
  6
CONTINUOUS
 10
-45.0053926231
 20
38.2168582917
 11
-45.0453009957
 21
36.6384451931
  0
LINE
  5
228
100
AcDbEntity
  8
ASSI
100
AcDbLine
 62
250
  6
CONTINUOUS
 10
-44.7959025665
 20
40.1078773591
 11
-44.8452608174
 21
38.5030182867
  0
LINE
  5
229
100
AcDbEntity
  8
ASSI
100
AcDbLine
 62
250
  6
CONTINUOUS
 10
-44.7393996117
 20
41.6994902914
 11
-44.7959025665
 21
40.1078773591
  0
LINE
  5
22A
100
AcDbEntity
  8
ASSI
100
AcDbLine
 62
250
  6
CONTINUOUS
 10
-44.6908969031
 20
42.9084993271
 11
-44.7393996117
 21
41.6994902914
  0
LINE
  5
22B
100
AcDbEntity
  8
ASSI
100
AcDbLine
 62
250
  6
CONTINUOUS
 10
-44.6363839447
 20
44.1318452019
 11
-44.6908969031
 21
42.9084993271
  0
LINE
  5
22C
100
AcDbEntity
  8
ASSI
100
AcDbLine
 62
250
  6
CONTINUOUS
 10
-44.5774066675
 20
45.3249428128
 11
-44.6363839447
 21
44.1318452019
  0
LINE
  5
22D
100
AcDbEntity
  8
ASSI
100
AcDbLine
 62
250
  6
CONTINUOUS
 10
-44.5174854278
 20
46.423484184
 11
-44.5774066675
 21
45.3249428128
  0
LINE
  5
22E
100
AcDbEntity
  8
ASSI
100
AcDbLine
 62
250
  6
CONTINUOUS
 10
-44.4594496813
 20
47.3963122676
 11
-44.5174854278
 21
46.423484184
  0
LINE
  5
22F
100
AcDbEntity
  8
ASSI
100
AcDbLine
 62
250
  6
CONTINUOUS
 10
-44.4031251417
 20
48.2673324541
 11
-44.4594496813
 21
47.3963122676
  0
LINE
  5
230
100
AcDbEntity
  8
ASSI
100
AcDbLine
 62
250
  6
CONTINUOUS
 10
-44.345644036
 20
49.0918234695
 11
-44.4031251417
 21
48.2673324541
  0
LINE
  5
231
100
AcDbEntity
  8
ASSI
100
AcDbLine
 62
250
  6
CONTINUOUS
 10
-44.2838883383
 20
49.9141402216
 11
-44.345644036
 21
49.0918234695
  0
LINE
  5
232
100
AcDbEntity
  8
ASSI
100
AcDbLine
 62
250
  6
CONTINUOUS
 10
-44.2159266398
 20
50.7523610991
 11
-44.2838883383
 21
49.9141402216
  0
LINE
  5
233
100
AcDbEntity
  8
ASSI
100
AcDbLine
 62
250
  6
CONTINUOUS
 10
-44.1671786498
 20
51.3152346264
 11
-44.2159266398
 21
50.7523610991
  0
LINE
  5
234
100
AcDbEntity
  8
ASSI
100
AcDbLine
 62
250
  6
CONTINUOUS
 10
-44.1165778531
 20
51.868877283
 11
-44.1671786498
 21
51.3152346264
  0
LINE
  5
235
100
AcDbEntity
  8
ASSI
100
AcDbLine
 62
250
  6
CONTINUOUS
 10
-44.0656411174
 20
52.3972571066
 11
-44.1165778531
 21
51.868877283
  0
LINE
  5
236
100
AcDbEntity
  8
ASSI
100
AcDbLine
 62
250
  6
CONTINUOUS
 10
-44.0152294712
 20
52.8938742598
 11
-44.0656411174
 21
52.3972571066
  0
LINE
  5
237
100
AcDbEntity
  8
ASSI
100
AcDbLine
 62
250
  6
CONTINUOUS
 10
-43.966660585
 20
53.3494194915
 11
-44.0152294712
 21
52.8938742598
  0
LINE
  5
238
100
AcDbEntity
  8
ASSI
100
AcDbLine
 62
250
  6
CONTINUOUS
 10
-43.9196321067
 20
53.7705735197
 11
-43.966660585
 21
53.3494194915
  0
LINE
  5
239
100
AcDbEntity
  8
ASSI
100
AcDbLine
 62
250
  6
CONTINUOUS
 10
-43.873696878
 20
54.1642382385
 11
-43.9196321067
 21
53.7705735197
  0
LINE
  5
23A
100
AcDbEntity
  8
ASSI
100
AcDbLine
 62
250
  6
CONTINUOUS
 10
-43.8273853421
 20
54.5445078631
 11
-43.873696878
 21
54.1642382385
  0
LINE
  5
23B
100
AcDbEntity
  8
ASSI
100
AcDbLine
 62
250
  6
CONTINUOUS
 10
-43.7794004541
 20
54.9219810478
 11
-43.8273853421
 21
54.5445078631
  0
LINE
  5
23C
100
AcDbEntity
  8
ASSI
100
AcDbLine
 62
250
  6
CONTINUOUS
 10
-43.7290599523
 20
55.3009817218
 11
-43.7794004541
 21
54.9219810478
  0
LINE
  5
23D
100
AcDbEntity
  8
ASSI
100
AcDbLine
 62
250
  6
CONTINUOUS
 10
-43.6754876977
 20
55.6863622888
 11
-43.7290599523
 21
55.3009817218
  0
LINE
  5
23E
100
AcDbEntity
  8
ASSI
100
AcDbLine
 62
250
  6
CONTINUOUS
 10
-43.6188791317
 20
56.0747338929
 11
-43.6754876977
 21
55.6863622888
  0
LINE
  5
23F
100
AcDbEntity
  8
ASSI
100
AcDbLine
 62
250
  6
CONTINUOUS
 10
-43.5594262124
 20
56.4631061369
 11
-43.6188791317
 21
56.0747338929
  0
LINE
  5
240
100
AcDbEntity
  8
ASSI
100
AcDbLine
 62
250
  6
CONTINUOUS
 10
-44.1455781085
 20
-5.6076110993
 11
-44.0983056357
 21
-6.0554870268
  0
LINE
  5
241
100
AcDbEntity
  8
ASSI
100
AcDbLine
 62
250
  6
CONTINUOUS
 10
-44.1927070396
 20
-5.1349622826
 11
-44.1455781085
 21
-5.6076110993
  0
LINE
  5
242
100
AcDbEntity
  8
ASSI
100
AcDbLine
 62
250
  6
CONTINUOUS
 10
-44.238976673
 20
-4.6433593866
 11
-44.1927070396
 21
-5.1349622826
  0
LINE
  5
243
100
AcDbEntity
  8
ASSI
100
AcDbLine
 62
250
  6
CONTINUOUS
 10
-44.283351287
 20
-4.1439599842
 11
-44.238976673
 21
-4.6433593866
  0
LINE
  5
244
100
AcDbEntity
  8
ASSI
100
AcDbLine
 62
250
  6
CONTINUOUS
 10
-44.3253695481
 20
-3.643590999
 11
-44.283351287
 21
-4.1439599842
  0
LINE
  5
245
100
AcDbEntity
  8
ASSI
100
AcDbLine
 62
250
  6
CONTINUOUS
 10
-44.3838229955
 20
-2.8983477468
 11
-44.3253695481
 21
-3.643590999
  0
LINE
  5
246
100
AcDbEntity
  8
ASSI
100
AcDbLine
 62
250
  6
CONTINUOUS
 10
-44.4377897831
 20
-2.1533554753
 11
-44.3838229955
 21
-2.8983477468
  0
LINE
  5
247
100
AcDbEntity
  8
ASSI
100
AcDbLine
 62
250
  6
CONTINUOUS
 10
-44.4897556361
 20
-1.377063767
 11
-44.4377897831
 21
-2.1533554753
  0
LINE
  5
248
100
AcDbEntity
  8
ASSI
100
AcDbLine
 62
250
  6
CONTINUOUS
 10
-44.5423926917
 20
-0.5230686572
 11
-44.4897556361
 21
-1.377063767
  0
LINE
  5
249
100
AcDbEntity
  8
ASSI
100
AcDbLine
 62
250
  6
CONTINUOUS
 10
-44.5967537118
 20
0.4421869213
 11
-44.5423926917
 21
-0.5230686572
  0
LINE
  5
24A
100
AcDbEntity
  8
ASSI
100
AcDbLine
 62
250
  6
CONTINUOUS
 10
-44.6512745303
 20
1.5113000683
 11
-44.5967537118
 21
0.4421869213
  0
LINE
  5
24B
100
AcDbEntity
  8
ASSI
100
AcDbLine
 62
250
  6
CONTINUOUS
 10
-44.7031784862
 20
2.6431496533
 11
-44.6512745303
 21
1.5113000683
  0
LINE
  5
24C
100
AcDbEntity
  8
ASSI
100
AcDbLine
 62
250
  6
CONTINUOUS
 10
-44.7503798622
 20
3.7916617265
 11
-44.7031784862
 21
2.6431496533
  0
LINE
  5
24D
100
AcDbEntity
  8
ASSI
100
AcDbLine
 62
250
  6
CONTINUOUS
 10
-44.8051637126
 20
5.306929664
 11
-44.7503798622
 21
3.7916617265
  0
LINE
  5
24E
100
AcDbEntity
  8
ASSI
100
AcDbLine
 62
250
  6
CONTINUOUS
 10
-44.8524492689
 20
6.8243100474
 11
-44.8051637126
 21
5.306929664
  0
LINE
  5
24F
100
AcDbEntity
  8
ASSI
100
AcDbLine
 62
250
  6
CONTINUOUS
 10
-44.9028003947
 20
8.7463122342
 11
-44.8524492689
 21
6.8243100474
  0
LWPOLYLINE
  5
250
100
AcDbEntity
  8
ASSI
100
AcDbPolyline
 62
7
  6
CONTINUOUS
 90
35
 70
0
 10
-45.0654196528
 20
9.6603594729
 10
-45.0463984892
 20
8.8303599257
 10
-45.0259202532
 20
8.0118373629
 10
-45.0039563831
 20
7.2048151482
 10
-44.9804416689
 20
6.4081998081
 10
-44.9553291482
 20
5.6218644403
 10
-44.9285784203
 20
4.8460025843
 10
-44.900116263
 20
4.0800136374
 10
-44.869871666
 20
3.32365244
 10
-44.8377909518
 20
2.5772588171
 10
-44.8038153607
 20
1.8411181516
 10
-44.7678678646
 20
1.115260835
 10
-44.7298676278
 20
0.3997785226
 10
-44.68974219
 20
-0.3049447184
 10
-44.647394264
 20
-0.9988277776
 10
-44.6027157079
 20
-1.6817900054
 10
-44.5556075963
 20
-2.3534393054
 10
-44.5059394219
 20
-3.013670885
 10
-44.4535645088
 20
-3.6623669794
 10
-44.3983435648
 20
-4.2991024206
 10
-44.3400936692
 20
-4.9237346889
 10
-44.2786076941
 20
-5.5360854519
 10
-44.2136822317
 20
-6.135652744
 10
-44.1450548572
 20
-6.7221853972
 10
-44.0724150856
 20
-7.295450302
 10
-43.9954349097
 20
-7.8549308626
 10
-43.913700026
 20
-8.4002839895
 10
-43.8267269856
 20
-8.9310699754
 10
-43.7339838196
 20
-9.4465513691
 10
-43.6348146276
 20
-9.9460408957
 10
-43.5284042915
 20
-10.4288825886
 10
-43.4137825946
 20
-10.8942436635
 10
-43.2898045848
 20
-11.341081358
 10
-43.1551761929
 20
-11.7680447771
 10
-43.026921927
 20
-12.1257224672
  0
LINE
  5
251
100
AcDbEntity
  8
ASSI
100
AcDbLine
 62
250
  6
CONTINUOUS
 10
-44.9433737721
 20
10.6465862352
 11
-44.9028003947
 21
8.7463122342
  0
LINE
  5
252
100
AcDbEntity
  8
ASSI
100
AcDbLine
 62
7
  6
CONTINUOUS
 10
-45.0992165797
 20
11.3558385973
 11
-45.0654196528
 21
9.6603594729
  0
LINE
  5
253
100
AcDbEntity
  8
ASSI
100
AcDbLine
 62
7
  6
CONTINUOUS
 10
-45.1275409836
 20
13.1015276215
 11
-45.0992165797
 21
11.3558385973
  0
LINE
  5
254
100
AcDbEntity
  8
ASSI
100
AcDbLine
 62
250
  6
CONTINUOUS
 10
-44.9791773871
 20
12.7663534197
 11
-44.9433737721
 21
10.6465862352
  0
LINE
  5
255
100
AcDbEntity
  8
ASSI
100
AcDbLine
 62
7
  6
CONTINUOUS
 10
-45.1505555436
 20
14.9007232937
 11
-45.1275409836
 21
13.1015276215
  0
LINE
  5
256
100
AcDbEntity
  8
ASSI
100
AcDbLine
 62
250
  6
CONTINUOUS
 10
-45.0039561523
 20
14.6830836823
 11
-44.9791773871
 21
12.7663534197
  0
LINE
  5
257
100
AcDbEntity
  8
ASSI
100
AcDbLine
 62
7
  6
CONTINUOUS
 10
-45.1683570947
 20
16.7556269965
 11
-45.1505555436
 21
14.9007232937
  0
LINE
  5
258
100
AcDbEntity
  8
ASSI
100
AcDbLine
 62
250
  6
CONTINUOUS
 10
-45.0235454484
 20
16.7581352335
 11
-45.0039561523
 21
14.6830836823
  0
LINE
  5
259
100
AcDbEntity
  8
ASSI
100
AcDbLine
 62
7
  6
CONTINUOUS
 10
-45.1810138069
 20
18.6696063049
 11
-45.1683570947
 21
16.7556269965
  0
LINE
  5
25A
100
AcDbEntity
  8
ASSI
100
AcDbLine
 62
250
  6
CONTINUOUS
 10
-45.036946858
 20
18.9571141562
 11
-45.0235454484
 21
16.7581352335
  0
LINE
  5
25B
100
AcDbEntity
  8
ASSI
100
AcDbLine
 62
7
  6
CONTINUOUS
 10
-45.1885527375
 20
20.6464330172
 11
-45.1810138069
 21
18.6696063049
  0
LINE
  5
25C
100
AcDbEntity
  8
ASSI
100
AcDbLine
 62
250
  6
CONTINUOUS
 10
-45.0436584195
 20
21.2315295303
 11
-45.036946858
 21
18.9571141562
  0
LINE
  5
25D
100
AcDbEntity
  8
ASSI
100
AcDbLine
 62
7
  6
CONTINUOUS
 10
-45.1909636794
 20
22.6214489992
 11
-45.1885527375
 21
20.6464330172
  0
LINE
  5
25E
100
AcDbEntity
  8
ASSI
100
AcDbLine
 62
250
  6
CONTINUOUS
 10
-45.0441986409
 20
23.1452719128
 11
-45.0436584195
 21
21.2315295303
  0
LINE
  5
25F
100
AcDbEntity
  8
ASSI
100
AcDbLine
 62
7
  6
CONTINUOUS
 10
-45.188826544
 20
24.4851773872
 11
-45.1909636794
 21
22.6214489363
  0
LINE
  5
260
100
AcDbEntity
  8
ASSI
100
AcDbLine
 62
250
  6
CONTINUOUS
 10
-45.0373043826
 20
25.8058395631
 11
-45.0441986409
 21
23.1452719128
  0
LINE
  5
261
100
AcDbEntity
  8
ASSI
100
AcDbLine
 62
7
  6
CONTINUOUS
 10
-45.1821512959
 20
26.3580363059
 11
-45.188826544
 21
24.4851773872
  0
LINE
  5
262
100
AcDbEntity
  8
ASSI
100
AcDbLine
 62
7
  6
CONTINUOUS
 10
-45.1709484806
 20
28.1806067038
 11
-45.1821512959
 21
26.3580363059
  0
LINE
  5
263
100
AcDbEntity
  8
ASSI
100
AcDbLine
 62
250
  6
CONTINUOUS
 10
-45.0230485254
 20
28.1667384824
 11
-45.0373043826
 21
25.8058395631
  0
LINE
  5
264
100
AcDbEntity
  8
ASSI
100
AcDbLine
 62
7
  6
CONTINUOUS
 10
-45.1552000248
 20
29.9560526208
 11
-45.1709484806
 21
28.1806067038
  0
LINE
  5
265
100
AcDbEntity
  8
ASSI
100
AcDbLine
 62
250
  6
CONTINUOUS
 10
-45.002398528
 20
30.3413783633
 11
-45.0230485254
 21
28.1667384824
  0
LINE
  5
266
100
AcDbEntity
  8
ASSI
100
AcDbLine
 62
7
  6
CONTINUOUS
 10
-45.1348565095
 20
31.6872410031
 11
-45.1552000248
 21
29.9560526208
  0
LINE
  5
267
100
AcDbEntity
  8
ASSI
100
AcDbLine
 62
250
  6
CONTINUOUS
 10
-44.9696235474
 20
32.7835919282
 11
-45.002398528
 21
30.3413783633
  0
LINE
  5
268
100
AcDbEntity
  8
ASSI
100
AcDbLine
 62
7
  6
CONTINUOUS
 10
-45.1098471663
 20
33.376096843
 11
-45.1348565095
 21
31.6872410031
  0
LINE
  5
269
100
AcDbEntity
  8
ASSI
100
AcDbLine
 62
7
  6
CONTINUOUS
 10
-45.0800518624
 20
35.0255226416
 11
-45.1098471663
 21
33.376096843
  0
LINE
  5
26A
100
AcDbEntity
  8
ASSI
100
AcDbLine
 62
250
  6
CONTINUOUS
 10
-44.9310305051
 20
34.9504672903
 11
-44.9696235474
 21
32.7835919282
  0
LINE
  5
26B
100
AcDbEntity
  8
ASSI
100
AcDbLine
 62
7
  6
CONTINUOUS
 10
-45.0453009957
 20
36.6384451931
 11
-45.0800518624
 21
35.0255226416
  0
LINE
  5
26C
100
AcDbEntity
  8
ASSI
100
AcDbLine
 62
250
  6
CONTINUOUS
 10
-44.8873847704
 20
36.9130923123
 11
-44.9310305051
 21
34.9504672903
  0
LINE
  5
26D
100
AcDbEntity
  8
ASSI
100
AcDbLine
 62
250
  6
CONTINUOUS
 10
-44.8452608174
 20
38.5030182867
 11
-44.8873847704
 21
36.9130923123
  0
LWPOLYLINE
  5
26E
100
AcDbEntity
  8
ASSI
100
AcDbPolyline
 62
7
  6
CONTINUOUS
 90
12
 70
0
 10
-42.9896647506
 20
-12.2105648695
 10
-42.9661933026
 20
-12.2534059171
 10
-42.9396271141
 20
-12.2954763451
 10
-42.9099871346
 20
-12.3366074262
 10
-42.8773451679
 20
-12.3765865109
 10
-42.841784896
 20
-12.4152531577
 10
-42.8033387193
 20
-12.4525266629
 10
-42.7620708027
 20
-12.488292555
 10
-42.7180685559
 20
-12.5224377774
 10
-42.6713849088
 20
-12.5548959822
 10
-42.6220758588
 20
-12.5855916237
 10
42.7528605118
 20
-61.8800587184
  0
LINE
  5
26F
100
AcDbEntity
  8
ASSI
100
AcDbLine
 62
7
  6
CONTINUOUS
 10
-43.0073305522
 20
-12.1733121943
 11
-42.9896647506
 21
-12.2105648695
  0
LWPOLYLINE
  5
270
100
AcDbEntity
  8
ASSI
100
AcDbPolyline
 62
250
  6
CONTINUOUS
 90
11
 70
0
 10
-42.8812401888
 20
-12.3051570537
 10
-42.8654504186
 20
-12.3387902064
 10
-42.8468176843
 20
-12.3718448677
 10
-42.8253208263
 20
-12.4042069457
 10
-42.8009728547
 20
-12.4357209507
 10
-42.773736202
 20
-12.466316293
 10
-42.7435018056
 20
-12.4959802988
 10
-42.7101811718
 20
-12.5246246015
 10
-42.6738231665
 20
-12.5520414365
 10
-42.634522895
 20
-12.5780236933
 10
-42.6134407956
 20
-12.5906262255
  0
LINE
  5
271
100
AcDbEntity
  8
ASSI
100
AcDbLine
 62
250
  6
CONTINUOUS
 10
-43.0229891834
 20
-12.1354604994
 11
-43.026921927
 21
-12.1257224672
  0
LWPOLYLINE
  5
272
100
AcDbEntity
  8
ASSI
100
AcDbPolyline
 62
7
  6
CONTINUOUS
 90
5
 70
0
 10
-43.0269686404
 20
-12.1256001656
 10
-43.0232450911
 20
-12.1352027889
 10
-43.0167968082
 20
-12.1511709365
 10
-43.0099066122
 20
-12.1674253297
 10
-43.0073502092
 20
-12.1732676477
  0
LWPOLYLINE
  5
273
100
AcDbEntity
  8
ASSI
100
AcDbPolyline
 62
250
  6
CONTINUOUS
 90
10
 70
0
 10
-42.8914902952
 20
-12.280245901
 10
-42.890441303
 20
-12.2829679337
 10
-42.8893698061
 20
-12.2857015052
 10
-42.8882758049
 20
-12.2884466125
 10
-42.8871592644
 20
-12.2912033381
 10
-42.8860202204
 20
-12.2939715934
 10
-42.8848587798
 20
-12.2967511201
 10
-42.8836749785
 20
-12.2995418312
 10
-42.8824687814
 20
-12.3023438098
 10
-42.8812401888
 20
-12.3051570537
  0
LINE
  5
274
100
AcDbEntity
  8
ASSI
100
AcDbLine
 62
7
  6
CONTINUOUS
 10
-43.026921927
 20
-12.1257224672
 11
-43.0269686404
 21
-12.1256001656
  0
LWPOLYLINE
  5
275
100
AcDbEntity
  8
ASSI
100
AcDbPolyline
 62
250
  6
CONTINUOUS
 90
5
 70
0
 10
-42.9804534557
 20
-12.0368362931
 10
-42.9580096774
 20
-12.1002834181
 10
-42.9356742024
 20
-12.1620356928
 10
-42.9135003142
 20
-12.2220046537
 10
-42.8914902952
 20
-12.280245901
  0
LWPOLYLINE
  5
276
100
AcDbEntity
  8
ASSI
100
AcDbPolyline
 62
250
  6
CONTINUOUS
 90
28
 70
0
 10
-43.7090693712
 20
-8.9589938883
 10
-43.6822808826
 20
-9.1174330231
 10
-43.6550068489
 20
-9.2742497746
 10
-43.6272054297
 20
-9.4295808781
 10
-43.5989169505
 20
-9.5831009193
 10
-43.5700945435
 20
-9.7349692412
 10
-43.5407888869
 20
-9.8848284694
 10
-43.5111896446
 20
-10.0316764323
 10
-43.4811810313
 20
-10.1760779288
 10
-43.4508883099
 20
-10.3174232017
 10
-43.4208694719
 20
-10.4532462367
 10
-43.3912585062
 20
-10.5832181976
 10
-43.3619404294
 20
-10.7081090349
 10
-43.3331045387
 20
-10.8273729172
 10
-43.3048191134
 20
-10.9410219969
 10
-43.277032781
 20
-11.0495425696
 10
-43.2497553614
 20
-11.1531498873
 10
-43.2230114966
 20
-11.2519962146
 10
-43.196789306
 20
-11.3463590521
 10
-43.1710428165
 20
-11.4366139801
 10
-43.145786777
 20
-11.5229044668
 10
-43.1210156841
 20
-11.6054350287
 10
-43.096652342
 20
-11.6846272071
 10
-43.0727117598
 20
-11.7605812353
 10
-43.0491856129
 20
-11.8334657718
 10
-43.0259612614
 20
-11.9037511958
 10
-43.0030538778
 20
-11.9714975784
 10
-42.9804534557
 20
-12.0368362931
  0
LINE
  5
277
100
AcDbEntity
  8
ASSI
100
AcDbLine
 62
250
  6
CONTINUOUS
 10
-43.7608974206
 20
-8.6394938535
 11
-43.7090693712
 21
-8.9589938883
  0
LINE
  5
278
100
AcDbEntity
  8
ASSI
100
AcDbLine
 62
250
  6
CONTINUOUS
 10
-43.8098201268
 20
-8.321370669
 11
-43.7608974206
 21
-8.6394938535
  0
LINE
  5
279
100
AcDbEntity
  8
ASSI
100
AcDbLine
 62
250
  6
CONTINUOUS
 10
-43.856110557
 20
-8.0046266208
 11
-43.8098201268
 21
-8.321370669
  0
LINE
  5
27A
100
AcDbEntity
  8
ASSI
100
AcDbLine
 62
250
  6
CONTINUOUS
 10
-43.9001768808
 20
-7.6879926207
 11
-43.856110557
 21
-8.0046266208
  0
LINE
  5
27B
100
AcDbEntity
  8
ASSI
100
AcDbLine
 62
250
  6
CONTINUOUS
 10
-43.9429969529
 20
-7.3653163174
 11
-43.9001768808
 21
-7.6879926207
  0
LINE
  5
27C
100
AcDbEntity
  8
ASSI
100
AcDbLine
 62
250
  6
CONTINUOUS
 10
-43.9859369985
 20
-7.0259682321
 11
-43.9429969529
 21
-7.3653163174
  0
LINE
  5
27D
100
AcDbEntity
  8
ASSI
100
AcDbLine
 62
250
  6
CONTINUOUS
 10
-44.0296522346
 20
-6.6632212471
 11
-43.9859369985
 21
-7.0259682321
  0
LWPOLYLINE
  5
27E
100
AcDbEntity
  8
ASSI
100
AcDbPolyline
 62
250
  6
CONTINUOUS
 90
3
 70
0
 10
-44.0983056357
 20
-6.0554870268
 10
-44.0751242735
 20
-6.2661355693
 10
-44.0296522346
 20
-6.6632212471
  0
LWPOLYLINE
  5
27F
100
AcDbEntity
  8
DRAFT
100
AcDbPolyline
 62
7
  6
CONTINUOUS
 90
19
 70
0
 10
-25.5345628897
 20
26.006843841
 10
-25.5229167328
 20
26.0174171517
 10
-25.5073405223
 20
26.0355007542
 10
-25.493538323
 20
26.0558882016
 10
-25.4815909497
 20
26.0784686628
 10
-25.471562703
 20
26.103110897
 10
-25.4635167925
 20
26.1296664483
 10
-25.4575066036
 20
26.1579820279
 10
-25.4535614875
 20
26.1878906167
 10
-25.4517078536
 20
26.2192226436
 10
-25.4519672054
 20
26.2517951234
 10
-25.454332462
 20
26.2854032789
 10
-25.4587908814
 20
26.3198473433
 10
-25.4653243563
 20
26.3549221515
 10
-25.4738884131
 20
26.3904130822
 10
-25.484432081
 20
26.4261066357
 10
-25.4968991698
 20
26.4617917249
 10
-25.5112087056
 20
26.4972519766
 10
-25.5218939372
 20
26.5205441226
  0
LWPOLYLINE
  5
280
100
AcDbEntity
  8
RACCORDO
100
AcDbPolyline
 62
250
  6
CONTINUOUS
 90
29
 70
0
 10
-23.7416436034
 20
27.0903793196
 10
-23.7322523612
 20
27.096558546
 10
-23.7225959816
 20
27.1040315484
 10
-23.7131635394
 20
27.112620256
 10
-23.7039731295
 20
27.1224614739
 10
-23.6951136587
 20
27.1336505869
 10
-23.6867017709
 20
27.1462581953
 10
-23.6788293631
 20
27.1604085185
 10
-23.6716020639
 20
27.1762342609
 10
-23.6651833091
 20
27.1937544746
 10
-23.6597484174
 20
27.2128967931
 10
-23.6554188909
 20
27.2337314092
 10
-23.6523312361
 20
27.2562198697
 10
-23.6506182108
 20
27.2800475281
 10
-23.6503577069
 20
27.3051276989
 10
-23.651615533
 20
27.3313988426
 10
-23.6544023527
 20
27.3585005665
 10
-23.6587174227
 20
27.386249761
 10
-23.6645693834
 20
27.4145672604
 10
-23.6719053523
 20
27.4432145035
 10
-23.6806964448
 20
27.4720673102
 10
-23.6909046772
 20
27.5009686812
 10
-23.7024061378
 20
27.5296252027
 10
-23.715156274
 20
27.5579745697
 10
-23.7290509291
 20
27.5858054679
 10
-23.7437928085
 20
27.6126286816
 10
-23.7591732589
 20
27.6382377413
 10
-23.7751362669
 20
27.6626826644
 10
-23.7915675815
 20
27.6859022187
  0
LWPOLYLINE
  5
281
100
AcDbEntity
  8
RACCORDO
100
AcDbPolyline
 62
7
  6
CONTINUOUS
 90
24
 70
0
 10
-23.7417101128
 20
27.0903423932
 10
-23.737703164
 20
27.0928078093
 10
-23.712834808
 20
27.1098597104
 10
-23.6893569685
 20
27.1291127796
 10
-23.6674807886
 20
27.1504538758
 10
-23.64741183
 20
27.1737237907
 10
-23.6291728791
 20
27.1989709015
 10
-23.6129326863
 20
27.2261032624
 10
-23.5989091866
 20
27.254889446
 10
-23.5872136236
 20
27.285235639
 10
-23.5779673569
 20
27.3170432326
 10
-23.5713129923
 20
27.35005587
 10
-23.5673341502
 20
27.3840427361
 10
-23.5660877455
 20
27.4191055734
 10
-23.5676567169
 20
27.4549134289
 10
-23.5719951238
 20
27.4907309432
 10
-23.5790895644
 20
27.5266895609
 10
-23.588917788
 20
27.562645732
 10
-23.6011393807
 20
27.5975732139
 10
-23.615626862
 20
27.6314872752
 10
-23.6323677636
 20
27.6644785523
 10
-23.6508469073
 20
27.695720872
 10
-23.6709294758
 20
27.7252205567
 10
-23.6926507499
 20
27.7530816285
  0
LWPOLYLINE
  5
282
100
AcDbEntity
  8
RACCORDO
100
AcDbPolyline
 62
7
  6
CONTINUOUS
 90
11
 70
0
 10
-23.791566809
 20
27.6859012253
 10
-23.775147651
 20
27.6959631742
 10
-23.7602594707
 20
27.7058888307
 10
-23.747019664
 20
27.7156068528
 10
-23.7355461976
 20
27.7250563756
 10
-23.7259220682
 20
27.7341366614
 10
-23.7182130645
 20
27.7427120879
 10
-23.7124632504
 20
27.7507493655
 10
-23.7088401446
 20
27.7580984924
 10
-23.7074183195
 20
27.7644296221
 10
-23.7073867543
 20
27.7654121754
  0
LINE
  5
283
100
AcDbEntity
  8
DRAFT
100
AcDbLine
 62
7
  6
CONTINUOUS
 10
-25.5346446071
 20
26.0033721731
 11
-23.7416439677
 21
27.0903790987
  0
LINE
  5
284
100
AcDbEntity
  8
RACCORDO
100
AcDbLine
 62
7
  6
CONTINUOUS
 10
-23.7416732807
 20
27.0903613323
 11
-23.7416436034
 21
27.0903793196
  0
LINE
  5
285
100
AcDbEntity
  8
RACCORDO
100
AcDbLine
 62
7
  6
CONTINUOUS
 10
-25.5180700027
 20
26.6718569382
 11
-23.7915668099
 21
27.6859018051
  0
LINE
  5
286
100
AcDbEntity
  8
ASSI
100
AcDbLine
 62
250
  6
CONTINUOUS
 10
-25.8789564469
 20
30.314632853
 11
-25.6641110604
 21
30.4062125431
  0
LWPOLYLINE
  5
287
100
AcDbEntity
  8
ASSI
100
AcDbPolyline
 62
250
  6
CONTINUOUS
 90
5
 70
0
 10
22.2347941028
 20
-34.2386464188
 10
22.2330568514
 20
-34.2388119376
 10
22.2181549337
 20
-34.2385619022
 10
22.2026457428
 20
-34.2366933019
 10
22.1865656009
 20
-34.2331749579
  0
LWPOLYLINE
  5
288
100
AcDbEntity
  8
ASSI
100
AcDbPolyline
 62
250
  6
CONTINUOUS
 90
19
 70
0
 10
42.6049299739
 20
-61.6448074425
 10
42.6361847198
 20
-61.6606908365
 10
42.6696313923
 20
-61.6740288796
 10
42.7050259374
 20
-61.6847242466
 10
42.7421100876
 20
-61.6926988953
 10
42.780613247
 20
-61.6978946361
 10
42.8202544653
 20
-61.7002735565
 10
42.860744488
 20
-61.6998182978
 10
42.9017878669
 20
-61.6965321818
 10
42.9430851163
 20
-61.6904391865
 10
42.9843348977
 20
-61.6815837712
 10
43.0252362192
 20
-61.6700305521
 10
43.0654906312
 20
-61.6558638306
 10
43.1048044048
 20
-61.6391869786
 10
43.1428906745
 20
-61.6201216837
 10
43.1794715315
 20
-61.5988070618
 10
43.214280052
 20
-61.5753986416
 10
43.2470622444
 20
-61.55006723
 10
43.2775789027
 20
-61.5229976653
  0
LWPOLYLINE
  5
289
100
AcDbEntity
  8
ASSI
100
AcDbPolyline
 62
250
  6
CONTINUOUS
 90
6
 70
0
 10
-42.920578067
 20
-12.2612882765
 10
-42.9470336026
 20
-12.2400395292
 10
-42.9706638609
 20
-12.2166547071
 10
-42.9912964163
 20
-12.1913044454
 10
-43.008780717
 20
-12.1641737201
 10
-43.0229891834
 20
-12.1354604994
  0
LWPOLYLINE
  5
28A
100
AcDbEntity
  8
ASSI
100
AcDbPolyline
 62
250
  6
CONTINUOUS
 90
25
 70
0
 10
-26.5602080669
 20
30.3449592956
 10
-26.5570078655
 20
30.3932583446
 10
-26.5512007085
 20
30.439405904
 10
-26.5427867681
 20
30.4834047576
 10
-26.5317098768
 20
30.5254206978
 10
-26.518026503
 20
30.5652927899
 10
-26.5019059328
 20
30.6025363772
 10
-26.4833189351
 20
30.6371343382
 10
-26.4622953756
 20
30.6691141906
 10
-26.4390934839
 20
30.6980631688
 10
-26.413674553
 20
30.7239574313
 10
-26.3860781381
 20
30.7468347922
 10
-26.3566801051
 20
30.7663790047
 10
-26.3255467395
 20
30.7825512938
 10
-26.2926127128
 20
30.795406257
 10
-26.2580566
 20
30.8047698865
 10
-26.2217809441
 20
30.8106610595
 10
-26.1838840383
 20
30.8130747584
 10
-26.144838149
 20
30.8118022367
 10
-26.1045215573
 20
30.8067322092
 10
-26.0630566923
 20
30.7979877552
 10
-26.0212820617
 20
30.7857120128
 10
-25.9794773156
 20
30.7699551455
 10
-25.9373632116
 20
30.7506737684
 10
-25.8949398502
 20
30.7278695498
  0
LWPOLYLINE
  5
28B
100
AcDbEntity
  8
RACCORDO
100
AcDbPolyline
 62
7
  6
CONTINUOUS
 90
11
 70
0
 10
-23.7581405221
 20
20.9728301809
 10
-23.7512604466
 20
20.9773379695
 10
-23.7425278897
 20
20.9843592333
 10
-23.7346275077
 20
20.9923222925
 10
-23.7276609977
 20
21.0011306536
 10
-23.7217152479
 20
21.0106840228
 10
-23.7168753288
 20
21.0208569547
 10
-23.7132138164
 20
21.0314967876
 10
-23.7107719037
 20
21.0424728216
 10
-23.709578137
 20
21.0536402761
 10
-23.709451551
 20
21.0586518342
  0
LINE
  5
28C
100
AcDbEntity
  8
RACCORDO
100
AcDbLine
 62
250
  6
CONTINUOUS
 10
-24.2092737595
 20
20.803220645
 11
-23.7936277783
 21
21.0517363019
  0
LINE
  5
28D
100
AcDbEntity
  8
RACCORDO
100
AcDbLine
 62
7
  6
CONTINUOUS
 10
-24.0990451991
 20
20.769002532
 11
-23.7581419453
 21
20.9728293459
  0
LWPOLYLINE
  5
28E
100
AcDbEntity
  8
RACCORDO
100
AcDbPolyline
 62
7
  6
CONTINUOUS
 90
7
 70
0
 10
-24.0990450252
 20
20.769002636
 10
-24.0998356588
 20
20.768608317
 10
-24.1044769459
 20
20.7678183176
 10
-24.1113938744
 20
20.7684317753
 10
-24.120742112
 20
20.7704189242
 10
-24.1326692794
 20
20.7737829889
 10
-24.1472598674
 20
20.7787360428
  0
LWPOLYLINE
  5
28F
100
AcDbEntity
  8
ASSI
100
AcDbPolyline
 62
7
  6
CONTINUOUS
 90
14
 70
0
 10
42.7527854247
 20
-61.8800155718
 10
42.7725270285
 20
-61.8908601779
 10
42.8097767224
 20
-61.9084595841
 10
42.8491143858
 20
-61.9233299522
 10
42.8898872031
 20
-61.935052305
 10
42.9318659065
 20
-61.9434540567
 10
42.9747717047
 20
-61.9483760171
 10
43.0177817779
 20
-61.9496921208
 10
43.0605878077
 20
-61.9474314486
 10
43.102908201
 20
-61.9416490206
 10
43.1439738539
 20
-61.9325532909
 10
43.1835530456
 20
-61.9203635241
 10
43.2214461746
 20
-61.9053110293
 10
43.2430116111
 20
-61.8951497453
  0
LWPOLYLINE
  5
290
100
AcDbEntity
  8
ASSI
100
AcDbPolyline
 62
250
  6
CONTINUOUS
 90
19
 70
0
 10
42.6140656646
 20
-61.6690751456
 10
42.6453893946
 20
-61.6863857573
 10
42.6788265875
 20
-61.7012237506
 10
42.7141417044
 20
-61.7134846034
 10
42.7510859779
 20
-61.7230819475
 10
42.7893991643
 20
-61.729948177
 10
42.8288113773
 20
-61.7340349247
 10
42.8690449885
 20
-61.7353134025
 10
42.9098165835
 20
-61.7337746046
 10
42.9508389582
 20
-61.7294293705
 10
42.9918231419
 20
-61.7223083089
 10
43.032480433
 20
-61.7124615822
 10
43.0725244325
 20
-61.6999585529
 10
43.1116730617
 20
-61.684887295
 10
43.1496505489
 20
-61.6673539737
 10
43.1861893723
 20
-61.6474820976
 10
43.2210321443
 20
-61.6254116487
 10
43.2539334248
 20
-61.6012980959
 10
43.2846614498
 20
-61.5753113006
  0
LINE
  5
291
100
AcDbEntity
  8
ASSI
100
AcDbLine
 62
250
  6
CONTINUOUS
 10
42.6140656646
 20
-61.6690751456
 11
-42.8812401888
 21
-12.3051570537
  0
LWPOLYLINE
  5
292
100
AcDbEntity
  8
ASSI
100
AcDbPolyline
 62
250
  6
CONTINUOUS
 90
11
 70
0
 10
42.7527956944
 20
-61.8800212624
 10
42.7491298723
 20
-61.8778305969
 10
42.7321807423
 20
-61.8657809459
 10
42.7157918809
 20
-61.850921697
 10
42.6997880813
 20
-61.8331461617
 10
42.6841630132
 20
-61.8123997124
 10
42.6690579081
 20
-61.7888049211
 10
42.6544944068
 20
-61.7625502655
 10
42.6404677072
 20
-61.7337924882
 10
42.6269910542
 20
-61.7025982147
 10
42.6140656646
 20
-61.6690751456
  0
LWPOLYLINE
  5
293
100
AcDbEntity
  8
ASSI
100
AcDbPolyline
 62
250
  6
CONTINUOUS
 90
7
 70
0
 10
-42.8812401889
 20
-12.3051570536
 10
-42.9091269664
 20
-12.2882801401
 10
-42.9344832876
 20
-12.2691714697
 10
-42.9571305263
 20
-12.2479656377
 10
-42.9769091378
 20
-12.224812015
 10
-42.9936797841
 20
-12.1998736899
 10
-43.0073243169
 20
-12.1733263198
  0
LINE
  5
294
100
AcDbEntity
  8
ASSI
100
AcDbLine
 62
250
  6
CONTINUOUS
 10
-42.8914902952
 20
-12.280245901
 11
-42.920578067
 21
-12.2612882765
  0
LINE
  5
295
100
AcDbEntity
  8
ASSI
100
AcDbLine
 62
250
  6
CONTINUOUS
 10
-25.8781382587
 20
-6.2184601885
 11
-25.9138093367
 21
-5.2427278006
  0
LINE
  5
296
100
AcDbEntity
  8
ASSI
100
AcDbLine
 62
250
  6
CONTINUOUS
 10
-26.5602080669
 20
-6.199154301
 11
-26.5951126972
 21
-5.2437991432
  0
LINE
  5
297
100
AcDbEntity
  8
ASSI
100
AcDbLine
 62
7
  6
CONTINUOUS
 10
-25.3995133628
 20
-5.9199837645
 11
-25.4491386604
 21
-4.5290177408
  0
LWPOLYLINE
  5
298
100
AcDbEntity
  8
RACCORDO
100
AcDbPolyline
 62
7
  6
CONTINUOUS
 90
13
 70
0
 10
-23.7094417274
 20
6.1806122743
 10
-23.7102331707
 20
6.2046385627
 10
-23.7126473456
 20
6.2281577904
 10
-23.7166889296
 20
6.2508607197
 10
-23.7223997971
 20
6.2727540047
 10
-23.7297951369
 20
6.2937124175
 10
-23.7388481689
 20
6.3135877234
 10
-23.7495559908
 20
6.3323128012
 10
-23.7618686819
 20
6.3497009227
 10
-23.7756945881
 20
6.3655516763
 10
-23.7909153132
 20
6.3797556334
 10
-23.8072916049
 20
6.392158172
 10
-23.819300511
 20
6.399695578
  0
LINE
  5
299
100
AcDbEntity
  8
ASSI
100
AcDbLine
 62
250
  6
CONTINUOUS
 10
-26.5951126972
 20
-5.2437991432
 11
-26.6319637848
 21
-4.1277845838
  0
LINE
  5
29A
100
AcDbEntity
  8
ASSI
100
AcDbLine
 62
250
  6
CONTINUOUS
 10
-25.9138093367
 20
-5.2427278006
 11
-25.9506011266
 21
-4.1282110689
  0
LINE
  5
29B
100
AcDbEntity
  8
ASSI
100
AcDbLine
 62
7
  6
CONTINUOUS
 10
-25.4491386604
 20
-4.5290177408
 11
-25.4926427358
 21
-3.1351344426
  0
LINE
  5
29C
100
AcDbEntity
  8
ASSI
100
AcDbLine
 62
250
  6
CONTINUOUS
 10
-26.6319637848
 20
-4.1277845838
 11
-26.6625277617
 21
-3.0976006535
  0
LINE
  5
29D
100
AcDbEntity
  8
ASSI
100
AcDbLine
 62
250
  6
CONTINUOUS
 10
-25.9506011266
 20
-4.1282110689
 11
-25.9811312404
 21
-3.09931129
  0
LINE
  5
29E
100
AcDbEntity
  8
ASSI
100
AcDbLine
 62
7
  6
CONTINUOUS
 10
-25.4926427358
 20
-3.1351344426
 11
-25.5303111902
 21
-1.7395104574
  0
LINE
  5
29F
100
AcDbEntity
  8
ASSI
100
AcDbLine
 62
250
  6
CONTINUOUS
 10
-26.6625277617
 20
-3.0976006535
 11
-26.6935595831
 21
-1.9269986832
  0
LINE
  5
2A0
100
AcDbEntity
  8
ASSI
100
AcDbLine
 62
250
  6
CONTINUOUS
 10
-25.9811312404
 20
-3.09931129
 11
-26.0121194848
 21
-1.9300566628
  0
LINE
  5
2A1
100
AcDbEntity
  8
ASSI
100
AcDbLine
 62
7
  6
CONTINUOUS
 10
-25.5303111902
 20
-1.7395104574
 11
-25.5632596776
 21
-0.3237674625
  0
LINE
  5
2A2
100
AcDbEntity
  8
ASSI
100
AcDbLine
 62
250
  6
CONTINUOUS
 10
-26.6935595831
 20
-1.9269986832
 11
-26.7243833608
 21
-0.5991992923
  0
LINE
  5
2A3
100
AcDbEntity
  8
ASSI
100
AcDbLine
 62
250
  6
CONTINUOUS
 10
-26.0121194848
 20
-1.9300566628
 11
-26.04290332
 21
-0.6036660829
  0
LINE
  5
2A4
100
AcDbEntity
  8
ASSI
100
AcDbLine
 62
250
  6
CONTINUOUS
 10
-26.7243833608
 20
-0.5991992923
 11
-26.7468472832
 21
0.5098993195
  0
LINE
  5
2A5
100
AcDbEntity
  8
ASSI
100
AcDbLine
 62
250
  6
CONTINUOUS
 10
-26.04290332
 20
-0.6036660829
 11
-26.0653443658
 21
0.504339747
  0
LINE
  5
2A6
100
AcDbEntity
  8
ASSI
100
AcDbLine
 62
7
  6
CONTINUOUS
 10
-25.5632596776
 20
-0.3237674625
 11
-25.5919355925
 21
1.1240585579
  0
LINE
  5
2A7
100
AcDbEntity
  8
ASSI
100
AcDbLine
 62
250
  6
CONTINUOUS
 10
-26.7468472832
 20
0.5098993195
 11
-26.7683437812
 21
1.7283608687
  0
LINE
  5
2A8
100
AcDbEntity
  8
ASSI
100
AcDbLine
 62
250
  6
CONTINUOUS
 10
-26.0653443658
 20
0.504339747
 11
-26.0868197414
 21
1.7216808911
  0
LINE
  5
2A9
100
AcDbEntity
  8
ASSI
100
AcDbLine
 62
7
  6
CONTINUOUS
 10
-25.5919355925
 20
1.1240585579
 11
-25.6165768247
 21
2.6114446975
  0
LWPOLYLINE
  5
2AA
100
AcDbEntity
  8
RACCORDO
100
AcDbPolyline
 62
250
  6
CONTINUOUS
 90
5
 70
0
 10
-23.9355661206
 20
-5.5119970794
 10
-23.9352566644
 20
-5.52984418
 10
-23.9351454923
 20
-5.5388053833
 10
-23.9350892855
 20
-5.5478065079
 10
-23.9349828564
 20
-5.7281640267
  0
LINE
  5
2AB
100
AcDbEntity
  8
ASSI
100
AcDbLine
 62
250
  6
CONTINUOUS
 10
-26.7683437812
 20
1.7283608687
 11
-26.7886064404
 21
3.0822785617
  0
LINE
  5
2AC
100
AcDbEntity
  8
ASSI
100
AcDbLine
 62
250
  6
CONTINUOUS
 10
-26.0868197414
 20
1.7216808911
 11
-26.1070606748
 21
3.0744421162
  0
LINE
  5
2AD
100
AcDbEntity
  8
ASSI
100
AcDbLine
 62
7
  6
CONTINUOUS
 10
-25.6165768247
 20
2.6114446975
 11
-25.6374317871
 21
4.153896359
  0
LINE
  5
2AE
100
AcDbEntity
  8
ASSI
100
AcDbLine
 62
250
  6
CONTINUOUS
 10
-26.7886064404
 20
3.0822785617
 11
-26.8072155705
 21
4.6075387162
  0
LINE
  5
2AF
100
AcDbEntity
  8
ASSI
100
AcDbLine
 62
250
  6
CONTINUOUS
 10
-26.1070606748
 20
3.0744421162
 11
-26.1256470115
 21
4.5984979939
  0
LINE
  5
2B0
100
AcDbEntity
  8
ASSI
100
AcDbLine
 62
7
  6
CONTINUOUS
 10
-25.6374317871
 20
4.153896359
 11
-25.6542877108
 21
5.7363371663
  0
LINE
  5
2B1
100
AcDbEntity
  8
ASSI
100
AcDbLine
 62
250
  6
CONTINUOUS
 10
-26.1256470115
 20
4.5984979939
 11
-26.1367303105
 21
5.7239165475
  0
LINE
  5
2B2
100
AcDbEntity
  8
ASSI
100
AcDbLine
 62
250
  6
CONTINUOUS
 10
-26.8072155705
 20
4.6075387162
 11
-26.8233020476
 21
6.3307525921
  0
LINE
  5
2B3
100
AcDbEntity
  8
ASSI
100
AcDbLine
 62
250
  6
CONTINUOUS
 10
-26.1367303105
 20
5.7239165475
 11
-26.1463357367
 21
6.9401144497
  0
LINE
  5
2B4
100
AcDbEntity
  8
ASSI
100
AcDbLine
 62
7
  6
CONTINUOUS
 10
-25.6542877108
 20
5.7363371663
 11
-25.6671104976
 21
7.3475308715
  0
LINE
  5
2B5
100
AcDbEntity
  8
ASSI
100
AcDbLine
 62
250
  6
CONTINUOUS
 10
-26.8233020476
 20
6.3307525921
 11
-26.8320124248
 21
7.5925613695
  0
LINE
  5
2B6
100
AcDbEntity
  8
ASSI
100
AcDbLine
 62
250
  6
CONTINUOUS
 10
-26.1463357367
 20
6.9401144497
 11
-26.1540222757
 21
8.2448155804
  0
LINE
  5
2B7
100
AcDbEntity
  8
ASSI
100
AcDbLine
 62
7
  6
CONTINUOUS
 10
-25.6671104976
 20
7.3475308715
 11
-25.6758765723
 21
8.9644043236
  0
LINE
  5
2B8
100
AcDbEntity
  8
ASSI
100
AcDbLine
 62
250
  6
CONTINUOUS
 10
-26.8320124248
 20
7.5925613695
 11
-26.8386622255
 21
8.9430853271
  0
LINE
  5
2B9
100
AcDbEntity
  8
ASSI
100
AcDbLine
 62
250
  6
CONTINUOUS
 10
-26.1540222757
 20
8.2448155804
 11
-26.1595213324
 21
9.6388353431
  0
LWPOLYLINE
  5
2BA
100
AcDbEntity
  8
ASSI
100
AcDbPolyline
 62
250
  6
CONTINUOUS
 90
19
 70
0
 10
-25.8949398502
 20
-7.2846292786
 10
-25.8950380999
 20
-7.249606982
 10
-25.8925278511
 20
-7.213198346
 10
-25.8874276403
 20
-7.1756722048
 10
-25.8797751277
 20
-7.1373056435
 10
-25.8696268193
 20
-7.0983819525
 10
-25.8570576489
 20
-7.0591885352
 10
-25.8421604257
 20
-7.0200147867
 10
-25.8250451485
 20
-6.9811499566
 10
-25.805838193
 20
-6.9428810125
 10
-25.7846813798
 20
-6.9054905229
 10
-25.7617309266
 20
-6.8692545695
 10
-25.7371562937
 20
-6.834440708
 10
-25.7111389349
 20
-6.8013059948
 10
-25.6838709562
 20
-6.7700950879
 10
-25.6555536969
 20
-6.7410384387
 10
-25.6263962444
 20
-6.7143505935
 10
-25.5966138903
 20
-6.6902286084
 10
-25.5664265403
 20
-6.6688505934
  0
LINE
  5
2BB
100
AcDbEntity
  8
ASSI
100
AcDbLine
 62
7
  6
CONTINUOUS
 10
-25.6758765723
 20
8.9644043236
 11
-25.6809731912
 21
10.5645483294
  0
LINE
  5
2BC
100
AcDbEntity
  8
ASSI
100
AcDbLine
 62
250
  6
CONTINUOUS
 10
-26.8386622255
 20
8.9430853271
 11
-26.8428945626
 21
10.3809073149
  0
LINE
  5
2BD
100
AcDbEntity
  8
ASSI
100
AcDbLine
 62
250
  6
CONTINUOUS
 10
-26.1595213324
 20
9.6388353431
 11
-26.1623457621
 21
11.1199240961
  0
LINE
  5
2BE
100
AcDbEntity
  8
RACCORDO
100
AcDbLine
 62
250
  6
CONTINUOUS
 10
-23.7886286712
 20
-5.8142856405
 11
-23.7915618643
 21
-0.7002779572
  0
LINE
  5
2BF
100
AcDbEntity
  8
RACCORDO
100
AcDbLine
 62
7
  6
CONTINUOUS
 10
-23.7043073456
 20
-5.8629717171
 11
-23.7073687509
 21
-0.5690650487
  0
LINE
  5
2C0
100
AcDbEntity
  8
RACCORDO
100
AcDbLine
 62
250
  6
CONTINUOUS
 10
-23.7918302464
 20
-0.0741339834
 11
-23.7936277786
 21
5.947146505
  0
LINE
  5
2C1
100
AcDbEntity
  8
RACCORDO
100
AcDbLine
 62
7
  6
CONTINUOUS
 10
-23.7076151953
 20
0.0053031637
 11
-23.7094516473
 21
6.1809136096
  0
LINE
  5
2C2
100
AcDbEntity
  8
RACCORDO
100
AcDbLine
 62
250
  6
CONTINUOUS
 10
-24.2092737602
 20
5.6986308487
 11
-24.2092737594
 21
20.803220645
  0
LINE
  5
2C3
100
AcDbEntity
  8
RACCORDO
100
AcDbLine
 62
7
  6
CONTINUOUS
 10
-24.0970463929
 20
6.0501634882
 11
-24.0970463858
 21
20.7726397731
  0
LINE
  5
2C4
100
AcDbEntity
  8
ASSI
100
AcDbLine
 62
250
  6
CONTINUOUS
 10
-26.8428945626
 20
10.3809073149
 11
-26.8442539842
 21
12.3565682968
  0
LINE
  5
2C5
100
AcDbEntity
  8
ASSI
100
AcDbLine
 62
7
  6
CONTINUOUS
 10
-25.6809731912
 20
10.5645483294
 11
-25.6824185056
 21
12.292263246
  0
LINE
  5
2C6
100
AcDbEntity
  8
RACCORDO
100
AcDbLine
 62
250
  6
CONTINUOUS
 10
-23.7936277743
 20
21.0517363043
 11
-23.7918346798
 21
27.0599509715
  0
LINE
  5
2C7
100
AcDbEntity
  8
RACCORDO
100
AcDbLine
 62
250
  6
CONTINUOUS
 10
-23.7907791575
 20
29.3245741807
 11
-23.7915668099
 21
27.6859018051
  0
LINE
  5
2C8
100
AcDbEntity
  8
RACCORDO
100
AcDbLine
 62
7
  6
CONTINUOUS
 10
-23.7073867558
 20
27.7654088161
 11
-23.7066656993
 21
29.2760081241
  0
LINE
  5
2C9
100
AcDbEntity
  8
RACCORDO
100
AcDbLine
 62
7
  6
CONTINUOUS
 10
-23.7094516476
 20
21.0586533271
 11
-23.7076632515
 21
27.1141006601
  0
LINE
  5
2CA
100
AcDbEntity
  8
ASSI
100
AcDbLine
 62
250
  6
CONTINUOUS
 10
-26.1623457621
 20
11.1199240961
 11
-26.1623598117
 21
12.8263935723
  0
LINE
  5
2CB
100
AcDbEntity
  8
ASSI
100
AcDbLine
 62
7
  6
CONTINUOUS
 10
-25.6824185056
 20
12.292263246
 11
-25.68097364
 21
13.7092391749
  0
LINE
  5
2CC
100
AcDbEntity
  8
ASSI
100
AcDbLine
 62
250
  6
CONTINUOUS
 10
-26.8442539842
 20
12.3565682968
 11
-26.8418031407
 21
13.9171174522
  0
LWPOLYLINE
  5
2CD
100
AcDbEntity
  8
ASSI
100
AcDbPolyline
 62
250
  6
CONTINUOUS
 90
11
 70
0
 10
-25.8949398502
 20
30.7278695498
 10
-25.8950381018
 20
30.6927338442
 10
-25.8925278613
 20
30.6592240172
 10
-25.8874276638
 20
30.6275874974
 10
-25.8797751679
 20
30.5980578811
 10
-25.8696268778
 20
30.5708532081
 10
-25.857057726
 20
30.5461743511
 10
-25.8421605202
 20
30.5242035328
 10
-25.8250452577
 20
30.5051029806
 10
-25.8058383135
 20
30.4890137284
 10
-25.7918418527
 20
30.4799627217
  0
LINE
  5
2CE
100
AcDbEntity
  8
ASSI
100
AcDbLine
 62
250
  6
CONTINUOUS
 10
-26.1623598117
 20
12.8263935723
 11
-26.1584671778
 21
14.4917688167
  0
LINE
  5
2CF
100
AcDbEntity
  8
ASSI
100
AcDbLine
 62
7
  6
CONTINUOUS
 10
-25.68097364
 20
13.7092391749
 11
-25.6758779596
 21
15.3151204391
  0
LINE
  5
2D0
100
AcDbEntity
  8
ASSI
100
AcDbLine
 62
250
  6
CONTINUOUS
 10
-26.8418031407
 20
13.9171174522
 11
-26.8346995248
 21
15.7531107677
  0
LINE
  5
2D1
100
AcDbEntity
  8
ASSI
100
AcDbLine
 62
250
  6
CONTINUOUS
 10
-26.1584671778
 20
14.4917688167
 11
-26.1494279192
 21
16.3908669834
  0
LINE
  5
2D2
100
AcDbEntity
  8
ASSI
100
AcDbLine
 62
7
  6
CONTINUOUS
 10
-25.6758779596
 20
15.3151204391
 11
-25.6671131351
 21
16.9420510905
  0
LINE
  5
2D3
100
AcDbEntity
  8
ASSI
100
AcDbLine
 62
250
  6
CONTINUOUS
 10
-26.8346995248
 20
15.7531107677
 11
-26.8266002142
 21
17.0705428717
  0
LINE
  5
2D4
100
AcDbEntity
  8
ASSI
100
AcDbLine
 62
250
  6
CONTINUOUS
 10
-26.1494279192
 20
16.3908669834
 11
-26.139849613
 21
17.7250256284
  0
LINE
  5
2D5
100
AcDbEntity
  8
ASSI
100
AcDbLine
 62
7
  6
CONTINUOUS
 10
-25.6671131351
 20
16.9420510905
 11
-25.6542912482
 21
18.568065849
  0
LINE
  5
2D6
100
AcDbEntity
  8
ASSI
100
AcDbLine
 62
250
  6
CONTINUOUS
 10
-26.8266002142
 20
17.0705428717
 11
-26.8155101449
 21
18.4219206551
  0
LINE
  5
2D7
100
AcDbEntity
  8
ASSI
100
AcDbLine
 62
250
  6
CONTINUOUS
 10
-26.139849613
 20
17.7250256284
 11
-26.1272921158
 21
19.0797422277
  0
LINE
  5
2D8
100
AcDbEntity
  8
ASSI
100
AcDbLine
 62
250
  6
CONTINUOUS
 10
-26.8155101449
 20
18.4219206551
 11
-26.8014748265
 21
19.7690483088
  0
LINE
  5
2D9
100
AcDbEntity
  8
ASSI
100
AcDbLine
 62
7
  6
CONTINUOUS
 10
-25.6542912482
 20
18.568065849
 11
-25.637435415
 21
20.1700483279
  0
LINE
  5
2DA
100
AcDbEntity
  8
ASSI
100
AcDbLine
 62
250
  6
CONTINUOUS
 10
-26.1272921158
 20
19.0797422277
 11
-26.1118060063
 21
20.4168889296
  0
LINE
  5
2DB
100
AcDbEntity
  8
ASSI
100
AcDbLine
 62
250
  6
CONTINUOUS
 10
-26.8014748265
 20
19.7690483088
 11
-26.7845723719
 21
21.0944049592
  0
LINE
  5
2DC
100
AcDbEntity
  8
ASSI
100
AcDbLine
 62
7
  6
CONTINUOUS
 10
-25.637435415
 20
20.1700483279
 11
-25.6165796914
 21
21.7367004892
  0
LINE
  5
2DD
100
AcDbEntity
  8
ASSI
100
AcDbLine
 62
250
  6
CONTINUOUS
 10
-26.1118060063
 20
20.4168889296
 11
-26.0936148629
 21
21.7212145624
  0
LINE
  5
2DE
100
AcDbEntity
  8
ASSI
100
AcDbLine
 62
250
  6
CONTINUOUS
 10
-26.7845723719
 20
21.0944049592
 11
-26.765047061
 21
22.3800463734
  0
LINE
  5
2DF
100
AcDbEntity
  8
ASSI
100
AcDbLine
 62
250
  6
CONTINUOUS
 10
-26.0936148629
 20
21.7212145624
 11
-26.0727908861
 21
22.9879796219
  0
LINE
  5
2E0
100
AcDbEntity
  8
ASSI
100
AcDbLine
 62
7
  6
CONTINUOUS
 10
-25.6165796914
 20
21.7367004892
 11
-25.5919370897
 21
23.2526531376
  0
LINE
  5
2E1
100
AcDbEntity
  8
ASSI
100
AcDbLine
 62
250
  6
CONTINUOUS
 10
-26.765047061
 20
22.3800463734
 11
-26.7429993363
 21
23.6251342405
  0
LINE
  5
2E2
100
AcDbEntity
  8
ASSI
100
AcDbLine
 62
250
  6
CONTINUOUS
 10
-26.0727908861
 20
22.9879796219
 11
-26.0496277228
 21
24.2092896802
  0
LINE
  5
2E3
100
AcDbEntity
  8
ASSI
100
AcDbLine
 62
7
  6
CONTINUOUS
 10
-25.5919370897
 20
23.2526531376
 11
-25.5632599227
 21
24.7336697784
  0
LINE
  5
2E4
100
AcDbEntity
  8
ASSI
100
AcDbLine
 62
250
  6
CONTINUOUS
 10
-26.7429993363
 20
23.6251342405
 11
-26.7181688806
 21
24.8462213643
  0
LINE
  5
2E5
100
AcDbEntity
  8
ASSI
100
AcDbLine
 62
250
  6
CONTINUOUS
 10
-26.0496277228
 20
24.2092896802
 11
-26.0226248916
 21
25.4494970747
  0
LINE
  5
2E6
100
AcDbEntity
  8
ASSI
100
AcDbLine
 62
7
  6
CONTINUOUS
 10
-25.5632599227
 20
24.7336697784
 11
-25.530310608
 21
26.1874970647
  0
LINE
  5
2E7
100
AcDbEntity
  8
ASSI
100
AcDbLine
 62
250
  6
CONTINUOUS
 10
-26.7181688806
 20
24.8462213643
 11
-26.6889725257
 21
26.1063821793
  0
LINE
  5
2E8
100
AcDbEntity
  8
ASSI
100
AcDbLine
 62
250
  6
CONTINUOUS
 10
-26.0226248916
 20
25.4494970747
 11
-25.9914549014
 21
26.7132111198
  0
LINE
  5
2E9
100
AcDbEntity
  8
ASSI
100
AcDbLine
 62
250
  6
CONTINUOUS
 10
-26.6889725257
 20
26.1063821793
 11
-26.6556532459
 21
27.3743971555
  0
LINE
  5
2EA
100
AcDbEntity
  8
ASSI
100
AcDbLine
 62
7
  6
CONTINUOUS
 10
-25.530310608
 20
26.1874970647
 11
-25.4926422515
 21
27.6266215644
  0
LINE
  5
2EB
100
AcDbEntity
  8
ASSI
100
AcDbLine
 62
250
  6
CONTINUOUS
 10
-25.9914549014
 20
26.7132111198
 11
-25.9559910129
 21
27.9815126036
  0
LINE
  5
2EC
100
AcDbEntity
  8
ASSI
100
AcDbLine
 62
250
  6
CONTINUOUS
 10
-26.6556532459
 20
27.3743971555
 11
-26.6186440595
 21
28.6237907274
  0
LINE
  5
2ED
100
AcDbEntity
  8
ASSI
100
AcDbLine
 62
7
  6
CONTINUOUS
 10
-25.4926422515
 20
27.6266215644
 11
-25.4491384268
 21
29.0707197627
  0
LINE
  5
2EE
100
AcDbEntity
  8
ASSI
100
AcDbLine
 62
250
  6
CONTINUOUS
 10
-25.9559910129
 20
27.9815126036
 11
-25.9183230968
 21
29.1863331345
  0
LINE
  5
2EF
100
AcDbEntity
  8
RACCORDO
100
AcDbLine
 62
250
  6
CONTINUOUS
 10
-23.7527984931
 20
6.1441894442
 11
-23.7538696099
 21
6.1123618514
  0
LWPOLYLINE
  5
2F0
100
AcDbEntity
  8
ASSI
100
AcDbPolyline
 62
250
  6
CONTINUOUS
 90
3
 70
0
 10
-26.6186440595
 20
28.6237907274
 10
-26.5800941634
 20
29.788602064
 10
-26.5602080669
 20
30.3449592956
  0
LINE
  5
2F1
100
AcDbEntity
  8
ASSI
100
AcDbLine
 62
7
  6
CONTINUOUS
 10
-25.4491384268
 20
29.0707197627
 11
-25.40870406
 21
30.258743742
  0
LWPOLYLINE
  5
2F2
100
AcDbEntity
  8
ASSI
100
AcDbPolyline
 62
250
  6
CONTINUOUS
 90
12
 70
0
 10
-25.9183230968
 20
29.1863331345
 10
-25.8781588041
 20
30.3356724638
 10
-25.876046871
 20
30.3559749775
 10
-25.8726339052
 20
30.375454709
 10
-25.8679394405
 20
30.3940265945
 10
-25.8619855019
 20
30.4116166241
 10
-25.8547947571
 20
30.4281602921
 10
-25.8463933904
 20
30.4435907267
 10
-25.8368188865
 20
30.4578400621
 10
-25.8261151069
 20
30.4708475934
 10
-25.8143161452
 20
30.4825641353
 10
-25.807292022
 20
30.4882364868
  0
LWPOLYLINE
  5
2F3
100
AcDbEntity
  8
RACCORDO
100
AcDbPolyline
 62
250
  6
CONTINUOUS
 90
17
 70
0
 10
-23.7094515512
 20
21.0586503171
 10
-23.7095436278
 20
21.0573051008
 10
-23.7101039914
 20
21.055223311
 10
-23.7112028034
 20
21.0532947948
 10
-23.712874405
 20
21.0515440099
 10
-23.7151500915
 20
21.0499876218
 10
-23.7180661073
 20
21.0486367845
 10
-23.7216727385
 20
21.0475131919
 10
-23.7260100365
 20
21.0466367793
 10
-23.7311205193
 20
21.046026849
 10
-23.7370742846
 20
21.0457146863
 10
-23.7439209677
 20
21.0457263786
 10
-23.7517062533
 20
21.0460852591
 10
-23.7605085614
 20
21.0468279678
 10
-23.7703942568
 20
21.0479910305
 10
-23.7814140197
 20
21.0496122981
 10
-23.7936277783
 20
21.0517363019
  0
LWPOLYLINE
  5
2F4
100
AcDbEntity
  8
RACCORDO
100
AcDbPolyline
 62
250
  6
CONTINUOUS
 90
6
 70
0
 10
-23.7538696099
 20
6.1123618514
 10
-23.7572541539
 20
6.079597498
 10
-23.7628354778
 20
6.046417235
 10
-23.7706429761
 20
6.0131600621
 10
-23.7808754005
 20
5.9799820052
 10
-23.7936277783
 20
5.9471465052
  0
LWPOLYLINE
  5
2F5
100
AcDbEntity
  8
RACCORDO
100
AcDbPolyline
 62
7
  6
CONTINUOUS
 90
11
 70
0
 10
-24.2092737594
 20
5.6986308483
 10
-24.1854003394
 20
5.7394750128
 10
-24.1648577853
 20
5.7798672939
 10
-24.1474297706
 20
5.8194745699
 10
-24.1328646933
 20
5.8578678599
 10
-24.12094654
 20
5.8949281568
 10
-24.1115835233
 20
5.9308478627
 10
-24.1046279631
 20
5.9655886159
 10
-24.0999344898
 20
5.9988253106
 10
-24.0974902957
 20
6.0303511727
 10
-24.0970593504
 20
6.050166306
  0
LWPOLYLINE
  5
2F6
100
AcDbEntity
  8
RACCORDO
100
AcDbPolyline
 62
250
  6
CONTINUOUS
 90
10
 70
0
 10
-23.7936277783
 20
5.9471465052
 10
-23.7743330741
 20
5.9758274215
 10
-23.7575877952
 20
6.0047489992
 10
-23.7433577738
 20
6.0338174434
 10
-23.7315552768
 20
6.0630026019
 10
-23.7222494187
 20
6.0920119586
 10
-23.7155304033
 20
6.1203670645
 10
-23.7113157702
 20
6.1477747974
 10
-23.7095205134
 20
6.1741037234
 10
-23.7094417208
 20
6.180642258
  0
LWPOLYLINE
  5
2F7
100
AcDbEntity
  8
RACCORDO
100
AcDbPolyline
 62
250
  6
CONTINUOUS
 90
10
 70
0
 10
-24.2099680368
 20
13.2513266138
 10
-24.187089801
 20
13.2662427801
 10
-24.1665233182
 20
13.2822419723
 10
-24.1484216551
 20
13.299205116
 10
-24.1329195336
 20
13.3170059627
 10
-24.1201323286
 20
13.3355120292
 10
-24.1101552093
 20
13.3545855836
 10
-24.1030624305
 20
13.3740846705
 10
-24.0989067805
 20
13.3938641677
 10
-24.097703957
 20
13.4117614286
  0
LINE
  5
2F8
100
AcDbEntity
  8
RACCORDO
100
AcDbLine
 62
250
  6
CONTINUOUS
 10
-24.2099680368
 20
13.2513266138
 11
-25.6823886022
 21
12.3709630818
  0
LWPOLYLINE
  5
2F9
100
AcDbEntity
  8
RACCORDO
100
AcDbPolyline
 62
250
  6
CONTINUOUS
 90
3
 70
0
 10
11.5725871492
 20
-25.7840231793
 10
11.5868876941
 20
-25.7806983714
 10
11.6019211811
 20
-25.7791817166
  0
LWPOLYLINE
  5
2FA
100
AcDbEntity
  8
RACCORDO
100
AcDbPolyline
 62
250
  6
CONTINUOUS
 90
7
 70
0
 10
11.6019211811
 20
-25.7791817166
 10
11.6175884404
 20
-25.7794832153
 10
11.6337861304
 20
-25.7816008743
 10
11.6504074199
 20
-25.7855207254
 10
11.6673426759
 20
-25.7912169146
 10
11.6844801863
 20
-25.7986518684
 10
11.7017069086
 20
-25.807776545
  0
LWPOLYLINE
  5
2FB
100
AcDbEntity
  8
ASSI
100
AcDbPolyline
 62
250
  6
CONTINUOUS
 90
4
 70
0
 10
22.1865656009
 20
-34.2331749579
 10
22.1700176625
 20
-34.2279994011
 10
22.1531779233
 20
-34.2212392192
 10
22.1361690965
 20
-34.2129594459
  0
LWPOLYLINE
  5
2FC
100
AcDbEntity
  8
CURVE
100
AcDbPolyline
 62
250
  6
CONTINUOUS
 90
36
 70
0
 10
0.3899430537
 20
-24.6545702642
 10
0.4206979372
 20
-24.667434534
 10
0.4509769207
 20
-24.6802540701
 10
0.4807676949
 20
-24.6930298459
 10
0.5100579502
 20
-24.705762835
 10
0.5388353775
 20
-24.718454011
 10
0.5670965194
 20
-24.7311076319
 10
0.5948733274
 20
-24.7437410935
 10
0.622206605
 20
-24.756375076
 10
0.6491371559
 20
-24.7690302598
 10
0.6757057834
 20
-24.7817273251
 10
0.7084641575
 20
-24.7976868883
 10
0.7407667717
 20
-24.8137715802
 10
0.7726596155
 20
-24.8300087764
 10
0.8041886786
 20
-24.8464258529
 10
0.8354024257
 20
-24.863052894
 10
0.8663592217
 20
-24.879930819
 10
0.8971199063
 20
-24.8971032553
 10
0.9277453197
 20
-24.9146138309
 10
0.9684561765
 20
-24.9385528489
 10
1.0090723579
 20
-24.9632150809
 10
1.0496315109
 20
-24.988645044
 10
1.0800330952
 20
-25.0082515842
 10
1.1104216444
 20
-25.0283545804
 10
1.1407950249
 20
-25.0489935986
 10
1.1711511037
 20
-25.0702082051
 10
1.1954197756
 20
-25.0876221816
 10
1.2196611152
 20
-25.1054577908
 10
1.2438602286
 20
-25.1237429664
 10
1.2680022221
 20
-25.1425056424
 10
1.2920722016
 20
-25.1617737524
 10
1.3160562664
 20
-25.1815760411
 10
1.339944487
 20
-25.2019444959
 10
1.3637279272
 20
-25.2229119151
 10
1.3873976506
 20
-25.2445110969
 10
1.4109447208
 20
-25.2667748396
  0
LINE
  5
2FD
100
AcDbEntity
  8
CURVE
100
AcDbLine
 62
250
  6
CONTINUOUS
 10
1.9559040428
 20
-27.674621844
 11
1.5584162765
 21
-27.4451173894
  0
LINE
  5
2FE
100
AcDbEntity
  8
CURVE
100
AcDbLine
 62
250
  6
CONTINUOUS
 10
0.9255979378
 20
-27.0797360118
 11
0.5140218096
 21
-26.8420971135
  0
LINE
  5
2FF
100
AcDbEntity
  8
CURVE
100
AcDbLine
 62
250
  6
CONTINUOUS
 10
-5.0976665792
 20
-23.6019782998
 11
-4.7334995158
 21
-23.8122437982
  0
LINE
  5
300
100
AcDbEntity
  8
CURVE
100
AcDbLine
 62
250
  6
CONTINUOUS
 10
-3.3080959886
 20
-24.6352539302
 11
-2.9127603655
 21
-24.8635157644
  0
LINE
  5
301
100
AcDbEntity
  8
CURVE
100
AcDbLine
 62
250
  6
CONTINUOUS
 10
-2.3388046196
 20
-25.1949106187
 11
-2.2808480265
 21
-25.2283740292
  0
LINE
  5
302
100
AcDbEntity
  8
CURVE
100
AcDbLine
 62
250
  6
CONTINUOUS
 10
-1.7046054973
 20
-25.5610892435
 11
-1.3003483078
 21
-25.7945022781
  0
LINE
  5
303
100
AcDbEntity
  8
CURVE
100
AcDbLine
 62
250
  6
CONTINUOUS
 10
-3.5305553175
 20
-24.5068087018
 11
-3.9437941773
 21
-24.2682097633
  0
LINE
  5
304
100
AcDbEntity
  8
CURVE
100
AcDbLine
 62
250
  6
CONTINUOUS
 10
-1.2354585328
 20
-25.831968821
 11
-0.8267034371
 21
-26.0679788904
  0
LINE
  5
305
100
AcDbEntity
  8
CURVE
100
AcDbLine
 62
250
  6
CONTINUOUS
 10
-0.0428621351
 20
-26.5205590343
 11
0.3926746299
 21
-26.7720325039
  0
LINE
  5
306
100
AcDbEntity
  8
CURVE
100
AcDbLine
 62
250
  6
CONTINUOUS
 10
-0.7398556958
 20
-25.6931692477
 11
-0.1770927432
 21
-26.0181015235
  0
LWPOLYLINE
  5
307
100
AcDbEntity
  8
ASSI
100
AcDbPolyline
 62
7
  6
CONTINUOUS
 90
10
 70
0
 10
-25.2017482026
 20
-6.3267008925
 10
-25.2133175152
 20
-6.3129473826
 10
-25.2405795665
 20
-6.2778604141
 10
-25.2667397953
 20
-6.2413900424
 10
-25.2916359008
 20
-6.2037477982
 10
-25.3151166675
 20
-6.1651484687
 10
-25.3369934552
 20
-6.1259088308
 10
-25.357148715
 20
-6.0862682846
 10
-25.3754778408
 20
-6.0464649703
 10
-25.3768693656
 20
-6.043098641
  0
LWPOLYLINE
  5
308
100
AcDbEntity
  8
RACCORDO
100
AcDbPolyline
 62
250
  6
CONTINUOUS
 90
6
 70
0
 10
-24.0134701504
 20
-5.6439076225
 10
-24.0099633185
 20
-5.6342729303
 10
-24.0024804728
 20
-5.619975699
 10
-23.9928900633
 20
-5.6061027205
 10
-23.9812634687
 20
-5.5927572491
 10
-23.9676872217
 20
-5.5800386087
  0
LWPOLYLINE
  5
309
100
AcDbEntity
  8
RACCORDO
100
AcDbPolyline
 62
250
  6
CONTINUOUS
 90
4
 70
0
 10
-23.7232491421
 20
-0.6246466656
 10
-23.7160708388
 20
-0.6105076448
 10
-23.7110089243
 20
-0.5960141128
 10
-23.7081105401
 20
-0.5812844301
  0
LWPOLYLINE
  5
30A
100
AcDbEntity
  8
RACCORDO
100
AcDbPolyline
 62
250
  6
CONTINUOUS
 90
3
 70
0
 10
-23.7437076379
 20
-0.6514961915
 10
-23.7324860422
 20
-0.6383423728
 10
-23.7232491421
 20
-0.6246466656
  0
LINE
  5
30B
100
AcDbEntity
  8
RACCORDO
100
AcDbLine
 62
7
  6
CONTINUOUS
 10
-23.7506482356
 20
-0.6586313987
 11
-23.7434817809
 21
-0.6502569885
  0
LINE
  5
30C
100
AcDbEntity
  8
RACCORDO
100
AcDbLine
 62
250
  6
CONTINUOUS
 10
-24.09708441
 20
6.2599495959
 11
-23.8704768756
 21
6.3954387449
  0
LINE
  5
30D
100
AcDbEntity
  8
RACCORDO
100
AcDbLine
 62
250
  6
CONTINUOUS
 10
-24.2092737594
 20
5.6986308483
 11
-23.7936277783
 21
5.9471465052
  0
LINE
  5
30E
100
AcDbEntity
  8
ASSI
100
AcDbLine
 62
250
  6
CONTINUOUS
 10
-25.6824778362
 20
12.1361169698
 11
-26.1627965561
 21
11.8950376709
  0
LWPOLYLINE
  5
30F
100
AcDbEntity
  8
RACCORDO
100
AcDbPolyline
 62
250
  6
CONTINUOUS
 90
5
 70
0
 10
4.6498352767
 20
-21.9936416534
 10
4.6808338718
 20
-21.9880188926
 10
4.7103397646
 20
-21.9825024265
 10
4.7382702875
 20
-21.9769254929
 10
4.7646254407
 20
-21.9712880916
  0
LINE
  5
310
100
AcDbEntity
  8
RACCORDO
100
AcDbLine
 62
250
  6
CONTINUOUS
 10
4.6172613118
 20
-21.9992039466
 11
4.6498352767
 21
-21.9936416534
  0
LINE
  5
311
100
AcDbEntity
  8
RACCORDO
100
AcDbLine
 62
7
  6
CONTINUOUS
 10
4.5874535049
 20
-21.9656303518
 11
4.5875960004
 21
-21.9656075887
  0
LWPOLYLINE
  5
312
100
AcDbEntity
  8
RACCORDO
100
AcDbPolyline
 62
250
  6
CONTINUOUS
 90
3
 70
0
 10
2.6782352282
 20
-17.6881748804
 10
2.6662613486
 20
-17.6900701207
 10
2.655165869
 20
-17.6939566412
  0
LINE
  5
313
100
AcDbEntity
  8
RACCORDO
100
AcDbLine
 62
7
  6
CONTINUOUS
 10
4.5876805685
 20
-21.9656466173
 11
4.5594175503
 21
-21.9698979404
  0
LWPOLYLINE
  5
314
100
AcDbEntity
  8
RACCORDO
100
AcDbPolyline
 62
7
  6
CONTINUOUS
 90
19
 70
0
 10
4.5594175503
 20
-21.9698979404
 10
4.5243558413
 20
-21.9743749746
 10
4.4907952944
 20
-21.9777949012
 10
4.4580329469
 20
-21.9801760779
 10
4.4260439142
 20
-21.9814631706
 10
4.3951616766
 20
-21.9817287994
 10
4.3651171568
 20
-21.9810258796
 10
4.3360072918
 20
-21.9793552333
 10
4.3080554478
 20
-21.9767745
 10
4.2810249877
 20
-21.9733268982
 10
4.2550396681
 20
-21.9690644471
 10
4.2303030514
 20
-21.9640636922
 10
4.2066237147
 20
-21.9583313537
 10
4.1841359394
 20
-21.9519353104
 10
4.1630215686
 20
-21.9449724688
 10
4.1431837717
 20
-21.9374535063
 10
4.1247273978
 20
-21.9294529603
 10
4.1079099381
 20
-21.9211370225
 10
4.0975848048
 20
-21.9154380046
  0
LWPOLYLINE
  5
315
100
AcDbEntity
  8
RACCORDO
100
AcDbPolyline
 62
250
  6
CONTINUOUS
 90
3
 70
0
 10
4.5875960004
 20
-21.9656075887
 10
4.6191074064
 20
-21.9615983522
 10
4.6557297104
 20
-21.9595578635
  0
LWPOLYLINE
  5
316
100
AcDbEntity
  8
RACCORDO
100
AcDbPolyline
 62
250
  6
CONTINUOUS
 90
3
 70
0
 10
4.5464570672
 20
-22.0087093449
 10
4.5828639749
 20
-22.0042054853
 10
4.6172613118
 20
-21.9992039466
  0
LINE
  5
317
100
AcDbEntity
  8
RACCORDO
100
AcDbLine
 62
250
  6
CONTINUOUS
 10
4.5082267875
 20
-22.01265245
 11
4.5464570672
 21
-22.0087093449
  0
LWPOLYLINE
  5
318
100
AcDbEntity
  8
RACCORDO
100
AcDbPolyline
 62
250
  6
CONTINUOUS
 90
4
 70
0
 10
4.6557297104
 20
-21.9595578635
 10
4.6920081852
 20
-21.9603377804
 10
4.7282364503
 20
-21.9641159165
 10
4.7642967433
 20
-21.9710645864
  0
LWPOLYLINE
  5
319
100
AcDbEntity
  8
RACCORDO
100
AcDbPolyline
 62
250
  6
CONTINUOUS
 90
7
 70
0
 10
7.774762235
 20
-19.1871246425
 10
7.7654071445
 20
-19.1862730657
 10
7.7556192056
 20
-19.186491368
 10
7.7454607712
 20
-19.1877915948
 10
7.7349921107
 20
-19.190177124
 10
7.7242699962
 20
-19.1936458574
 10
7.7133570197
 20
-19.1981886747
  0
LWPOLYLINE
  5
31A
100
AcDbEntity
  8
RACCORDO
100
AcDbPolyline
 62
7
  6
CONTINUOUS
 90
10
 70
0
 10
5.1243797721
 20
-22.1719700211
 10
5.155174
 20
-22.1749044944
 10
5.184823576
 20
-22.1791851198
 10
5.2132223379
 20
-22.1847462294
 10
5.2402426517
 20
-22.1915122926
 10
5.265858285
 20
-22.1993695395
 10
5.2901254409
 20
-22.2082239228
 10
5.3130218711
 20
-22.2180234156
 10
5.3344623431
 20
-22.2286849823
 10
5.3454731445
 20
-22.2348020705
  0
LWPOLYLINE
  5
31B
100
AcDbEntity
  8
RACCORDO
100
AcDbPolyline
 62
250
  6
CONTINUOUS
 90
9
 70
0
 10
4.1725813339
 20
-21.990645828
 10
4.2128800493
 20
-21.9994809175
 10
4.2545559641
 20
-22.0064697819
 10
4.2975007393
 20
-22.011720071
 10
4.3404884918
 20
-22.0152326768
 10
4.3836291789
 20
-22.0168454251
 10
4.4268128433
 20
-22.01672049
 10
4.4684837306
 20
-22.015345287
 10
4.5082267875
 20
-22.01265245
  0
LWPOLYLINE
  5
31C
100
AcDbEntity
  8
RACCORDO
100
AcDbPolyline
 62
250
  6
CONTINUOUS
 90
10
 70
0
 10
12.2015649753
 20
-25.9991515885
 10
12.1892565824
 20
-25.9931259471
 10
12.1748218418
 20
-25.9884382661
 10
12.1594681972
 20
-25.9857677745
 10
12.1432944107
 20
-25.9851346644
 10
12.1264355676
 20
-25.9865470886
 10
12.1090644297
 20
-25.9899825962
 10
12.0913299302
 20
-25.9953938689
 10
12.0733506339
 20
-26.0027273455
 10
12.0552602992
 20
-26.0119138416
  0
LWPOLYLINE
  5
31D
100
AcDbEntity
  8
RACCORDO
100
AcDbPolyline
 62
250
  6
CONTINUOUS
 90
10
 70
0
 10
11.8480068494
 20
-25.7950115579
 10
11.8357070865
 20
-25.7889902393
 10
11.8212732299
 20
-25.7843021499
 10
11.8059202328
 20
-25.7816310469
 10
11.7897467319
 20
-25.7809972331
 10
11.7728878339
 20
-25.78240899
 10
11.7555161248
 20
-25.785844017
 10
11.7377804649
 20
-25.7912551709
 10
11.7197994665
 20
-25.7985890303
 10
11.7017069086
 20
-25.807776545
  0
LWPOLYLINE
  5
31E
100
AcDbEntity
  8
RACCORDO
100
AcDbPolyline
 62
250
  6
CONTINUOUS
 90
10
 70
0
 10
5.4133398759
 20
-22.0797154925
 10
5.401031483
 20
-22.0736898512
 10
5.3865967424
 20
-22.0690021701
 10
5.3712430978
 20
-22.0663316785
 10
5.3550693113
 20
-22.0656985685
 10
5.3382104683
 20
-22.0671109927
 10
5.3208393303
 20
-22.0705465002
 10
5.3031048308
 20
-22.0759577729
 10
5.2851255345
 20
-22.0832912495
 10
5.2670351998
 20
-22.0924777457
  0
LWPOLYLINE
  5
31F
100
AcDbEntity
  8
RACCORDO
100
AcDbPolyline
 62
250
  6
CONTINUOUS
 90
10
 70
0
 10
5.0597802947
 20
-21.8755746218
 10
5.0474819871
 20
-21.8695541433
 10
5.0330481305
 20
-21.864866054
 10
5.0176951334
 20
-21.8621949509
 10
5.0015216325
 20
-21.8615611372
 10
4.9846627345
 20
-21.8629728941
 10
4.9672910254
 20
-21.8664079211
 10
4.9495553655
 20
-21.871819075
 10
4.9315743671
 20
-21.8791529344
 10
4.9134818092
 20
-21.888340449
  0
LWPOLYLINE
  5
320
100
AcDbEntity
  8
RACCORDO
100
AcDbPolyline
 62
250
  6
CONTINUOUS
 90
10
 70
0
 10
-3.7083376014
 20
-16.8129732386
 10
-3.7206459943
 20
-16.8069475973
 10
-3.7350807349
 20
-16.8022599162
 10
-3.7504343795
 20
-16.7995894246
 10
-3.766608166
 20
-16.7989563145
 10
-3.7834670091
 20
-16.8003687387
 10
-3.800838147
 20
-16.8038042463
 10
-3.8185726465
 20
-16.809215519
 10
-3.8365519428
 20
-16.8165489956
 10
-3.8546422775
 20
-16.8257354918
  0
LWPOLYLINE
  5
321
100
AcDbEntity
  8
ASSI
100
AcDbPolyline
 62
250
  6
CONTINUOUS
 90
24
 70
0
 10
-25.5664249895
 20
-6.6688496983
 10
-25.5865816686
 20
-6.6585337084
 10
-25.6066325658
 20
-6.6468867596
 10
-25.6265056307
 20
-6.6339672617
 10
-25.6461369179
 20
-6.6198475494
 10
-25.665448143
 20
-6.6045870132
 10
-25.6843465557
 20
-6.5882299313
 10
-25.7027647578
 20
-6.5708485926
 10
-25.7206337792
 20
-6.5525242541
 10
-25.7378600774
 20
-6.533318467
 10
-25.7543828632
 20
-6.5133080991
 10
-25.7701367437
 20
-6.4925897605
 10
-25.7850260406
 20
-6.4712601827
 10
-25.798963245
 20
-6.4494661555
 10
-25.8119336155
 20
-6.4272523779
 10
-25.8239422424
 20
-6.4045607229
 10
-25.8349530569
 20
-6.3814318923
 10
-25.8448783546
 20
-6.358018961
 10
-25.8536364011
 20
-6.3344328152
 10
-25.8611849331
 20
-6.3107241796
 10
-25.8674630237
 20
-6.2870568843
 10
-25.8723922371
 20
-6.2637073311
 10
-25.8759490242
 20
-6.2408290074
 10
-25.8781382587
 20
-6.2184601885
  0
LWPOLYLINE
  5
322
100
AcDbEntity
  8
RACCORDO
100
AcDbPolyline
 62
250
  6
CONTINUOUS
 90
9
 70
0
 10
-3.8360783789
 20
-17.3346381153
 10
-3.8404727289
 20
-17.3323150914
 10
-3.8517575774
 20
-17.3280635363
 10
-3.8639459283
 20
-17.3257383191
 10
-3.8769071846
 20
-17.3253643539
 10
-3.8905024643
 20
-17.3269456488
 10
-3.9045860937
 20
-17.3304652604
 10
-3.9190071687
 20
-17.3358854748
 10
-3.9336111682
 20
-17.3431482138
  0
LINE
  5
323
100
AcDbEntity
  8
RACCORDO
100
AcDbLine
 62
250
  6
CONTINUOUS
 10
12.069434056
 20
-26.5184955991
 11
12.0738300056
 21
-26.5208198183
  0
LWPOLYLINE
  5
324
100
AcDbEntity
  8
RACCORDO
100
AcDbPolyline
 62
250
  6
CONTINUOUS
 90
9
 70
0
 10
4.0975667795
 20
-21.9154253976
 10
4.0931671039
 20
-21.9130993945
 10
4.0818823644
 20
-21.9088481302
 10
4.0696941579
 20
-21.906523213
 10
4.0567330842
 20
-21.9061495479
 10
4.043138023
 20
-21.9077311303
 10
4.0290546478
 20
-21.9112510057
 10
4.0146338638
 20
-21.9166714528
 10
4.0000301903
 20
-21.9239343856
  0
LWPOLYLINE
  5
325
100
AcDbEntity
  8
RACCORDO
100
AcDbPolyline
 62
250
  6
CONTINUOUS
 90
9
 70
0
 10
-11.8123350847
 20
-12.7292474591
 10
-11.8167320016
 20
-12.7269227892
 10
-11.8280167119
 20
-12.7226710139
 10
-11.8402049656
 20
-12.7203456856
 10
-11.8531661565
 20
-12.7199717206
 10
-11.8667614013
 20
-12.7215531216
 10
-11.8808450184
 20
-12.7250729407
 10
-11.8952660887
 20
-12.7304934621
 10
-11.9098700794
 20
-12.7377566016
  0
LWPOLYLINE
  5
326
100
AcDbEntity
  8
ASSI
100
AcDbPolyline
 62
250
  6
CONTINUOUS
 90
19
 70
0
 10
-26.5602080669
 20
-6.199154301
 10
-26.5295341363
 20
-6.2153868377
 10
-26.4966188344
 20
-6.2299668672
 10
-26.461690887
 20
-6.2427930742
 10
-26.4249930055
 20
-6.2537763305
 10
-26.3867802005
 20
-6.2628403143
 10
-26.3473180098
 20
-6.2699220407
 10
-26.3068806527
 20
-6.2749722994
 10
-26.2657491252
 20
-6.2779559966
 10
-26.2242092469
 20
-6.2788523987
 10
-26.1825496751
 20
-6.2776552768
 10
-26.1410598986
 20
-6.2743729496
 10
-26.1000282265
 20
-6.2690282257
 10
-26.0597397846
 20
-6.2616582451
 10
-26.0204745339
 20
-6.2523142213
 10
-25.9825053255
 20
-6.2410610852
 10
-25.9460960042
 20
-6.2279770337
 10
-25.9114995754
 20
-6.213152987
 10
-25.8789564469
 20
-6.1966919562
  0
LWPOLYLINE
  5
327
100
AcDbEntity
  8
RACCORDO
100
AcDbPolyline
 62
250
  6
CONTINUOUS
 90
12
 70
0
 10
4.7646545416
 20
-21.9712718757
 10
4.7486614525
 20
-21.9627214782
 10
4.7328278812
 20
-21.955625767
 10
4.7172428198
 20
-21.9500109875
 10
4.7020093574
 20
-21.9458972242
 10
4.6871934632
 20
-21.9432868191
 10
4.6728274083
 20
-21.9421802387
 10
4.6589787322
 20
-21.9425836469
 10
4.6457400637
 20
-21.9444958771
 10
4.6331807536
 20
-21.9479081531
 10
4.6213730502
 20
-21.9528002521
 10
4.6170478819
 20
-21.9550692267
  0
LWPOLYLINE
  5
328
100
AcDbEntity
  8
RACCORDO
100
AcDbPolyline
 62
250
  6
CONTINUOUS
 90
6
 70
0
 10
-11.9098700794
 20
-12.7377566016
 10
-11.8797823104
 20
-12.7539045257
 10
-11.8475285736
 20
-12.7686318546
 10
-11.8131088689
 20
-12.7819385884
 10
-11.7762316661
 20
-12.7939308933
 10
-11.7371884954
 20
-12.804502603
  0
LWPOLYLINE
  5
329
100
AcDbEntity
  8
RACCORDO
100
AcDbPolyline
 62
250
  6
CONTINUOUS
 90
6
 70
0
 10
4.0000301903
 20
-21.9239343856
 10
4.0300808506
 20
-21.9400667683
 10
4.0623012373
 20
-21.9547826334
 10
4.0966913505
 20
-21.9680819809
 10
4.133551479
 20
-21.9800721632
 10
4.1725813339
 20
-21.990645828
  0
LWPOLYLINE
  5
32A
100
AcDbEntity
  8
CURVE
100
AcDbPolyline
 62
250
  6
CONTINUOUS
 90
56
 70
0
 10
1.0752192395
 20
-25.9813009697
 10
1.087410799
 20
-25.9879211924
 10
1.0993492598
 20
-25.9941553203
 10
1.1110330857
 20
-26.0000049107
 10
1.1224607404
 20
-26.0054715214
 10
1.1336306876
 20
-26.0105567098
 10
1.144541391
 20
-26.0152620334
 10
1.1551913146
 20
-26.0195890498
 10
1.1655800071
 20
-26.0235390205
 10
1.1757113582
 20
-26.0271120231
 10
1.1855903427
 20
-26.0303078393
 10
1.1952219355
 20
-26.0331262507
 10
1.2046111114
 20
-26.0355670389
 10
1.2137628453
 20
-26.0376299856
 10
1.222682112
 20
-26.0393148723
 10
1.230298836
 20
-26.0404780316
 10
1.2377396225
 20
-26.0413465192
 10
1.245002708
 20
-26.0419152826
 10
1.2520863287
 20
-26.0421792695
 10
1.2589891449
 20
-26.0421326467
 10
1.265711512
 20
-26.0417664588
 10
1.2722542093
 20
-26.0410709697
 10
1.2786180161
 20
-26.040036443
 10
1.2848026284
 20
-26.0386536013
 10
1.29080341
 20
-26.0369150009
 10
1.2966146413
 20
-26.0348136569
 10
1.302230603
 20
-26.0323425842
 10
1.3076479758
 20
-26.0294959416
 10
1.3128730412
 20
-26.0262724631
 10
1.3179144811
 20
-26.0226720264
 10
1.3227809773
 20
-26.0186945093
 10
1.3274784389
 20
-26.0143410819
 10
1.3320016845
 20
-26.0096180842
 10
1.3363427601
 20
-26.0045331484
 10
1.3404937117
 20
-25.9990939071
 10
1.3444479837
 20
-25.9933061455
 10
1.3482046142
 20
-25.9871682614
 10
1.3517640399
 20
-25.9806768055
 10
1.3551266971
 20
-25.9738283285
 10
1.3582915208
 20
-25.9666219138
 10
1.3612514382
 20
-25.9590667743
 10
1.3639978748
 20
-25.9511746558
 10
1.3665222561
 20
-25.942957304
 10
1.3688165687
 20
-25.934426535
 10
1.3708750437
 20
-25.9255944473
 10
1.372692473
 20
-25.9164732099
 10
1.3742636489
 20
-25.9070749917
 10
1.3755835698
 20
-25.8974118519
 10
1.3766480599
 20
-25.88749541
 10
1.3774531499
 20
-25.8773371757
 10
1.3779948703
 20
-25.8669486586
 10
1.3782350176
 20
-25.8584748813
 10
1.3782964217
 20
-25.8498376155
 10
1.3781714363
 20
-25.8410133877
 10
1.377852415
 20
-25.8319787241
 10
1.3773317116
 20
-25.8227101511
  0
LWPOLYLINE
  5
32B
100
AcDbEntity
  8
ASSI
100
AcDbPolyline
 62
250
  6
CONTINUOUS
 90
3
 70
0
 10
22.1361690965
 20
-34.2129594459
 10
22.1190482626
 20
-34.2031790628
 10
22.1019037186
 20
-34.1919450922
  0
LINE
  5
32C
100
AcDbEntity
  8
CURVE
100
AcDbLine
 62
250
  6
CONTINUOUS
 10
-0.2799386926
 20
-25.62900021
 11
-0.6755854428
 21
-25.4005587351
  0
LINE
  5
32D
100
AcDbEntity
  8
CURVE
100
AcDbLine
 62
250
  6
CONTINUOUS
 10
1.0949408251
 20
-26.343256467
 11
0.8733720142
 21
-26.2153254125
  0
LINE
  5
32E
100
AcDbEntity
  8
CURVE
100
AcDbLine
 62
250
  6
CONTINUOUS
 10
0.8390573203
 20
-25.8449440373
 11
1.0752192395
 21
-25.9813009697
  0
LINE
  5
32F
100
AcDbEntity
  8
CURVE
100
AcDbLine
 62
250
  6
CONTINUOUS
 10
-0.340140485
 20
-24.2078460343
 11
-0.7398997682
 21
-23.9770300343
  0
LINE
  5
330
100
AcDbEntity
  8
CURVE
100
AcDbLine
 62
250
  6
CONTINUOUS
 10
-1.6108693535
 20
-23.4741431116
 11
-2.0197283939
 21
-23.2380730259
  0
LINE
  5
331
100
AcDbEntity
  8
CURVE
100
AcDbLine
 62
250
  6
CONTINUOUS
 10
-2.8418418504
 20
-22.7633950196
 11
-3.2547391776
 21
-22.5249932777
  0
LINE
  5
332
100
AcDbEntity
  8
CURVE
100
AcDbLine
 62
250
  6
CONTINUOUS
 10
-4.2225456224
 20
-21.9661939659
 11
-4.6355023466
 21
-21.7277579289
  0
LINE
  5
333
100
AcDbEntity
  8
CURVE
100
AcDbLine
 62
250
  6
CONTINUOUS
 10
-5.4017593172
 20
-21.2853307576
 11
-5.850664643
 21
-21.0261384486
  0
LINE
  5
334
100
AcDbEntity
  8
CURVE
100
AcDbLine
 62
250
  6
CONTINUOUS
 10
-4.0691986052
 20
-22.0546052579
 11
-3.6559597454
 21
-22.2932041964
  0
LINE
  5
335
100
AcDbEntity
  8
ASSI
100
AcDbLine
 62
250
  6
CONTINUOUS
 10
21.7733889275
 20
-34.8077248904
 11
-25.8949398502
 21
-7.2846292786
  0
LINE
  5
336
100
AcDbEntity
  8
ASSI
100
AcDbLine
 62
250
  6
CONTINUOUS
 10
22.1019022374
 20
-34.1919462051
 11
-25.5664265403
 21
-6.6688505934
  0
LINE
  5
337
100
AcDbEntity
  8
ASSI
100
AcDbLine
 62
7
  6
CONTINUOUS
 10
22.2166530132
 20
-33.7244624005
 11
-25.1041300961
 21
-6.4020353019
  0
LINE
  5
338
100
AcDbEntity
  8
RACCORDO
100
AcDbLine
 62
250
  6
CONTINUOUS
 10
-23.9233130142
 20
-5.8013450819
 11
-11.9098700794
 21
-12.7377566016
  0
LINE
  5
339
100
AcDbEntity
  8
RACCORDO
100
AcDbLine
 62
250
  6
CONTINUOUS
 10
22.1713001006
 20
-32.4157969653
 11
11.9762914085
 21
-26.5293265637
  0
LINE
  5
33A
100
AcDbEntity
  8
RACCORDO
100
AcDbLine
 62
250
  6
CONTINUOUS
 10
-3.9336111682
 20
-17.3431482138
 11
4.0000301903
 21
-21.9239343856
  0
LINE
  5
33B
100
AcDbEntity
  8
RACCORDO
100
AcDbLine
 62
7
  6
CONTINUOUS
 10
-23.911010881
 20
-5.7436236864
 11
-11.8123350847
 21
-12.7292474591
  0
LINE
  5
33C
100
AcDbEntity
  8
RACCORDO
100
AcDbLine
 62
7
  6
CONTINUOUS
 10
22.1693449649
 20
-32.3498436293
 11
12.0738300056
 21
-26.5208198183
  0
LINE
  5
33D
100
AcDbEntity
  8
0
100
AcDbLine
 62
7
  6
CONTINUOUS
 10
15.6931580078
 20
-28.572593161
 11
19.3347579309
 21
-30.6751954802
  0
LINE
  5
33E
100
AcDbEntity
  8
0
100
AcDbLine
 62
7
  6
CONTINUOUS
 10
-12.4850472225
 20
-12.3028387804
 11
-16.1266471456
 21
-10.2002364613
  0
LWPOLYLINE
  5
33F
100
AcDbEntity
  8
RACCORDO
100
AcDbPolyline
 62
7
  6
CONTINUOUS
 90
13
 70
0
 10
4.0975667795
 20
-21.9154253976
 10
-3.8375767607
 20
-17.3337663691
 10
-3.8493972316
 20
-17.3264414407
 10
-3.8599527449
 20
-17.3190898971
 10
-3.8689690584
 20
-17.3120031913
 10
-3.8764292134
 20
-17.3053496869
 10
-3.8823917371
 20
-17.2992586183
 10
-3.8868091414
 20
-17.294034288
 10
-3.8898168599
 20
-17.2898673445
 10
-3.8916914036
 20
-17.2867623056
 10
-3.8926920949
 20
-17.2847103499
 10
-3.893108863
 20
-17.2836206235
 10
-3.893164891
 20
-17.2834421192
  0
LINE
  5
340
100
AcDbEntity
  8
RACCORDO
100
AcDbLine
 62
250
  6
CONTINUOUS
 10
-23.9233130194
 20
-5.8013450849
 11
-23.9501550423
 21
-5.7852093719
  0
LWPOLYLINE
  5
341
100
AcDbEntity
  8
ASSI
100
AcDbPolyline
 62
250
  6
CONTINUOUS
 90
25
 70
0
 10
-25.8949398502
 20
-7.2846292786
 10
-25.9367232647
 20
-7.2589590038
 10
-25.9780821647
 20
-7.2306530406
 10
-26.0190164588
 20
-7.1997097634
 10
-26.0596867954
 20
-7.1659744172
 10
-26.0999321608
 20
-7.1295952629
 10
-26.1392698979
 20
-7.0910239061
 10
-26.1776941004
 20
-7.0502237027
 10
-26.2152100029
 20
-7.0072193679
 10
-26.2513516393
 20
-6.9625541966
 10
-26.2861112033
 20
-6.9161816298
 10
-26.3194956237
 20
-6.8681326662
 10
-26.3510611004
 20
-6.8190680547
 10
-26.380734135
 20
-6.7690903386
 10
-26.4085873128
 20
-6.718080823
 10
-26.4343960491
 20
-6.6663700174
 10
-26.4582198613
 20
-6.6138141706
 10
-26.4799982282
 20
-6.5605393244
 10
-26.4993266684
 20
-6.5072835407
 10
-26.5161744029
 20
-6.4539253077
 10
-26.5305713739
 20
-6.400571438
 10
-26.5422045936
 20
-6.3483097867
 10
-26.5509697669
 20
-6.297503608
 10
-26.5569709722
 20
-6.2477859324
 10
-26.5602080669
 20
-6.199154301
  0
LWPOLYLINE
  5
342
100
AcDbEntity
  8
ASSI
100
AcDbPolyline
 62
7
  6
CONTINUOUS
 90
22
 70
0
 10
-25.1041300961
 20
-6.4020353019
 10
-25.1254477076
 20
-6.3888625731
 10
-25.1466410345
 20
-6.3740006395
 10
-25.167600129
 20
-6.3575509038
 10
-25.1881896462
 20
-6.3396584799
 10
-25.2083340555
 20
-6.3204069508
 10
-25.2280117195
 20
-6.2997948895
 10
-25.2471512785
 20
-6.2778896477
 10
-25.2656119046
 20
-6.2548461085
 10
-25.2832648886
 20
-6.230786964
 10
-25.3000317724
 20
-6.2058077844
 10
-25.3157939833
 20
-6.1800836335
 10
-25.3303821725
 20
-6.15387427
 10
-25.3437007637
 20
-6.1273754388
 10
-25.3557143362
 20
-6.1006978127
 10
-25.3663668043
 20
-6.0739804714
 10
-25.3755955944
 20
-6.0474078344
 10
-25.3833751456
 20
-6.0210894589
 10
-25.3896973339
 20
-5.9950526466
 10
-25.3945237484
 20
-5.9694064043
 10
-25.3978058439
 20
-5.944335523
 10
-25.3995133628
 20
-5.9199837645
  0
LWPOLYLINE
  5
343
100
AcDbEntity
  8
RACCORDO
100
AcDbPolyline
 62
7
  6
CONTINUOUS
 90
13
 70
0
 10
-23.9110052798
 20
-5.7436269096
 10
-23.9278277063
 20
-5.733214909
 10
-23.9429124994
 20
-5.7225664232
 10
-23.9567880659
 20
-5.7114834546
 10
-23.969333284
 20
-5.700188889
 10
-23.980548142
 20
-5.6888338692
 10
-23.9904263384
 20
-5.6775907581
 10
-23.9988846122
 20
-5.6667610853
 10
-24.0059990214
 20
-5.6564921793
 10
-24.0117970613
 20
-5.6470176014
 10
-24.0162264765
 20
-5.6387840961
 10
-24.0194170695
 20
-5.6320054852
 10
-24.0206078079
 20
-5.6291887802
  0
LWPOLYLINE
  5
344
100
AcDbEntity
  8
ASSI
100
AcDbPolyline
 62
250
  6
CONTINUOUS
 90
11
 70
0
 10
22.3817886274
 20
-34.4576498052
 10
22.3535692036
 20
-34.4398780533
 10
22.3280004072
 20
-34.4206900872
 10
22.3052599126
 20
-34.4002192433
 10
22.2855057405
 20
-34.378607773
 10
22.2688751596
 20
-34.3560058532
 10
22.2554837328
 20
-34.3325705433
 10
22.2454245146
 20
-34.3084646939
 10
22.2387674039
 20
-34.2838558149
 10
22.2355586588
 20
-34.2589149111
 10
22.2353813395
 20
-34.255282791
  0
LWPOLYLINE
  5
345
100
AcDbEntity
  8
RACCORDO
100
AcDbPolyline
 62
250
  6
CONTINUOUS
 90
3
 70
0
 10
-23.9501550423
 20
-5.7852093719
 10
-23.9768126963
 20
-5.7668643392
 10
-24.003137105
 20
-5.7464124408
  0
LWPOLYLINE
  5
346
100
AcDbEntity
  8
CURVE
100
AcDbPolyline
 62
250
  6
CONTINUOUS
 90
24
 70
0
 10
1.1290887309
 20
-25.4103382037
 10
1.1137901123
 20
-25.399709875
 10
1.0984868211
 20
-25.389320024
 10
1.0831812238
 20
-25.3791694806
 10
1.0678756871
 20
-25.3692590749
 10
1.0525725777
 20
-25.3595896368
 10
1.0372742621
 20
-25.3501619964
 10
1.021983107
 20
-25.3409769837
 10
1.0086100966
 20
-25.3331392719
 10
0.9952400622
 20
-25.3254854611
 10
0.9818686854
 20
-25.3180130549
 10
0.968491648
 20
-25.3107195571
 10
0.9551040818
 20
-25.3036029481
 10
0.9416989193
 20
-25.2966631161
 10
0.9282685429
 20
-25.2899004259
 10
0.914805335
 20
-25.2833152422
 10
0.9013040895
 20
-25.2769071773
 10
0.8877692456
 20
-25.2706728331
 10
0.8742076537
 20
-25.2646080584
 10
0.8606261644
 20
-25.2587087025
 10
0.8470287049
 20
-25.2529675158
 10
0.8334075098
 20
-25.2473648541
 10
0.8197518905
 20
-25.2418779745
 10
0.8060511582
 20
-25.2364841343
  0
LINE
  5
347
100
AcDbEntity
  8
RACCORDO
100
AcDbLine
 62
250
  6
CONTINUOUS
 10
-24.003137105
 20
-5.7464124408
 11
-24.0289812456
 21
-5.7239679036
  0
LWPOLYLINE
  5
348
100
AcDbEntity
  8
RACCORDO
100
AcDbPolyline
 62
250
  6
CONTINUOUS
 90
18
 70
0
 10
-24.0289812456
 20
-5.7239679036
 10
-24.0542007935
 20
-5.6996560706
 10
-24.0786549265
 20
-5.6736126951
 10
-24.1022070779
 20
-5.6459832135
 10
-24.1247257076
 20
-5.6169219323
 10
-24.1460850578
 20
-5.5865911416
 10
-24.1661658402
 20
-5.5551602264
 10
-24.1848559025
 20
-5.5228047212
 10
-24.2020508617
 20
-5.4897053218
 10
-24.2176546857
 20
-5.4560468747
 10
-24.2315802229
 20
-5.42201736
 10
-24.243749692
 20
-5.3878068417
 10
-24.2540951265
 20
-5.3536063803
 10
-24.2625587469
 20
-5.3196069788
 10
-24.2690932806
 20
-5.2859985321
 10
-24.2736622329
 20
-5.252968742
 10
-24.2762400885
 20
-5.2207020701
 10
-24.2768124507
 20
-5.1893787205
  0
LWPOLYLINE
  5
349
100
AcDbEntity
  8
CURVE
100
AcDbPolyline
 62
250
  6
CONTINUOUS
 90
86
 70
0
 10
1.4109447208
 20
-25.2667748396
 10
1.4221721301
 20
-25.2778257744
 10
1.4335848066
 20
-25.2895628025
 10
1.4452019751
 20
-25.3020209653
 10
1.4570428603
 20
-25.3152353039
 10
1.4691266873
 20
-25.3292408598
 10
1.4814726807
 20
-25.344072674
 10
1.4940848592
 20
-25.3597494166
 10
1.5069064162
 20
-25.3762242719
 10
1.5198653388
 20
-25.3934340528
 10
1.5328896141
 20
-25.4113155723
 10
1.5459072293
 20
-25.4298056434
 10
1.5588461715
 20
-25.4488410789
 10
1.5716408062
 20
-25.4683647105
 10
1.5842510117
 20
-25.4883434441
 10
1.5966430448
 20
-25.5087502045
 10
1.6087831622
 20
-25.5295579161
 10
1.6206376207
 20
-25.5507395036
 10
1.6321726769
 20
-25.5722678917
 10
1.643353699
 20
-25.5941061044
 10
1.6541425006
 20
-25.6161775635
 10
1.6645000071
 20
-25.6383957903
 10
1.6743871434
 20
-25.6606743059
 10
1.6837648348
 20
-25.6829266316
 10
1.6925940064
 20
-25.7050662888
 10
1.7008438301
 20
-25.7270170983
 10
1.7085164645
 20
-25.7487440809
 10
1.7156223151
 20
-25.7702225567
 10
1.7221717874
 20
-25.7914278461
 10
1.7281752868
 20
-25.8123352696
 10
1.7336432188
 20
-25.8329201473
 10
1.7395159873
 20
-25.8571608078
 10
1.7446717935
 20
-25.8808547165
 10
1.7491499083
 20
-25.9039551261
 10
1.7529896025
 20
-25.9264152894
 10
1.7562301472
 20
-25.9481884589
 10
1.7589095087
 20
-25.9692364739
 10
1.7610604355
 20
-25.9895555186
 10
1.7627143713
 20
-26.0091503636
 10
1.7639027601
 20
-26.0280257796
 10
1.7646570456
 20
-26.0461865373
 10
1.765006846
 20
-26.0636405944
 10
1.7649744762
 20
-26.0804086568
 10
1.7645804255
 20
-26.0965146175
 10
1.7638451832
 20
-26.1119823695
 10
1.7627892384
 20
-26.1268358057
 10
1.7610474625
 20
-26.1445758101
 10
1.7588641941
 20
-26.1614440926
 10
1.7562670238
 20
-26.1774914665
 10
1.753283542
 20
-26.1927687454
 10
1.7499412277
 20
-26.2073211734
 10
1.7462671128
 20
-26.2211717169
 10
1.7422881173
 20
-26.234337773
 10
1.7380311615
 20
-26.2468367387
 10
1.7335226934
 20
-26.2586861613
 10
1.7287872725
 20
-26.26990419
 10
1.7238489863
 20
-26.2805091241
 10
1.7187319223
 20
-26.2905192632
 10
1.7116684213
 20
-26.3029742756
 10
1.7043613148
 20
-26.3144583937
 10
1.6968420023
 20
-26.3250256042
 10
1.6891411056
 20
-26.3347261813
 10
1.6812861347
 20
-26.343595549
 10
1.6733038216
 20
-26.3516654191
 10
1.6652218392
 20
-26.35897359
 10
1.6570716239
 20
-26.3655822084
 10
1.6488855526
 20
-26.3715595076
 10
1.6406964385
 20
-26.3769723398
 10
1.632538838
 20
-26.3818820313
 10
1.6244477433
 20
-26.3863485268
 10
1.6164550772
 20
-26.3904289785
 10
1.6085804836
 20
-26.3941693682
 10
1.6008405369
 20
-26.3976128852
 10
1.5895085767
 20
-26.402308912
 10
1.5785252545
 20
-26.4065422396
 10
1.5679250033
 20
-26.4103876167
 10
1.5627245544
 20
-26.4121193361
 10
1.5575098346
 20
-26.4136520058
 10
1.5522181553
 20
-26.4149148736
 10
1.5468596906
 20
-26.4158309251
 10
1.5414595453
 20
-26.4163276881
 10
1.5360296867
 20
-26.4163571221
 10
1.5305733343
 20
-26.4158792044
 10
1.525071856
 20
-26.4148615521
 10
1.5195071676
 20
-26.4132764486
 10
1.513885229
 20
-26.4111072039
  0
LWPOLYLINE
  5
34A
100
AcDbEntity
  8
CURVE
100
AcDbPolyline
 62
250
  6
CONTINUOUS
 90
40
 70
0
 10
1.5146294367
 20
-26.4241850358
 10
1.5213610831
 20
-26.4310313224
 10
1.5280711421
 20
-26.4381176941
 10
1.5347636164
 20
-26.4454527556
 10
1.541442509
 20
-26.4530451112
 10
1.5481114771
 20
-26.4609036128
 10
1.5547727969
 20
-26.4690381008
 10
1.5614283991
 20
-26.4774586631
 10
1.5680802146
 20
-26.4861753877
 10
1.5747275164
 20
-26.4951942891
 10
1.5813589471
 20
-26.5045050888
 10
1.5879604914
 20
-26.5140934351
 10
1.5945181341
 20
-26.5239449762
 10
1.6010186047
 20
-26.5340446749
 10
1.6074516109
 20
-26.5443747517
 10
1.6138076049
 20
-26.5549167412
 10
1.6200770392
 20
-26.5656521783
 10
1.6262528725
 20
-26.5765668079
 10
1.6323380896
 20
-26.5876632139
 10
1.638338182
 20
-26.5989481905
 10
1.6442586408
 20
-26.6104285317
 10
1.6501035659
 20
-26.6221085148
 10
1.6558714904
 20
-26.6339823503
 10
1.6615595556
 20
-26.6460417318
 10
1.6671649033
 20
-26.6582783532
 10
1.6734668369
 20
-26.6724707627
 10
1.6796573853
 20
-26.6868793784
 10
1.6857369362
 20
-26.7014997587
 10
1.6917058774
 20
-26.716327462
 10
1.6975645966
 20
-26.7313580466
 10
1.7033134816
 20
-26.7465870708
 10
1.70895292
 20
-26.7620100929
 10
1.7153943324
 20
-26.7802421479
 10
1.7216871905
 20
-26.7987207339
 10
1.727831381
 20
-26.8174343747
 10
1.733826791
 20
-26.8363715941
 10
1.7396733071
 20
-26.855520916
 10
1.7453708163
 20
-26.8748708641
 10
1.7509268511
 20
-26.8944145786
 10
1.7563795276
 20
-26.9141636655
  0
LWPOLYLINE
  5
34B
100
AcDbEntity
  8
RACCORDO
100
AcDbPolyline
 62
250
  6
CONTINUOUS
 90
3
 70
0
 10
-23.7870583554
 20
6.3037948177
 10
-23.7772147319
 20
6.2816536729
 10
-23.7688486471
 20
6.257656582
  0
LWPOLYLINE
  5
34C
100
AcDbEntity
  8
RACCORDO
100
AcDbPolyline
 62
250
  6
CONTINUOUS
 90
5
 70
0
 10
-23.7688486471
 20
6.257656582
 10
-23.7620596813
 20
6.2318013963
 10
-23.7570330673
 20
6.2041195504
 10
-23.7539242464
 20
6.1748190085
 10
-23.7527984931
 20
6.1441894442
  0
LWPOLYLINE
  5
34D
100
AcDbEntity
  8
DRAFT
100
AcDbPolyline
 62
7
  6
CONTINUOUS
 90
21
 70
0
 10
-25.5299684233
 20
-1.7526778644
 10
-25.527271348
 20
-1.7507745449
 10
-25.5112087617
 20
-1.7357633222
 10
-25.4968992258
 20
-1.7183598853
 10
-25.4844321379
 20
-1.6986722819
 10
-25.4738884654
 20
-1.6768132536
 10
-25.4653243954
 20
-1.6529185557
 10
-25.4587909044
 20
-1.6271321371
 10
-25.4543324712
 20
-1.5996063543
 10
-25.4519672057
 20
-1.5705144761
 10
-25.4517078497
 20
-1.5400307606
 10
-25.4535614797
 20
-1.5083406264
 10
-25.4575065876
 20
-1.4756412893
 10
-25.463516763
 20
-1.4421228657
 10
-25.4715626572
 20
-1.4079764152
 10
-25.4815908902
 20
-1.3734072304
 10
-25.4935382591
 20
-1.3386271272
 10
-25.5073404602
 20
-1.3038329317
 10
-25.5229166718
 20
-1.2692208824
 10
-25.5401740514
 20
-1.2350020018
 10
-25.5426240414
 20
-1.2306300956
  0
LWPOLYLINE
  5
34E
100
AcDbEntity
  8
RACCORDO
100
AcDbPolyline
 62
7
  6
CONTINUOUS
 90
6
 70
0
 10
-23.7881878831
 20
-0.6873030374
 10
-23.7801330019
 20
-0.6819494342
 10
-23.7725827575
 20
-0.6766108343
 10
-23.7652175489
 20
-0.671186927
 10
-23.7579118983
 20
-0.6653774494
 10
-23.7506482356
 20
-0.6586313987
  0
LWPOLYLINE
  5
34F
100
AcDbEntity
  8
RACCORDO
100
AcDbPolyline
 62
250
  6
CONTINUOUS
 90
29
 70
0
 10
-23.7416454242
 20
-0.6700161041
 10
-23.7314252773
 20
-0.6632421167
 10
-23.7216962287
 20
-0.6556004436
 10
-23.712203073
 20
-0.6468152759
 10
-23.7029640629
 20
-0.6367461025
 10
-23.6940708701
 20
-0.6252941038
 10
-23.685649693
 20
-0.6123924917
 10
-23.6778024753
 20
-0.5979268837
 10
-23.6706341075
 20
-0.5817669899
 10
-23.6643110007
 20
-0.5639038834
 10
-23.6590156574
 20
-0.5444387625
 10
-23.6548614584
 20
-0.523319526
 10
-23.6519735728
 20
-0.5005898233
 10
-23.6504824202
 20
-0.4765730129
 10
-23.6504502364
 20
-0.4513709346
 10
-23.6519276297
 20
-0.4250411414
 10
-23.6549327243
 20
-0.3979119218
 10
-23.6594624922
 20
-0.3701287574
 10
-23.6655146143
 20
-0.3417946664
 10
-23.6730340485
 20
-0.3132017528
 10
-23.6819881518
 20
-0.284447897
 10
-23.6923222087
 20
-0.2556954433
 10
-23.7038751019
 20
-0.2273368324
 10
-23.7165516561
 20
-0.1994999501
 10
-23.7302626805
 20
-0.1722907713
 10
-23.7447832456
 20
-0.1460482534
 10
-23.7599412405
 20
-0.1209340029
 10
-23.7756600888
 20
-0.0969420915
 10
-23.7918312145
 20
-0.0741334601
  0
LWPOLYLINE
  5
350
100
AcDbEntity
  8
RACCORDO
100
AcDbPolyline
 62
7
  6
CONTINUOUS
 90
10
 70
0
 10
-23.7918302471
 20
-0.0741347153
 10
-23.7752073898
 20
-0.06392689
 10
-23.7601079347
 20
-0.053848724
 10
-23.7466720525
 20
-0.0439678879
 10
-23.7350188382
 20
-0.0343224099
 10
-23.7252881996
 20
-0.0250328629
 10
-23.7176149838
 20
-0.0163077533
 10
-23.7120474186
 20
-0.0082260229
 10
-23.7086995295
 20
-0.0009148707
 10
-23.7076151953
 20
0.00530312
  0
LWPOLYLINE
  5
351
100
AcDbEntity
  8
RACCORDO
100
AcDbPolyline
 62
7
  6
CONTINUOUS
 90
25
 70
0
 10
-23.7416671053
 20
-0.6700257869
 10
-23.7388156413
 20
-0.6682786067
 10
-23.7141559642
 20
-0.6515233286
 10
-23.6908680648
 20
-0.6326267145
 10
-23.6691530917
 20
-0.6117051545
 10
-23.6491990636
 20
-0.5889109929
 10
-23.631022643
 20
-0.5641981739
 10
-23.614794266
 20
-0.5376787993
 10
-23.6007041972
 20
-0.5095576343
 10
-23.5888322941
 20
-0.4798528106
 10
-23.5793040343
 20
-0.4486276357
 10
-23.5722818201
 20
-0.4161568335
 10
-23.5678643501
 20
-0.3826728061
 10
-23.5661121451
 20
-0.3479991562
 10
-23.567126177
 20
-0.3125459851
 10
-23.5708439112
 20
-0.2772872309
 10
-23.5771453762
 20
-0.2423054685
 10
-23.5859754884
 20
-0.2075147848
 10
-23.5971039929
 20
-0.1735391923
 10
-23.6104376089
 20
-0.1403553461
 10
-23.6259678935
 20
-0.1079115342
 10
-23.6433818745
 20
-0.0767528578
 10
-23.6626907418
 20
-0.0467875564
 10
-23.6839035017
 20
-0.0180847036
 10
-23.7066315351
 20
0.008747954
  0
LINE
  5
352
100
AcDbEntity
  8
DRAFT
100
AcDbLine
 62
7
  6
CONTINUOUS
 10
-25.5299297403
 20
-1.7541638751
 11
-23.7416451432
 21
-0.6700159337
  0
LINE
  5
353
100
AcDbEntity
  8
RACCORDO
100
AcDbLine
 62
7
  6
CONTINUOUS
 10
-25.5456832342
 20
-1.1041960841
 11
-23.7918302464
 21
-0.0741339834
  0
LWPOLYLINE
  5
354
100
AcDbEntity
  8
RACCORDO
100
AcDbPolyline
 62
250
  6
CONTINUOUS
 90
9
 70
0
 10
-23.8704761144
 20
6.3954383054
 10
-23.8629648142
 20
6.3991815158
 10
-23.8555200558
 20
6.401984506
 10
-23.8482219065
 20
6.4038146881
 10
-23.8411455741
 20
6.4046486147
 10
-23.834370441
 20
6.404476174
 10
-23.8279788153
 20
6.4033019027
 10
-23.8220391849
 20
6.4011376179
 10
-23.8192921022
 20
6.3997101557
  0
LWPOLYLINE
  5
355
100
AcDbEntity
  8
RACCORDO
100
AcDbPolyline
 62
250
  6
CONTINUOUS
 90
3
 70
0
 10
-4.3373154275
 20
-16.5978448294
 10
-4.3230148826
 20
-16.5945200215
 10
-4.3079813956
 20
-16.5930033667
  0
LINE
  5
356
100
AcDbEntity
  8
RACCORDO
100
AcDbLine
 62
7
  6
CONTINUOUS
 10
-11.3223759134
 20
-12.7794893963
 11
-11.3507368807
 21
-12.7837516897
  0
LWPOLYLINE
  5
357
100
AcDbEntity
  8
RACCORDO
100
AcDbPolyline
 62
7
  6
CONTINUOUS
 90
19
 70
0
 10
-11.3507368807
 20
-12.7837516897
 10
-11.3857810216
 20
-12.7882283502
 10
-11.4193292159
 20
-12.7916418885
 10
-11.4520803079
 20
-12.794009593
 10
-11.4840565453
 20
-12.7952859639
 10
-11.5149230724
 20
-12.7955465868
 10
-11.5449513698
 20
-12.7948404584
 10
-11.5740459283
 20
-12.7931660233
 10
-11.6019824183
 20
-12.790581795
 10
-11.6289973403
 20
-12.7871314779
 10
-11.6549673797
 20
-12.7828671434
 10
-11.6796885524
 20
-12.7778654535
 10
-11.7033518631
 20
-12.7721332547
 10
-11.7258241486
 20
-12.7657382378
 10
-11.7469244423
 20
-12.7587771577
 10
-11.7667489515
 20
-12.7512610059
 10
-11.7851927275
 20
-12.7432644697
 10
-11.8019993466
 20
-12.7349532069
 10
-11.8123157456
 20
-12.7292589614
  0
LWPOLYLINE
  5
358
100
AcDbEntity
  8
RACCORDO
100
AcDbPolyline
 62
250
  6
CONTINUOUS
 90
3
 70
0
 10
-11.3224152502
 20
-12.7794458375
 10
-11.2897302348
 20
-12.7753134846
 10
-11.2532371538
 20
-12.7733554994
  0
LWPOLYLINE
  5
359
100
AcDbEntity
  8
RACCORDO
100
AcDbPolyline
 62
250
  6
CONTINUOUS
 90
3
 70
0
 10
-11.3623373557
 20
-12.8224037873
 10
-11.3259180856
 20
-12.8178721092
 10
-11.2915711092
 20
-12.8128584697
  0
LINE
  5
35A
100
AcDbEntity
  8
RACCORDO
100
AcDbLine
 62
250
  6
CONTINUOUS
 10
-11.4006349024
 20
-12.8263864388
 11
-11.3623373557
 21
-12.8224037873
  0
LWPOLYLINE
  5
35B
100
AcDbEntity
  8
RACCORDO
100
AcDbPolyline
 62
250
  6
CONTINUOUS
 90
9
 70
0
 10
-11.2508445327
 20
-12.7563981487
 10
-11.2387201945
 20
-12.7559710061
 10
-11.226178176
 20
-12.7567080169
 10
-11.2132728572
 20
-12.7586065062
 10
-11.2000602631
 20
-12.7616592149
 10
-11.1865933761
 20
-12.7658534722
 10
-11.1729288352
 20
-12.7711724175
 10
-11.1591268315
 20
-12.7775943961
 10
-11.1452467138
 20
-12.7850927895
  0
LWPOLYLINE
  5
35C
100
AcDbEntity
  8
RACCORDO
100
AcDbPolyline
 62
250
  6
CONTINUOUS
 90
7
 70
0
 10
-4.3079813956
 20
-16.5930033667
 10
-4.2923141363
 20
-16.5933048654
 10
-4.2761164463
 20
-16.5954225245
 10
-4.2594951568
 20
-16.5993423756
 10
-4.2425599008
 20
-16.6050385647
 10
-4.2254223904
 20
-16.6124735186
 10
-4.2081956681
 20
-16.6215981951
  0
LWPOLYLINE
  5
35D
100
AcDbEntity
  8
RACCORDO
100
AcDbPolyline
 62
250
  6
CONTINUOUS
 90
4
 70
0
 10
-11.2532371538
 20
-12.7733554994
 10
-11.2171214618
 20
-12.7742130844
 10
-11.1811011255
 20
-12.7780599447
 10
-11.1452952224
 20
-12.7850656959
  0
LWPOLYLINE
  5
35E
100
AcDbEntity
  8
RACCORDO
100
AcDbPolyline
 62
7
  6
CONTINUOUS
 90
10
 70
0
 10
-10.7855228046
 20
-12.9857916712
 10
-10.7547285767
 20
-12.9887261445
 10
-10.7250790007
 20
-12.99300677
 10
-10.6966802388
 20
-12.9985678796
 10
-10.669659925
 20
-13.0053339428
 10
-10.6440442917
 20
-13.0131911897
 10
-10.6197771358
 20
-13.0220455729
 10
-10.5968807056
 20
-13.0318450657
 10
-10.5754402336
 20
-13.0425066325
 10
-10.5644294322
 20
-13.0486237206
  0
LWPOLYLINE
  5
35F
100
AcDbEntity
  8
RACCORDO
100
AcDbPolyline
 62
250
  6
CONTINUOUS
 90
9
 70
0
 10
-11.7371884954
 20
-12.804502603
 10
-11.6968539483
 20
-12.8133352188
 10
-11.6551120119
 20
-12.8203246904
 10
-11.612078699
 20
-12.825575068
 10
-11.5689766399
 20
-12.8290800037
 10
-11.5256744071
 20
-12.8306733272
 10
-11.4823034281
 20
-12.8305212088
 10
-11.4404806152
 20
-12.8291158114
 10
-11.4006349024
 20
-12.8263864388
  0
LWPOLYLINE
  5
360
100
AcDbEntity
  8
RACCORDO
100
AcDbPolyline
 62
250
  6
CONTINUOUS
 90
8
 70
0
 10
4.0903906261
 20
-17.1081565551
 10
4.0785288821
 20
-17.104236084
 10
4.0668307124
 20
-17.1017285301
 10
4.0553848901
 20
-17.1006530556
 10
4.0442784801
 20
-17.1010178994
 10
4.0335957325
 20
-17.1028202762
 10
4.0234175103
 20
-17.1060465245
 10
4.0216564834
 20
-17.1067718564
  0
LWPOLYLINE
  5
361
100
AcDbEntity
  8
RACCORDO
100
AcDbPolyline
 62
250
  6
CONTINUOUS
 90
8
 70
0
 10
-8.1106320699
 20
-10.0094054665
 10
-8.1206379821
 20
-10.0046875004
 10
-8.1317809811
 20
-10.0015322108
 10
-8.1436886894
 20
-10.0001254775
 10
-8.1562430981
 20
-10.000482014
 10
-8.1693216857
 20
-10.0025981121
 10
-8.1827992375
 20
-10.0064532928
 10
-8.1965455569
 20
-10.0120103249
  0
LWPOLYLINE
  5
362
100
AcDbEntity
  8
RACCORDO
100
AcDbPolyline
 62
250
  6
CONTINUOUS
 90
8
 70
0
 10
20.1100805166
 20
-26.303691221
 10
20.1000522714
 20
-26.2989609596
 10
20.0889095763
 20
-26.2958062502
 10
20.0770021894
 20
-26.2943999392
 10
20.0644482045
 20
-26.2947567573
 10
20.0513701712
 20
-26.2968729734
 10
20.0378932548
 20
-26.3007280958
 10
20.0241476355
 20
-26.3062848858
  0
LWPOLYLINE
  5
363
100
AcDbEntity
  8
RACCORDO
100
AcDbPolyline
 62
250
  6
CONTINUOUS
 90
8
 70
0
 10
-11.7097246368
 20
-7.9313345213
 10
-11.719752882
 20
-7.9266042599
 10
-11.7308955771
 20
-7.9234495505
 10
-11.742802964
 20
-7.9220432394
 10
-11.7553569489
 20
-7.9224000575
 10
-11.7684349822
 20
-7.9245162736
 10
-11.7819118986
 20
-7.928371396
 10
-11.7956575179
 20
-7.9339281861
  0
LWPOLYLINE
  5
364
100
AcDbEntity
  8
RACCORDO
100
AcDbPolyline
 62
250
  6
CONTINUOUS
 90
10
 70
0
 10
-4.0618957273
 20
-16.6088332081
 10
-4.0741954902
 20
-16.6028118894
 10
-4.0886293468
 20
-16.5981238001
 10
-4.1039823439
 20
-16.595452697
 10
-4.1201558448
 20
-16.5948188832
 10
-4.1370147428
 20
-16.5962306401
 10
-4.1543864519
 20
-16.5996656671
 10
-4.1721221118
 20
-16.605076821
 10
-4.1901031102
 20
-16.6124106804
 10
-4.2081956681
 20
-16.6215981951
  0
LWPOLYLINE
  5
365
100
AcDbEntity
  8
RACCORDO
100
AcDbPolyline
 62
250
  6
CONTINUOUS
 90
10
 70
0
 10
-10.4965627008
 20
-12.8935371427
 10
-10.5088710937
 20
-12.8875115013
 10
-10.5233058343
 20
-12.8828238202
 10
-10.5386594789
 20
-12.8801533287
 10
-10.5548332654
 20
-12.8795202186
 10
-10.5716921084
 20
-12.8809326428
 10
-10.5890632464
 20
-12.8843681504
 10
-10.6067977459
 20
-12.889779423
 10
-10.6247770422
 20
-12.8971128997
 10
-10.6428673769
 20
-12.9062993958
  0
LWPOLYLINE
  5
366
100
AcDbEntity
  8
RACCORDO
100
AcDbPolyline
 62
250
  6
CONTINUOUS
 90
10
 70
0
 10
-10.850122282
 20
-12.6893962719
 10
-10.8624205896
 20
-12.6833757935
 10
-10.8768544462
 20
-12.6786877041
 10
-10.8922074433
 20
-12.676016601
 10
-10.9083809442
 20
-12.6753827873
 10
-10.9252398421
 20
-12.6767945442
 10
-10.9426115513
 20
-12.6802295712
 10
-10.9603472112
 20
-12.6856407251
 10
-10.9783282096
 20
-12.6929745845
 10
-10.9964207675
 20
-12.7021620991
  0
LWPOLYLINE
  5
367
100
AcDbEntity
  8
RACCORDO
100
AcDbPolyline
 62
250
  6
CONTINUOUS
 90
4
 70
0
 10
7.7992899009
 20
-19.19559501
 10
7.7919886813
 20
-19.1919544322
 10
7.7836389045
 20
-19.1890270739
 10
7.774762235
 20
-19.1871246425
  0
LINE
  5
368
100
AcDbEntity
  8
RACCORDO
100
AcDbLine
 62
250
  6
CONTINUOUS
 10
4.1928767417
 20
-17.1138723024
 11
4.2001779399
 21
-17.1175128712
  0
LWPOLYLINE
  5
369
100
AcDbEntity
  8
RACCORDO
100
AcDbPolyline
 62
250
  6
CONTINUOUS
 90
8
 70
0
 10
2.8187604321
 20
-17.6730871382
 10
2.804452256
 20
-17.6652708695
 10
2.790146657
 20
-17.6594008362
 10
2.7759996785
 20
-17.6555410678
 10
2.762165634
 20
-17.653733666
 10
2.7487954233
 20
-17.6539983455
 10
2.7360348871
 20
-17.6563322191
 10
2.7261718567
 20
-17.6597524587
  0
LINE
  5
36A
100
AcDbEntity
  8
RACCORDO
100
AcDbLine
 62
250
  6
CONTINUOUS
 10
18.6420799851
 20
-26.8867700193
 11
18.6563376409
 21
-26.8947034212
  0
LWPOLYLINE
  5
36B
100
AcDbEntity
  8
RACCORDO
100
AcDbPolyline
 62
250
  6
CONTINUOUS
 90
6
 70
0
 10
2.7464350642
 20
-17.7085250714
 10
2.7321774161
 20
-17.7005916732
 10
2.7180759778
 20
-17.6945342788
 10
2.7042852475
 20
-17.6904192543
 10
2.6909563195
 20
-17.6882916848
 10
2.6782352282
 20
-17.6881748804
  0
LINE
  5
36C
100
AcDbEntity
  8
RACCORDO
100
AcDbLine
 62
250
  6
CONTINUOUS
 10
-13.1777251683
 20
-8.5144133195
 11
-13.1634675125
 21
-8.5223467215
  0
LWPOLYLINE
  5
36D
100
AcDbEntity
  8
RACCORDO
100
AcDbPolyline
 62
250
  6
CONTINUOUS
 90
3
 70
0
 10
4.1142450588
 20
-17.120106536
 10
4.1023261633
 20
-17.1134601381
 10
4.0903906261
 20
-17.1081565551
  0
LINE
  5
36E
100
AcDbEntity
  8
0
100
AcDbLine
 62
7
  6
CONTINUOUS
 10
-15.9145151112
 20
-10.0777540833
 11
-12.3789812053
 21
-12.1191270499
  0
LINE
  5
36F
100
AcDbEntity
  8
0
100
AcDbLine
 62
7
  6
CONTINUOUS
 10
15.9052900422
 20
-28.450110783
 11
19.4408239481
 21
-30.4914837497
  0
LINE
  5
370
100
AcDbEntity
  8
RACCORDO
100
AcDbLine
 62
250
  6
CONTINUOUS
 10
-10.7855228046
 20
-12.9857916712
 11
-4.3508510958
 21
-16.7010904705
  0
LINE
  5
371
100
AcDbEntity
  8
RACCORDO
100
AcDbLine
 62
250
  6
CONTINUOUS
 10
5.1243797721
 20
-22.1719700211
 11
11.5590514808
 21
-25.8872688203
  0
LINE
  5
372
100
AcDbEntity
  8
RACCORDO
100
AcDbLine
 62
7
  6
CONTINUOUS
 10
-10.5644310824
 20
-13.0486227676
 11
-4.37686944
 21
-16.6212433116
  0
LINE
  5
373
100
AcDbEntity
  8
RACCORDO
100
AcDbLine
 62
7
  6
CONTINUOUS
 10
5.3454714943
 20
-22.2348011175
 11
11.5330331367
 21
-25.8074216615
  0
LINE
  5
374
100
AcDbEntity
  8
0
100
AcDbLine
 62
7
  6
CONTINUOUS
 10
16.0467113984
 20
-28.3684558644
 11
19.6883113215
 21
-30.4710581835
  0
LINE
  5
375
100
AcDbEntity
  8
0
100
AcDbLine
 62
7
  6
CONTINUOUS
 10
-12.1314938319
 20
-12.0987014838
 11
-15.773093755
 21
-9.9960991646
  0
LINE
  5
376
100
AcDbEntity
  8
RACCORDO
100
AcDbLine
 62
250
  6
CONTINUOUS
 10
-10.9964207675
 20
-12.7021620991
 11
-10.6428673769
 21
-12.9062993958
  0
LINE
  5
377
100
AcDbEntity
  8
RACCORDO
100
AcDbLine
 62
250
  6
CONTINUOUS
 10
-4.2081956681
 20
-16.6215981951
 11
-3.8546422775
 21
-16.8257354918
  0
LINE
  5
378
100
AcDbEntity
  8
RACCORDO
100
AcDbLine
 62
250
  6
CONTINUOUS
 10
4.9134818092
 20
-21.888340449
 11
5.2670351998
 21
-22.0924777457
  0
LINE
  5
379
100
AcDbEntity
  8
RACCORDO
100
AcDbLine
 62
250
  6
CONTINUOUS
 10
11.7017069086
 20
-25.807776545
 11
12.0552602992
 21
-26.0119138416
  0
LINE
  5
37A
100
AcDbEntity
  8
RACCORDO
100
AcDbLine
 62
7
  6
CONTINUOUS
 10
-10.8501157339
 20
-12.6894000524
 11
-10.4965623434
 21
-12.893537349
  0
LINE
  5
37B
100
AcDbEntity
  8
RACCORDO
100
AcDbLine
 62
7
  6
CONTINUOUS
 10
-4.0618906346
 20
-16.6088361483
 11
-3.708337244
 21
-16.812973445
  0
LINE
  5
37C
100
AcDbEntity
  8
RACCORDO
100
AcDbLine
 62
7
  6
CONTINUOUS
 10
5.0597868427
 20
-21.8755784022
 11
5.4133402333
 21
-22.0797156989
  0
LINE
  5
37D
100
AcDbEntity
  8
RACCORDO
100
AcDbLine
 62
7
  6
CONTINUOUS
 10
11.8480119421
 20
-25.7950144982
 11
12.2015653327
 21
-25.9991517949
  0
LINE
  5
37E
100
AcDbEntity
  8
0
100
AcDbLine
 62
7
  6
CONTINUOUS
 10
-15.5609617206
 20
-9.8736167866
 11
-12.0254278147
 21
-11.9149897533
  0
LINE
  5
37F
100
AcDbEntity
  8
0
100
AcDbLine
 62
7
  6
CONTINUOUS
 10
16.2588434328
 20
-28.2459734864
 11
19.7943773387
 21
-30.287346453
  0
LINE
  5
380
100
AcDbEntity
  8
0
100
AcDbLine
 62
7
  6
CONTINUOUS
 10
16.400264789
 20
-28.1643185677
 11
20.0418647121
 21
-30.2669208869
  0
LINE
  5
381
100
AcDbEntity
  8
0
100
AcDbLine
 62
7
  6
CONTINUOUS
 10
-11.7779404413
 20
-11.8945641871
 11
-15.4195403644
 21
-9.791961868
  0
LINE
  5
382
100
AcDbEntity
  8
0
100
AcDbLine
 62
7
  6
CONTINUOUS
 10
-15.20740833
 20
-9.66947949
 11
-11.6718744241
 21
-11.7108524566
  0
LINE
  5
383
100
AcDbEntity
  8
0
100
AcDbLine
 62
7
  6
CONTINUOUS
 10
16.6123968233
 20
-28.0418361897
 11
20.1479307293
 21
-30.0832091563
  0
LINE
  5
384
100
AcDbEntity
  8
0
100
AcDbLine
 62
7
  6
CONTINUOUS
 10
16.7538181796
 20
-27.960181271
 11
20.3954181027
 21
-30.0627835902
  0
LINE
  5
385
100
AcDbEntity
  8
0
100
AcDbLine
 62
7
  6
CONTINUOUS
 10
-11.4243870507
 20
-11.6904268905
 11
-15.0659869738
 21
-9.5878245713
  0
LINE
  5
386
100
AcDbEntity
  8
0
100
AcDbLine
 62
7
  6
CONTINUOUS
 10
-14.8538549395
 20
-9.4653421933
 11
-11.3183210335
 21
-11.5067151599
  0
LINE
  5
387
100
AcDbEntity
  8
0
100
AcDbLine
 62
7
  6
CONTINUOUS
 10
16.9659502139
 20
-27.837698893
 11
20.5014841199
 21
-29.8790718597
  0
LINE
  5
388
100
AcDbEntity
  8
0
100
AcDbLine
 62
7
  6
CONTINUOUS
 10
17.1073715702
 20
-27.7560439744
 11
20.7489714933
 21
-29.8586462935
  0
LINE
  5
389
100
AcDbEntity
  8
0
100
AcDbLine
 62
7
  6
CONTINUOUS
 10
-11.0708336601
 20
-11.4862895938
 11
-14.7124335832
 21
-9.3836872746
  0
LINE
  5
38A
100
AcDbEntity
  8
0
100
AcDbLine
 62
7
  6
CONTINUOUS
 10
-14.5003015489
 20
-9.2612048966
 11
-10.9647676429
 21
-11.3025778633
  0
LINE
  5
38B
100
AcDbEntity
  8
0
100
AcDbLine
 62
7
  6
CONTINUOUS
 10
17.3195036045
 20
-27.6335615964
 11
20.8550375105
 21
-29.674934563
  0
LINE
  5
38C
100
AcDbEntity
  8
0
100
AcDbLine
 62
7
  6
CONTINUOUS
 10
17.4609249608
 20
-27.5519066777
 11
21.1025248839
 21
-29.6545089969
  0
LINE
  5
38D
100
AcDbEntity
  8
0
100
AcDbLine
 62
7
  6
CONTINUOUS
 10
-10.7172802695
 20
-11.2821522971
 11
-14.3588801926
 21
-9.179549978
  0
LINE
  5
38E
100
AcDbEntity
  8
0
100
AcDbLine
 62
7
  6
CONTINUOUS
 10
-14.1467481583
 20
-9.0570676
 11
-10.6112142523
 21
-11.0984405666
  0
LINE
  5
38F
100
AcDbEntity
  8
0
100
AcDbLine
 62
7
  6
CONTINUOUS
 10
17.6730569951
 20
-27.4294242997
 11
21.2085909011
 21
-29.4707972664
  0
LINE
  5
390
100
AcDbEntity
  8
0
100
AcDbLine
 62
7
  6
CONTINUOUS
 10
17.8144783514
 20
-27.347769381
 11
21.4560782745
 21
-29.4503717002
  0
LINE
  5
391
100
AcDbEntity
  8
0
100
AcDbLine
 62
7
  6
CONTINUOUS
 10
-10.3637268789
 20
-11.0780150005
 11
-14.005326802
 21
-8.9754126813
  0
LINE
  5
392
100
AcDbEntity
  8
0
100
AcDbLine
 62
7
  6
CONTINUOUS
 10
-13.7931947677
 20
-8.8529303033
 11
-10.2576608617
 21
-10.8943032699
  0
LINE
  5
393
100
AcDbEntity
  8
0
100
AcDbLine
 62
7
  6
CONTINUOUS
 10
18.0266103857
 20
-27.225287003
 11
21.5621442917
 21
-29.2666599697
  0
LINE
  5
394
100
AcDbEntity
  8
0
100
AcDbLine
 62
7
  6
CONTINUOUS
 10
18.168031742
 20
-27.1436320844
 11
21.8096316651
 21
-29.2462344035
  0
LINE
  5
395
100
AcDbEntity
  8
0
100
AcDbLine
 62
7
  6
CONTINUOUS
 10
-10.0101734883
 20
-10.8738777038
 11
-13.6517734114
 21
-8.7712753846
  0
LINE
  5
396
100
AcDbEntity
  8
0
100
AcDbLine
 62
7
  6
CONTINUOUS
 10
-13.4396413771
 20
-8.6487930066
 11
-9.9041074712
 21
-10.6901659733
  0
LINE
  5
397
100
AcDbEntity
  8
0
100
AcDbLine
 62
7
  6
CONTINUOUS
 10
18.3801637763
 20
-27.0211497064
 11
21.9156976822
 21
-29.062522673
  0
LINE
  5
398
100
AcDbEntity
  8
0
100
AcDbLine
 62
7
  6
CONTINUOUS
 10
18.5215851325
 20
-26.9394947877
 11
22.0789035494
 21
-28.9934434269
  0
LINE
  5
399
100
AcDbEntity
  8
0
100
AcDbLine
 62
7
  6
CONTINUOUS
 10
-9.6566200977
 20
-10.6697404071
 11
-13.2982200208
 21
-8.567138088
  0
LINE
  5
39A
100
AcDbEntity
  8
RACCORDO
100
AcDbLine
 62
250
  6
CONTINUOUS
 10
22.0758624139
 20
-28.8690941684
 11
18.6563376409
 21
-26.8947034212
  0
LINE
  5
39B
100
AcDbEntity
  8
RACCORDO
100
AcDbLine
 62
250
  6
CONTINUOUS
 10
6.4369039204
 20
-19.8393555365
 11
2.7464350642
 21
-17.7085250714
  0
LINE
  5
39C
100
AcDbEntity
  8
RACCORDO
100
AcDbLine
 62
250
  6
CONTINUOUS
 10
-9.4729986563
 20
-10.6531771867
 11
-13.1634675125
 21
-8.5223467215
  0
LINE
  5
39D
100
AcDbEntity
  8
RACCORDO
100
AcDbLine
 62
250
  6
CONTINUOUS
 10
22.0742245805
 20
-28.7909508098
 11
18.7286630088
 21
-26.8592654881
  0
LINE
  5
39E
100
AcDbEntity
  8
RACCORDO
100
AcDbLine
 62
250
  6
CONTINUOUS
 10
6.5052980615
 20
-19.8016477622
 11
2.8187604321
 21
-17.6730871382
  0
LINE
  5
39F
100
AcDbEntity
  8
RACCORDO
100
AcDbLine
 62
250
  6
CONTINUOUS
 10
-9.4046045152
 20
-10.6154694124
 11
-13.0911421446
 21
-8.4869087883
  0
LINE
  5
3A0
100
AcDbEntity
  8
RACCORDO
100
AcDbLine
 62
250
  6
CONTINUOUS
 10
-11.7956575179
 20
-7.9339281861
 11
-8.1965455569
 21
-10.0120103249
  0
LINE
  5
3A1
100
AcDbEntity
  8
RACCORDO
100
AcDbLine
 62
250
  6
CONTINUOUS
 10
4.1142450588
 20
-17.120106536
 11
7.7133570197
 21
-19.1981886747
  0
LINE
  5
3A2
100
AcDbEntity
  8
RACCORDO
100
AcDbLine
 62
250
  6
CONTINUOUS
 10
20.0241476355
 20
-26.3062848858
 11
22.0482429219
 21
-27.4749721363
  0
LINE
  5
3A3
100
AcDbEntity
  8
RACCORDO
100
AcDbLine
 62
7
  6
CONTINUOUS
 10
-11.7097246368
 20
-7.9313345213
 11
-8.1106126758
 21
-10.0094166601
  0
LINE
  5
3A4
100
AcDbEntity
  8
RACCORDO
100
AcDbLine
 62
7
  6
CONTINUOUS
 10
4.2001779399
 20
-17.1175128712
 11
7.7992899009
 21
-19.19559501
  0
LINE
  5
3A5
100
AcDbEntity
  8
RACCORDO
100
AcDbLine
 62
7
  6
CONTINUOUS
 10
20.1100805166
 20
-26.303691221
 11
22.0472002376
 21
-27.4221598701
  0
LINE
  5
3A6
100
AcDbEntity
  8
RACCORDO
100
AcDbLine
 62
7
  6
CONTINUOUS
 10
4.2080650332
 20
-17.1279743469
 11
4.22012728
 21
-17.1349632381
  0
LWPOLYLINE
  5
3A7
100
AcDbEntity
  8
RACCORDO
100
AcDbPolyline
 62
7
  6
CONTINUOUS
 90
12
 70
0
 10
12.0738420811
 20
-26.520826351
 10
12.0644124794
 20
-26.5151358151
 10
12.0538492829
 20
-26.5080885438
 10
12.0446110615
 20
-26.5011802796
 10
12.0367009131
 20
-26.494514864
 10
12.0301533781
 20
-26.4882432771
 10
12.0250839947
 20
-26.4826677141
 10
12.0214022951
 20
-26.4779589969
 10
12.0189234072
 20
-26.4741883909
 10
12.017503071
 20
-26.4715422426
 10
12.0168674167
 20
-26.4700406251
 10
12.0167239921
 20
-26.4695844831
  0
LWPOLYLINE
  5
3A8
100
AcDbEntity
  8
RACCORDO
100
AcDbPolyline
 62
250
  6
CONTINUOUS
 90
25
 70
0
 10
11.9762914085
 20
-26.5293265637
 10
11.9514621261
 20
-26.5139449442
 10
11.9286666453
 20
-26.4977466183
 10
11.907904966
 20
-26.4807315858
 10
11.8891111317
 20
-26.4628428405
 10
11.872351099
 20
-26.4441373888
 10
11.8578227378
 20
-26.4247862492
 10
11.8455427948
 20
-26.4046986689
 10
11.8354945233
 20
-26.3839654008
 10
11.8278255538
 20
-26.3630297214
 10
11.8226912792
 20
-26.3418529964
 10
11.8199363066
 20
-26.3204738602
 10
11.8192420872
 20
-26.2994514927
 10
11.8207583392
 20
-26.2788354225
 10
11.8243353445
 20
-26.2585761211
 10
11.8292053999
 20
-26.2390841824
 10
11.8353310212
 20
-26.2205459238
 10
11.8427496926
 20
-26.202775028
 10
11.8508061643
 20
-26.1856231367
 10
11.8594585862
 20
-26.1690624444
 10
11.8687488084
 20
-26.1531207567
 10
11.8781471307
 20
-26.137733131
 10
11.8874769864
 20
-26.12287792
 10
11.8969149422
 20
-26.1085767712
 10
11.9064609981
 20
-26.0948296844
  0
LINE
  5
3A9
100
AcDbEntity
  8
RACCORDO
100
AcDbLine
 62
7
  6
CONTINUOUS
 10
7.8355685999
 20
-19.2226191447
 11
7.8451552058
 21
-19.2285855566
  0
LWPOLYLINE
  5
3AA
100
AcDbEntity
  8
RACCORDO
100
AcDbPolyline
 62
250
  6
CONTINUOUS
 90
13
 70
0
 10
-10.6428673769
 20
-12.9062993958
 10
-10.6256650613
 20
-12.9170536156
 10
-10.6086006356
 20
-12.9293664354
 10
-10.5917866604
 20
-12.9431566375
 10
-10.5753340474
 20
-12.9583332559
 10
-10.5593513182
 20
-12.9747961851
 10
-10.5439438897
 20
-12.9924368428
 10
-10.5292133869
 20
-13.0111388786
 10
-10.5152569845
 20
-13.0307789231
 10
-10.5021667549
 20
-13.0512274092
 10
-10.4900053944
 20
-13.0723362708
 10
-10.4788766143
 20
-13.0939793638
 10
-10.4764132892
 20
-13.0994431383
  0
LWPOLYLINE
  5
3AB
100
AcDbEntity
  8
RACCORDO
100
AcDbPolyline
 62
250
  6
CONTINUOUS
 90
13
 70
0
 10
5.2670351998
 20
-22.0924777457
 10
5.2842375154
 20
-22.1032319655
 10
5.3013019411
 20
-22.1155447853
 10
5.3181159163
 20
-22.1293349874
 10
5.3345685293
 20
-22.1445116057
 10
5.3505512585
 20
-22.160974535
 10
5.365958687
 20
-22.1786151927
 10
5.3806891898
 20
-22.1973172285
 10
5.3946455922
 20
-22.216957273
 10
5.4077358218
 20
-22.237405759
 10
5.4198971823
 20
-22.2585146207
 10
5.4310259624
 20
-22.2801577137
 10
5.4334892875
 20
-22.2856214882
  0
LWPOLYLINE
  5
3AC
100
AcDbEntity
  8
RACCORDO
100
AcDbPolyline
 62
250
  6
CONTINUOUS
 90
19
 70
0
 10
-3.8546422775
 20
-16.8257354918
 10
-3.8361678418
 20
-16.8373506006
 10
-3.8178621824
 20
-16.8507574464
 10
-3.7998646165
 20
-16.8658539954
 10
-3.7823121196
 20
-16.882525351
 10
-3.7653382738
 20
-16.9006446368
 10
-3.7490722519
 20
-16.9200739653
 10
-3.7336378417
 20
-16.9406654807
 10
-3.7191525195
 20
-16.9622624605
 10
-3.7057265433
 20
-16.9847005152
 10
-3.6934620948
 20
-17.0078088697
 10
-3.6824525087
 20
-17.0314116601
 10
-3.6727815754
 20
-17.0553292478
 10
-3.6645228961
 20
-17.0793795965
 10
-3.6577393173
 20
-17.1033796772
 10
-3.6524824593
 20
-17.1271468544
 10
-3.6487923293
 20
-17.150500252
 10
-3.6466970131
 20
-17.1732621307
 10
-3.6462124576
 20
-17.1952592593
  0
LWPOLYLINE
  5
3AD
100
AcDbEntity
  8
RACCORDO
100
AcDbPolyline
 62
250
  6
CONTINUOUS
 90
19
 70
0
 10
12.0552602992
 20
-26.0119138416
 10
12.0737347349
 20
-26.0235289505
 10
12.0920403943
 20
-26.0369357963
 10
12.1100379602
 20
-26.0520323453
 10
12.1275904571
 20
-26.0687037008
 10
12.1445643029
 20
-26.0868229867
 10
12.1608303248
 20
-26.1062523152
 10
12.176264735
 20
-26.1268438305
 10
12.1907500572
 20
-26.1484408104
 10
12.2041760334
 20
-26.1708788651
 10
12.2164404819
 20
-26.1939872196
 10
12.2274500679
 20
-26.21759001
 10
12.2371210013
 20
-26.2415075977
 10
12.2453796806
 20
-26.2655579464
 10
12.2521632594
 20
-26.2895580271
 10
12.2574201174
 20
-26.3133252042
 10
12.2611102474
 20
-26.3366786018
 10
12.2632055636
 20
-26.3594404806
 10
12.263690119
 20
-26.3814376092
  0
LWPOLYLINE
  5
3AE
100
AcDbEntity
  8
RACCORDO
100
AcDbPolyline
 62
7
  6
CONTINUOUS
 90
4
 70
0
 10
7.8451552058
 20
-19.2285855566
 10
7.8592111585
 20
-19.2380073866
 10
7.8740939112
 20
-19.2485150327
 10
7.8894100471
 20
-19.2601194251
  0
LWPOLYLINE
  5
3AF
100
AcDbEntity
  8
RACCORDO
100
AcDbPolyline
 62
7
  6
CONTINUOUS
 90
7
 70
0
 10
-4.3768793923
 20
-16.6212375655
 10
-4.3756142401
 20
-16.6221026794
 10
-4.3724765195
 20
-16.6254389206
 10
-4.3694154392
 20
-16.6304790356
 10
-4.3663716543
 20
-16.6372967889
 10
-4.3632951511
 20
-16.6459636156
 10
-4.3602689179
 20
-16.6565701472
  0
LWPOLYLINE
  5
3B0
100
AcDbEntity
  8
RACCORDO
100
AcDbPolyline
 62
7
  6
CONTINUOUS
 90
7
 70
0
 10
11.5330231844
 20
-25.8074159153
 10
11.5342883366
 20
-25.8082810293
 10
11.5374260572
 20
-25.8116172705
 10
11.5404871375
 20
-25.8166573855
 10
11.5435309224
 20
-25.8234751388
 10
11.5466074256
 20
-25.8321419655
 10
11.5496336588
 20
-25.842748497
  0
LWPOLYLINE
  5
3B1
100
AcDbEntity
  8
RACCORDO
100
AcDbPolyline
 62
250
  6
CONTINUOUS
 90
4
 70
0
 10
-23.824133468
 20
6.3584540051
 10
-23.8106134268
 20
6.3421737004
 10
-23.798236223
 20
6.3239811508
 10
-23.7870583554
 20
6.3037948177
  0
LWPOLYLINE
  5
3B2
100
AcDbEntity
  8
RACCORDO
100
AcDbPolyline
 62
250
  6
CONTINUOUS
 90
14
 70
0
 10
-4.002811778
 20
-16.9090469092
 10
-3.9888403948
 20
-16.9308130722
 10
-3.9757003172
 20
-16.9555773246
 10
-3.963422918
 20
-16.9831634679
 10
-3.951495093
 20
-17.014067023
 10
-3.9403660703
 20
-17.0477164222
 10
-3.9312355517
 20
-17.0818826084
 10
-3.9240417129
 20
-17.1157013941
 10
-3.9179369278
 20
-17.1492869377
 10
-3.9126922029
 20
-17.1813489206
 10
-3.9081131584
 20
-17.2108989761
 10
-3.9035041518
 20
-17.2382134667
 10
-3.8981709747
 20
-17.2638610352
 10
-3.8931062146
 20
-17.2836669156
  0
LINE
  5
3B3
100
AcDbEntity
  8
CURVE
100
AcDbLine
 62
250
  6
CONTINUOUS
 10
-5.4078600684
 20
-22.5536357644
 11
-5.0976665792
 21
-23.6019782998
  0
LINE
  5
3B4
100
AcDbEntity
  8
CURVE
100
AcDbLine
 62
250
  6
CONTINUOUS
 10
-5.7231280228
 20
-21.4696964107
 11
-5.4078600684
 21
-22.5536357644
  0
LINE
  5
3B5
100
AcDbEntity
  8
CURVE
100
AcDbLine
 62
250
  6
CONTINUOUS
 10
-5.850664643
 20
-21.0261384486
 11
-5.7231280228
 21
-21.4696964107
  0
LINE
  5
3B6
100
AcDbEntity
  8
CURVE
100
AcDbLine
 62
250
  6
CONTINUOUS
 10
-3.9437941773
 20
-24.2682097633
 11
-3.987043651
 21
-23.5577163069
  0
LINE
  5
3B7
100
AcDbEntity
  8
CURVE
100
AcDbLine
 62
250
  6
CONTINUOUS
 10
-3.987043651
 20
-23.5577163069
 11
-4.0288627414
 21
-22.8200381825
  0
LINE
  5
3B8
100
AcDbEntity
  8
CURVE
100
AcDbLine
 62
250
  6
CONTINUOUS
 10
-4.0288627414
 20
-22.8200381825
 11
-4.0691986052
 21
-22.0546052579
  0
LWPOLYLINE
  5
3B9
100
AcDbEntity
  8
RACCORDO
100
AcDbPolyline
 62
250
  6
CONTINUOUS
 90
16
 70
0
 10
-9.3267279159
 20
-10.8952267031
 10
-9.3275292024
 20
-10.8777263958
 10
-9.3299242825
 20
-10.8595549642
 10
-9.3338869155
 20
-10.8409114983
 10
-9.3393736858
 20
-10.8220002599
 10
-9.3463244793
 20
-10.8030284444
 10
-9.3546631416
 20
-10.7842039109
 10
-9.3642983125
 20
-10.7657329052
 10
-9.3751244271
 20
-10.7478177992
 10
-9.3870228722
 20
-10.7306548747
 10
-9.3998632861
 20
-10.7144321723
 10
-9.4135049864
 20
-10.6993274314
 10
-9.4277985117
 20
-10.6855061425
 10
-9.4425872593
 20
-10.6731197346
 10
-9.4577092005
 20
-10.6623039159
 10
-9.4729986563
 20
-10.6531771867
  0
LINE
  5
3BA
100
AcDbEntity
  8
RACCORDO
100
AcDbLine
 62
7
  6
CONTINUOUS
 10
-10.3465695914
 20
-13.1533407854
 11
-10.3465695914
 21
-13.1744132621
  0
LINE
  5
3BB
100
AcDbEntity
  8
RACCORDO
100
AcDbLine
 62
250
  6
CONTINUOUS
 10
-8.0643467675
 20
-10.2613744121
 11
-8.0643467675
 21
-10.5366423482
  0
LINE
  5
3BC
100
AcDbEntity
  8
RACCORDO
100
AcDbLine
 62
7
  6
CONTINUOUS
 10
-8.0106175078
 20
-10.182618951
 11
-8.0106175078
 21
-10.457886887
  0
LWPOLYLINE
  5
3BD
100
AcDbEntity
  8
RACCORDO
100
AcDbPolyline
 62
250
  6
CONTINUOUS
 90
9
 70
0
 10
-8.0106175078
 20
-10.182618951
 10
-8.0107313391
 20
-10.1865144794
 10
-8.0124678746
 20
-10.1982907705
 10
-8.0162800601
 20
-10.2099029153
 10
-8.0221279696
 20
-10.2212292701
 10
-8.0299503428
 20
-10.2321511755
 10
-8.0396652351
 20
-10.2425542187
 10
-8.0511708844
 20
-10.25232943
 10
-8.0643467675
 20
-10.2613744121
  0
LINE
  5
3BE
100
AcDbEntity
  8
RACCORDO
100
AcDbLine
 62
250
  6
CONTINUOUS
 10
-8.0106175078
 20
-10.457886887
 11
-8.0107313703
 21
-10.4617829477
  0
LWPOLYLINE
  5
3BF
100
AcDbEntity
  8
RACCORDO
100
AcDbPolyline
 62
250
  6
CONTINUOUS
 90
16
 70
0
 10
-9.2724057258
 20
-10.8648334996
 10
-9.2717887662
 20
-10.8465811597
 10
-9.2727740385
 20
-10.8276688605
 10
-9.2753507952
 20
-10.808302895
 10
-9.2794909292
 20
-10.7886945046
 10
-9.2851492802
 20
-10.7690575751
 10
-9.2922641275
 20
-10.7496063032
 10
-9.3007578632
 20
-10.7305528609
 10
-9.3105378386
 20
-10.7121050805
 10
-9.321497375
 20
-10.6944641875
 10
-9.3335169272
 20
-10.6778226063
 10
-9.3464653874
 20
-10.6623618608
 10
-9.3602015158
 20
-10.6482505946
 10
-9.3745754806
 20
-10.6356427311
 10
-9.3894304926
 20
-10.6246757951
 10
-9.4046045152
 20
-10.6154694124
  0
LWPOLYLINE
  5
3C0
100
AcDbEntity
  8
RACCORDO
100
AcDbPolyline
 62
250
  6
CONTINUOUS
 90
19
 70
0
 10
-8.0643467675
 20
-10.2613744121
 10
-8.0637219492
 20
-10.2463442588
 10
-8.0641940141
 20
-10.2308028087
 10
-8.0657670516
 20
-10.2148634918
 10
-8.0684392966
 20
-10.1986315087
 10
-8.0721972371
 20
-10.1822406231
 10
-8.0770073672
 20
-10.1658527353
 10
-8.0828277881
 20
-10.149605996
 10
-8.0896179137
 20
-10.1336099004
 10
-8.0973279427
 20
-10.1179825277
 10
-8.1059011529
 20
-10.1028407019
 10
-8.115271909
 20
-10.0883020152
 10
-8.1253673129
 20
-10.0744801412
 10
-8.1361099071
 20
-10.0614809627
 10
-8.1474187045
 20
-10.0494023226
 10
-8.1592076833
 20
-10.0383360859
 10
-8.1713872202
 20
-10.0283663477
 10
-8.1838647847
 20
-10.0195688181
 10
-8.1965455569
 20
-10.0120103249
  0
LWPOLYLINE
  5
3C1
100
AcDbEntity
  8
RACCORDO
100
AcDbPolyline
 62
250
  6
CONTINUOUS
 90
3
 70
0
 10
-10.3465695914
 20
-13.1533412065
 10
-10.3477489011
 20
-13.168684471
 10
-10.3487761903
 20
-13.1731391996
  0
LWPOLYLINE
  5
3C2
100
AcDbEntity
  8
RACCORDO
100
AcDbPolyline
 62
250
  6
CONTINUOUS
 90
8
 70
0
 10
-8.0107313703
 20
-10.4617829477
 10
-8.0124680034
 20
-10.4735592496
 10
-8.0162802853
 20
-10.4851713861
 10
-8.0221282778
 20
-10.4964977077
 10
-8.0299506923
 20
-10.5074195366
 10
-8.0396655563
 20
-10.5178224602
 10
-8.051171094
 20
-10.5275975259
 10
-8.0643467675
 20
-10.5366423482
  0
LINE
  5
3C3
100
AcDbEntity
  8
0
100
AcDbLine
 62
7
  6
CONTINUOUS
 10
-15.9145151112
 20
-10.0777540833
 11
-16.0205811284
 21
-10.2614658138
  0
LINE
  5
3C4
100
AcDbEntity
  8
0
100
AcDbLine
 62
7
  6
CONTINUOUS
 10
-15.5609617206
 20
-9.8736167866
 11
-15.6670277378
 21
-10.0573285171
  0
LINE
  5
3C5
100
AcDbEntity
  8
0
100
AcDbLine
 62
7
  6
CONTINUOUS
 10
-15.20740833
 20
-9.66947949
 11
-15.3134743472
 21
-9.8531912205
  0
LINE
  5
3C6
100
AcDbEntity
  8
0
100
AcDbLine
 62
7
  6
CONTINUOUS
 10
-14.8538549395
 20
-9.4653421933
 11
-14.9599209566
 21
-9.6490539238
  0
LINE
  5
3C7
100
AcDbEntity
  8
0
100
AcDbLine
 62
7
  6
CONTINUOUS
 10
-14.5003015489
 20
-9.2612048966
 11
-14.606367566
 21
-9.4449166271
  0
LINE
  5
3C8
100
AcDbEntity
  8
0
100
AcDbLine
 62
7
  6
CONTINUOUS
 10
-14.1467481583
 20
-9.0570676
 11
-14.2528141754
 21
-9.2407793305
  0
LINE
  5
3C9
100
AcDbEntity
  8
0
100
AcDbLine
 62
7
  6
CONTINUOUS
 10
-13.7931947677
 20
-8.8529303033
 11
-13.8992607849
 21
-9.0366420338
  0
LINE
  5
3CA
100
AcDbEntity
  8
0
100
AcDbLine
 62
7
  6
CONTINUOUS
 10
-13.4396413771
 20
-8.6487930066
 11
-13.5457073943
 21
-8.8325047372
  0
LWPOLYLINE
  5
3CB
100
AcDbEntity
  8
RACCORDO
100
AcDbPolyline
 62
250
  6
CONTINUOUS
 90
3
 70
0
 10
-23.9676872217
 20
-5.5800386087
 10
-23.9522623641
 20
-5.5680414542
 10
-23.9351036965
 20
-5.5568550723
  0
LWPOLYLINE
  5
3CC
100
AcDbEntity
  8
RACCORDO
100
AcDbPolyline
 62
250
  6
CONTINUOUS
 90
44
 70
0
 10
-23.9233130142
 20
-5.8013450819
 10
-23.9212493285
 20
-5.7999761326
 10
-23.9193143582
 20
-5.7985795361
 10
-23.9175086849
 20
-5.7971554488
 10
-23.9158369684
 20
-5.7957013528
 10
-23.9142956985
 20
-5.7942200504
 10
-23.9128731904
 20
-5.7927196088
 10
-23.9115711058
 20
-5.7911994086
 10
-23.9103888911
 20
-5.7896601654
 10
-23.9093115183
 20
-5.788111823
 10
-23.9083405909
 20
-5.7865562523
 10
-23.9074755409
 20
-5.7849913772
 10
-23.9066981268
 20
-5.7834215675
 10
-23.9060083152
 20
-5.7818496682
 10
-23.9054072762
 20
-5.7802734145
 10
-23.9048788003
 20
-5.7786907952
 10
-23.9044221095
 20
-5.7771029064
 10
-23.9040395455
 20
-5.7755111096
 10
-23.9037199233
 20
-5.7739153433
 10
-23.9034636202
 20
-5.7723168959
 10
-23.9032723333
 20
-5.7707183518
 10
-23.9031371858
 20
-5.7691227371
 10
-23.9030594078
 20
-5.767532204
 10
-23.9030403883
 20
-5.765949456
 10
-23.9030718062
 20
-5.7643792087
 10
-23.9031554837
 20
-5.7628236422
 10
-23.9032928778
 20
-5.7612863917
 10
-23.9034754137
 20
-5.7597749729
 10
-23.9037054487
 20
-5.758291628
 10
-23.9039845611
 20
-5.7568405139
 10
-23.9043031715
 20
-5.7554321489
 10
-23.9046637175
 20
-5.7540694782
 10
-23.9050681616
 20
-5.7527558118
 10
-23.9055062688
 20
-5.7515020205
 10
-23.9059804425
 20
-5.750311451
 10
-23.9064931158
 20
-5.7491867491
 10
-23.9070342605
 20
-5.748137769
 10
-23.9076068491
 20
-5.7471675371
 10
-23.9082134796
 20
-5.7462793164
 10
-23.9088438641
 20
-5.7454836116
 10
-23.9095014875
 20
-5.7447834483
 10
-23.9101892268
 20
-5.7441822837
 10
-23.9108961877
 20
-5.7436914995
 10
-23.9110040552
 20
-5.743627631
  0
LINE
  5
3CD
100
AcDbEntity
  8
RACCORDO
100
AcDbLine
 62
250
  6
CONTINUOUS
 10
-25.4005240475
 20
-5.8381796287
 11
-24.2768124507
 21
-5.1893787205
  0
LINE
  5
3CE
100
AcDbEntity
  8
RACCORDO
100
AcDbLine
 62
250
  6
CONTINUOUS
 10
-25.0339142256
 20
-6.4425770655
 11
-23.9233130142
 21
-5.8013450819
  0
LINE
  5
3CF
100
AcDbEntity
  8
ASSI
100
AcDbLine
 62
250
  6
CONTINUOUS
 10
-25.8789564469
 20
-6.1966919562
 11
-25.3995133628
 21
-5.9199837645
  0
LINE
  5
3D0
100
AcDbEntity
  8
ASSI
100
AcDbLine
 62
250
  6
CONTINUOUS
 10
-25.5664265403
 20
-6.6688505934
 11
-25.1041300961
 21
-6.4020353019
  0
LWPOLYLINE
  5
3D1
100
AcDbEntity
  8
RACCORDO
100
AcDbPolyline
 62
250
  6
CONTINUOUS
 90
71
 70
0
 10
-24.2768105002
 20
-5.1893798063
 10
-24.2689901045
 20
-5.1849830379
 10
-24.2611839609
 20
-5.1809373066
 10
-24.2534070025
 20
-5.1772183442
 10
-24.2456661435
 20
-5.1737880218
 10
-24.2379667324
 20
-5.1706549714
 10
-24.2303229085
 20
-5.1678535719
 10
-24.2227391776
 20
-5.1653541924
 10
-24.2152184402
 20
-5.1631334949
 10
-24.2077771169
 20
-5.1612322694
 10
-24.2004259
 20
-5.1596258365
 10
-24.1931555682
 20
-5.1582797069
 10
-24.1859572497
 20
-5.1572248762
 10
-24.1788401181
 20
-5.1564444629
 10
-24.1717950669
 20
-5.1559095893
 10
-24.164790776
 20
-5.1556448494
 10
-24.1578255537
 20
-5.1556411503
 10
-24.1509039367
 20
-5.1558810381
 10
-24.1440079449
 20
-5.1563879649
 10
-24.1371364983
 20
-5.1571587517
 10
-24.1302961955
 20
-5.1581826358
 10
-24.1234827344
 20
-5.1594794677
 10
-24.1166986194
 20
-5.1610493837
 10
-24.1099489836
 20
-5.1628863676
 10
-24.1032344408
 20
-5.1650063687
 10
-24.0965570441
 20
-5.167412462
 10
-24.0899243732
 20
-5.1701014214
 10
-24.0833454354
 20
-5.1730831749
 10
-24.0768222368
 20
-5.1763625138
 10
-24.0703635033
 20
-5.1799372122
 10
-24.0639873405
 20
-5.1838078403
 10
-24.0576988784
 20
-5.1879769583
 10
-24.0515032769
 20
-5.1924441106
 10
-24.04541701
 20
-5.1972050097
 10
-24.0394468975
 20
-5.2022589554
 10
-24.0335954009
 20
-5.2076073384
 10
-24.0278710658
 20
-5.2132487479
 10
-24.0222781444
 20
-5.2191835852
 10
-24.0168212725
 20
-5.2254115828
 10
-24.0115085768
 20
-5.2319302617
 10
-24.006343578
 20
-5.2387399137
 10
-24.001330928
 20
-5.2458393094
 10
-23.996479379
 20
-5.2532231669
 10
-23.991798126
 20
-5.2608798469
 10
-23.9872845769
 20
-5.2688180529
 10
-23.982930424
 20
-5.2770641938
 10
-23.9787309935
 20
-5.2856378403
 10
-23.9747009399
 20
-5.2945203451
 10
-23.9708602686
 20
-5.3036801509
 10
-23.96720544
 20
-5.3131363524
 10
-23.9637457704
 20
-5.3228658554
 10
-23.9605135976
 20
-5.3327664052
 10
-23.9575068293
 20
-5.3428383872
 10
-23.9547220755
 20
-5.3530667259
 10
-23.9521792172
 20
-5.3633157454
 10
-23.9498731154
 20
-5.373570295
 10
-23.9477917245
 20
-5.383821905
 10
-23.9459350951
 20
-5.3939367043
 10
-23.9442982372
 20
-5.4038620554
 10
-23.9428607281
 20
-5.4136226065
 10
-23.9415966798
 20
-5.4231988108
 10
-23.9404989991
 20
-5.4325514956
 10
-23.9395534171
 20
-5.4416982185
 10
-23.938728525
 20
-5.4507096921
 10
-23.9380213853
 20
-5.4595594727
 10
-23.9374229771
 20
-5.4682618251
 10
-23.9369029496
 20
-5.4769571354
 10
-23.9364650635
 20
-5.4856747974
 10
-23.9361078355
 20
-5.4943848508
 10
-23.9358040231
 20
-5.5031471568
 10
-23.9355661206
 20
-5.5119970794
  0
LWPOLYLINE
  5
3D2
100
AcDbEntity
  8
RACCORDO
100
AcDbPolyline
 62
250
  6
CONTINUOUS
 90
3
 70
0
 10
-11.2736434627
 20
-12.7607352867
 10
-11.2625025811
 20
-12.7579886815
 10
-11.2508445327
 20
-12.7563981487
  0
LWPOLYLINE
  5
3D3
100
AcDbEntity
  8
RACCORDO
100
AcDbPolyline
 62
250
  6
CONTINUOUS
 90
5
 70
0
 10
-11.2591024093
 20
-12.8072958037
 10
-11.2282600453
 20
-12.8016871687
 10
-11.1989600369
 20
-12.7962002504
 10
-11.1712863645
 20
-12.790667363
 10
-11.1452390279
 20
-12.7850885066
  0
LINE
  5
3D4
100
AcDbEntity
  8
RACCORDO
100
AcDbLine
 62
250
  6
CONTINUOUS
 10
-11.2915711092
 20
-12.8128584697
 11
-11.2591024093
 21
-12.8072958037
  0
LINE
  5
3D5
100
AcDbEntity
  8
RACCORDO
100
AcDbLine
 62
250
  6
CONTINUOUS
 10
-24.0971326789
 20
6.526306965
 11
-23.8704768756
 21
6.3954387449
  0
LINE
  5
3D6
100
AcDbEntity
  8
RACCORDO
100
AcDbLine
 62
7
  6
CONTINUOUS
 10
-24.0971388092
 20
6.5601353907
 11
-23.8192556223
 21
6.3996891213
  0
LWPOLYLINE
  5
3D7
100
AcDbEntity
  8
RACCORDO
100
AcDbPolyline
 62
250
  6
CONTINUOUS
 90
4
 70
0
 10
-23.8704975031
 20
6.3954264117
 10
-23.8541963161
 20
6.3851394126
 10
-23.8387059932
 20
6.3728051053
 10
-23.824133468
 20
6.3584540051
  0
LINE
  5
3D8
100
AcDbEntity
  8
RACCORDO
100
AcDbLine
 62
7
  6
CONTINUOUS
 10
7.8894100471
 20
-19.2601194251
 11
7.9042734592
 21
-19.2727910137
  0
LWPOLYLINE
  5
3D9
100
AcDbEntity
  8
RACCORDO
100
AcDbPolyline
 62
7
  6
CONTINUOUS
 90
7
 70
0
 10
7.9042734592
 20
-19.2727910137
 10
7.9186502977
 20
-19.2864680122
 10
7.932333594
 20
-19.300961399
 10
7.9442955066
 20
-19.3158982278
 10
7.9542375683
 20
-19.3310023323
 10
7.9624941041
 20
-19.3461756557
 10
7.9690996815
 20
-19.3612750393
  0
LWPOLYLINE
  5
3DA
100
AcDbEntity
  8
CURVE
100
AcDbPolyline
 62
250
  6
CONTINUOUS
 90
47
 70
0
 10
1.3368037443
 20
-26.6709907248
 10
1.3335553586
 20
-26.6614209817
 10
1.3301928265
 20
-26.6519673637
 10
1.3267225088
 20
-26.6426318972
 10
1.3231507665
 20
-26.6334166083
 10
1.3194839606
 20
-26.6243235233
 10
1.3157284521
 20
-26.6153546683
 10
1.3118906019
 20
-26.6065120697
 10
1.3079767709
 20
-26.5977977536
 10
1.3039933202
 20
-26.5892137463
 10
1.2999466107
 20
-26.580762074
 10
1.2953823632
 20
-26.5715279624
 10
1.2907479107
 20
-26.5624562876
 10
1.2860432921
 20
-26.5535436085
 10
1.2812685467
 20
-26.5447864837
 10
1.2764237135
 20
-26.536181472
 10
1.2715088318
 20
-26.5277251323
 10
1.2665239405
 20
-26.5194140233
 10
1.261469079
 20
-26.5112447037
 10
1.2563442862
 20
-26.5032137325
 10
1.2511498275
 20
-26.495318848
 10
1.2458868724
 20
-26.4875625081
 10
1.2405568167
 20
-26.4799483504
 10
1.2351610563
 20
-26.4724800124
 10
1.2297009868
 20
-26.4651611318
 10
1.2241780039
 20
-26.457995346
 10
1.2185935036
 20
-26.4509862926
 10
1.2129488814
 20
-26.4441376093
 10
1.2072455331
 20
-26.4374529335
 10
1.201484654
 20
-26.4309347466
 10
1.1956666368
 20
-26.4245809047
 10
1.1897916737
 20
-26.4183881077
 10
1.1838599571
 20
-26.4123530552
 10
1.177871679
 20
-26.4064724473
 10
1.1718270318
 20
-26.4007429838
 10
1.1657262076
 20
-26.3951613644
 10
1.1595693987
 20
-26.389724289
 10
1.1533567974
 20
-26.3844284575
 10
1.1470885633
 20
-26.3792715012
 10
1.1407647269
 20
-26.3742547772
 10
1.1343852859
 20
-26.3693805743
 10
1.1279502383
 20
-26.3646511812
 10
1.1214595818
 20
-26.3600688866
 10
1.1149133144
 20
-26.3556359792
 10
1.1083114339
 20
-26.3513547476
 10
1.1016539382
 20
-26.3472274807
 10
1.0949408251
 20
-26.343256467
  0
LINE
  5
3DB
100
AcDbEntity
  8
CURVE
100
AcDbLine
 62
250
  6
CONTINUOUS
 10
-2.7167088166
 20
-24.0560640599
 11
-2.3388046196
 21
-25.1949106187
  0
LINE
  5
3DC
100
AcDbEntity
  8
CURVE
100
AcDbLine
 62
250
  6
CONTINUOUS
 10
-2.9084053437
 20
-23.4713469277
 11
-2.7167088166
 21
-24.0560640599
  0
LINE
  5
3DD
100
AcDbEntity
  8
CURVE
100
AcDbLine
 62
250
  6
CONTINUOUS
 10
-2.366600708
 20
-24.2302795398
 11
-2.6821867331
 21
-23.2593162751
  0
LINE
  5
3DE
100
AcDbEntity
  8
CURVE
100
AcDbLine
 62
250
  6
CONTINUOUS
 10
-2.6821867331
 20
-23.2593162751
 11
-2.8418418504
 21
-22.7633950196
  0
LWPOLYLINE
  5
3DF
100
AcDbEntity
  8
CURVE
100
AcDbPolyline
 62
250
  6
CONTINUOUS
 90
7
 70
0
 10
1.3923134341
 20
-26.8513676196
 10
1.3833914338
 20
-26.820765379
 10
1.3743651934
 20
-26.7903865926
 10
1.3652158416
 20
-26.7602310354
 10
1.3559245077
 20
-26.7302984824
 10
1.3464723204
 20
-26.7005887087
 10
1.3368404087
 20
-26.6711014893
  0
LINE
  5
3E0
100
AcDbEntity
  8
CURVE
100
AcDbLine
 62
250
  6
CONTINUOUS
 10
0.3926746299
 20
-26.7720325039
 11
0.1514865677
 21
-25.9399920001
  0
LINE
  5
3E1
100
AcDbEntity
  8
CURVE
100
AcDbLine
 62
250
  6
CONTINUOUS
 10
0.1514865677
 20
-25.9399920001
 11
-0.0927778383
 21
-25.0852774801
  0
LINE
  5
3E2
100
AcDbEntity
  8
CURVE
100
AcDbLine
 62
250
  6
CONTINUOUS
 10
1.4099201984
 20
-26.913243363
 11
1.3923134341
 21
-26.8513676196
  0
LINE
  5
3E3
100
AcDbEntity
  8
CURVE
100
AcDbLine
 62
250
  6
CONTINUOUS
 10
-0.0927778383
 20
-25.0852774801
 11
-0.340140485
 21
-24.2078460343
  0
LINE
  5
3E4
100
AcDbEntity
  8
CURVE
100
AcDbLine
 62
250
  6
CONTINUOUS
 10
1.5584162765
 20
-27.4451173894
 11
1.4687993161
 21
-27.1264880497
  0
LINE
  5
3E5
100
AcDbEntity
  8
CURVE
100
AcDbLine
 62
250
  6
CONTINUOUS
 10
1.4687993161
 20
-27.1264880497
 11
1.4099201984
 21
-26.913243363
  0
LINE
  5
3E6
100
AcDbEntity
  8
CURVE
100
AcDbLine
 62
250
  6
CONTINUOUS
 10
1.7563795276
 20
-26.9141636655
 11
1.7671578534
 21
-26.9543428457
  0
LINE
  5
3E7
100
AcDbEntity
  8
CURVE
100
AcDbLine
 62
250
  6
CONTINUOUS
 10
-0.1770927432
 20
-26.0181015235
 11
-0.0428621351
 21
-26.5205590343
  0
LINE
  5
3E8
100
AcDbEntity
  8
CURVE
100
AcDbLine
 62
250
  6
CONTINUOUS
 10
-4.9409364321
 20
-23.0284663026
 11
-5.1956059269
 21
-22.0715940283
  0
LINE
  5
3E9
100
AcDbEntity
  8
CURVE
100
AcDbLine
 62
250
  6
CONTINUOUS
 10
1.9269316724
 20
-27.5653895397
 11
1.9559040428
 21
-27.674621844
  0
LINE
  5
3EA
100
AcDbEntity
  8
CURVE
100
AcDbLine
 62
250
  6
CONTINUOUS
 10
-5.1956059269
 20
-22.0715940283
 11
-5.4017593172
 21
-21.2853307576
  0
LINE
  5
3EB
100
AcDbEntity
  8
CURVE
100
AcDbLine
 62
250
  6
CONTINUOUS
 10
1.7671578534
 20
-26.9543428457
 11
1.8393183768
 21
-27.2286083314
  0
LINE
  5
3EC
100
AcDbEntity
  8
CURVE
100
AcDbLine
 62
250
  6
CONTINUOUS
 10
1.8393183768
 20
-27.2286083314
 11
1.9269316724
 21
-27.5653895397
  0
LINE
  5
3ED
100
AcDbEntity
  8
CURVE
100
AcDbLine
 62
250
  6
CONTINUOUS
 10
-0.5158994431
 20
-24.6976449054
 11
-0.2799386926
 21
-25.62900021
  0
LINE
  5
3EE
100
AcDbEntity
  8
RACCORDO
100
AcDbLine
 62
7
  6
CONTINUOUS
 10
-4.3602689179
 20
-16.6565701472
 11
-4.3572749444
 21
-16.6692375576
  0
LWPOLYLINE
  5
3EF
100
AcDbEntity
  8
RACCORDO
100
AcDbPolyline
 62
7
  6
CONTINUOUS
 90
3
 70
0
 10
-4.3572749444
 20
-16.6692375576
 10
-4.3541728012
 20
-16.6840532689
 10
-4.3508510958
 20
-16.7010904705
  0
LWPOLYLINE
  5
3F0
100
AcDbEntity
  8
CURVE
100
AcDbPolyline
 62
250
  6
CONTINUOUS
 90
49
 70
0
 10
1.3773317116
 20
-25.8227101511
 10
1.3766621397
 20
-25.814261066
 10
1.3757689929
 20
-25.8057272888
 10
1.3746544187
 20
-25.7971072342
 10
1.3733205641
 20
-25.7883993168
 10
1.3717695766
 20
-25.7796019514
 10
1.3700036033
 20
-25.7707135525
 10
1.3680247915
 20
-25.7617325347
 10
1.3658352886
 20
-25.7526573129
 10
1.3634369634
 20
-25.7434880388
 10
1.3608305717
 20
-25.7342318139
 10
1.3580165909
 20
-25.7248974766
 10
1.3549954984
 20
-25.7154938658
 10
1.3517677715
 20
-25.7060298198
 10
1.3483338878
 20
-25.6965141775
 10
1.3446943245
 20
-25.6869557773
 10
1.3408495591
 20
-25.6773634579
 10
1.3368000591
 20
-25.6677464423
 10
1.3325462526
 20
-25.6581154904
 10
1.3280885579
 20
-25.6484817468
 10
1.3234273933
 20
-25.6388563556
 10
1.3185631769
 20
-25.6292504615
 10
1.3134963271
 20
-25.6196752086
 10
1.308227262
 20
-25.6101417414
 10
1.3027564
 20
-25.6006612043
 10
1.2970854717
 20
-25.591244387
 10
1.2912214572
 20
-25.5819006608
 10
1.2851726491
 20
-25.5726390424
 10
1.2789473398
 20
-25.5634685484
 10
1.2725538219
 20
-25.5543981954
 10
1.2660003879
 20
-25.5454370001
 10
1.2592953303
 20
-25.5365939791
 10
1.2524469416
 20
-25.5278781492
 10
1.2454634856
 20
-25.5192979432
 10
1.2383531107
 20
-25.5108594596
 10
1.2311239366
 20
-25.502568213
 10
1.2237840829
 20
-25.4944297181
 10
1.2163416692
 20
-25.4864494896
 10
1.2088048153
 20
-25.4786330423
 10
1.2011816407
 20
-25.4709858908
 10
1.1934802651
 20
-25.4635135498
 10
1.185706973
 20
-25.4562208474
 10
1.1778607076
 20
-25.4491098651
 10
1.1699385771
 20
-25.4421819976
 10
1.1619376895
 20
-25.4354386399
 10
1.153855153
 20
-25.4288811868
 10
1.1456880757
 20
-25.4225110332
 10
1.1374335656
 20
-25.4163295738
 10
1.1290887309
 20
-25.4103382036
  0
LINE
  5
3F1
100
AcDbEntity
  8
CURVE
100
AcDbLine
 62
250
  6
CONTINUOUS
 10
0.5140218096
 20
-26.8420971135
 11
0.4712471291
 21
-26.1396804176
  0
LINE
  5
3F2
100
AcDbEntity
  8
CURVE
100
AcDbLine
 62
250
  6
CONTINUOUS
 10
-3.5843957264
 20
-23.6144665477
 11
-3.5305553175
 21
-24.5068087018
  0
LWPOLYLINE
  5
3F3
100
AcDbEntity
  8
CURVE
100
AcDbPolyline
 62
250
  6
CONTINUOUS
 90
3
 70
0
 10
0.8733720142
 20
-26.2153254125
 10
0.8797864245
 20
-26.3255485586
 10
0.9255979378
 20
-27.0797360118
  0
LINE
  5
3F4
100
AcDbEntity
  8
CURVE
100
AcDbLine
 62
250
  6
CONTINUOUS
 10
1.513885229
 20
-26.4111072039
 11
1.5146294367
 21
-26.4241850358
  0
LINE
  5
3F5
100
AcDbEntity
  8
CURVE
100
AcDbLine
 62
250
  6
CONTINUOUS
 10
0.4712471291
 20
-26.1396804176
 11
0.4298705125
 21
-25.4106885543
  0
LINE
  5
3F6
100
AcDbEntity
  8
CURVE
100
AcDbLine
 62
250
  6
CONTINUOUS
 10
-3.6359805195
 20
-22.679425642
 11
-3.5843957264
 21
-23.6144665477
  0
LINE
  5
3F7
100
AcDbEntity
  8
CURVE
100
AcDbLine
 62
250
  6
CONTINUOUS
 10
0.8060511582
 20
-25.2364841343
 11
0.8390573203
 21
-25.8449440373
  0
LINE
  5
3F8
100
AcDbEntity
  8
CURVE
100
AcDbLine
 62
250
  6
CONTINUOUS
 10
0.4298705125
 20
-25.4106885543
 11
0.3899430537
 21
-24.6545702642
  0
LINE
  5
3F9
100
AcDbEntity
  8
CURVE
100
AcDbLine
 62
250
  6
CONTINUOUS
 10
-3.6559597454
 20
-22.2932041964
 11
-3.6359805195
 21
-22.679425642
  0
LWPOLYLINE
  5
3FA
100
AcDbEntity
  8
RACCORDO
100
AcDbPolyline
 62
250
  6
CONTINUOUS
 90
25
 70
0
 10
-3.7876338139
 20
-17.2740638697
 10
-3.7883332059
 20
-17.2579144587
 10
-3.789933088
 20
-17.2413171904
 10
-3.7924271077
 20
-17.2243449372
 10
-3.7958066465
 20
-17.2070753741
 10
-3.8000559613
 20
-17.189580431
 10
-3.8051533974
 20
-17.1719257129
 10
-3.8110788612
 20
-17.1541860687
 10
-3.8178084764
 20
-17.1364396216
 10
-3.8253110165
 20
-17.1187570584
 10
-3.8335564467
 20
-17.1012138171
 10
-3.8425111407
 20
-17.0838863434
 10
-3.8521341375
 20
-17.0668459205
 10
-3.8623851314
 20
-17.0501667092
 10
-3.8732227293
 20
-17.0339197471
 10
-3.8846006369
 20
-17.0181695999
 10
-3.8964721547
 20
-17.0029836167
 10
-3.9087879576
 20
-16.9884283855
 10
-3.9214948926
 20
-16.9745642157
 10
-3.9345186687
 20
-16.9614716553
 10
-3.9478250331
 20
-16.9491848754
 10
-3.9614226337
 20
-16.937702536
 10
-3.9752786863
 20
-16.9270717635
 10
-3.9893145905
 20
-16.9173738465
 10
-4.0034703938
 20
-16.9086673913
  0
LINE
  5
3FB
100
AcDbEntity
  8
RACCORDO
100
AcDbLine
 62
250
  6
CONTINUOUS
 10
-3.7876338139
 20
-17.3626093998
 11
-3.7876338139
 21
-17.2740638697
  0
LINE
  5
3FC
100
AcDbEntity
  8
RACCORDO
100
AcDbLine
 62
250
  6
CONTINUOUS
 10
-3.6462124576
 20
-17.1952592593
 11
-3.6462124576
 21
-17.4442643184
  0
LINE
  5
3FD
100
AcDbEntity
  8
RACCORDO
100
AcDbLine
 62
7
  6
CONTINUOUS
 10
-3.558344492
 20
-17.0727768813
 11
-3.558344492
 21
-17.4949981806
  0
LINE
  5
3FE
100
AcDbEntity
  8
CURVE
100
AcDbLine
 62
250
  6
CONTINUOUS
 10
-2.9127603655
 20
-24.8635157644
 11
-2.9118045562
 21
-24.0993914929
  0
LINE
  5
3FF
100
AcDbEntity
  8
CURVE
100
AcDbLine
 62
250
  6
CONTINUOUS
 10
-2.9118045562
 20
-24.0993914929
 11
-2.9084053437
 21
-23.4713469277
  0
LINE
  5
400
100
AcDbEntity
  8
CURVE
100
AcDbLine
 62
250
  6
CONTINUOUS
 10
-3.2895335392
 20
-23.7767218094
 11
-3.3080959886
 21
-24.6352539302
  0
LINE
  5
401
100
AcDbEntity
  8
CURVE
100
AcDbLine
 62
250
  6
CONTINUOUS
 10
-3.2657269319
 20
-22.8885638288
 11
-3.2895335392
 21
-23.7767218094
  0
LINE
  5
402
100
AcDbEntity
  8
CURVE
100
AcDbLine
 62
250
  6
CONTINUOUS
 10
-3.2547391776
 20
-22.5249932777
 11
-3.2657269319
 21
-22.8885638288
  0
LWPOLYLINE
  5
403
100
AcDbEntity
  8
RACCORDO
100
AcDbPolyline
 62
250
  6
CONTINUOUS
 90
10
 70
0
 10
-3.558344492
 20
-17.0727773025
 10
-3.5595238017
 20
-17.088120567
 10
-3.562981223
 20
-17.1031133008
 10
-3.5686906857
 20
-17.1178747698
 10
-3.5766174937
 20
-17.1323063368
 10
-3.5866966125
 20
-17.1462831579
 10
-3.5988155902
 20
-17.1596631425
 10
-3.6128524683
 20
-17.1723384165
 10
-3.628695887
 20
-17.1842313859
 10
-3.6462124576
 20
-17.1952592593
  0
LINE
  5
404
100
AcDbEntity
  8
CURVE
100
AcDbLine
 62
250
  6
CONTINUOUS
 10
-4.7403307238
 20
-22.1692712775
 11
-4.9409364321
 21
-23.0284663026
  0
LINE
  5
405
100
AcDbEntity
  8
CURVE
100
AcDbLine
 62
250
  6
CONTINUOUS
 10
-4.6355023466
 20
-21.7277579289
 11
-4.7403307238
 21
-22.1692712775
  0
LINE
  5
406
100
AcDbEntity
  8
0
100
AcDbLine
 62
7
  6
CONTINUOUS
 10
-12.3789812053
 20
-12.1191270499
 11
-12.4850472225
 21
-12.3028387804
  0
LINE
  5
407
100
AcDbEntity
  8
0
100
AcDbLine
 62
7
  6
CONTINUOUS
 10
-12.0254278147
 20
-11.9149897533
 11
-12.1314938319
 21
-12.0987014838
  0
LINE
  5
408
100
AcDbEntity
  8
0
100
AcDbLine
 62
7
  6
CONTINUOUS
 10
-11.6718744241
 20
-11.7108524566
 11
-11.7779404413
 21
-11.8945641871
  0
LINE
  5
409
100
AcDbEntity
  8
0
100
AcDbLine
 62
7
  6
CONTINUOUS
 10
-11.3183210335
 20
-11.5067151599
 11
-11.4243870507
 21
-11.6904268905
  0
LINE
  5
40A
100
AcDbEntity
  8
0
100
AcDbLine
 62
7
  6
CONTINUOUS
 10
-10.9647676429
 20
-11.3025778633
 11
-11.0708336601
 21
-11.4862895938
  0
LINE
  5
40B
100
AcDbEntity
  8
0
100
AcDbLine
 62
7
  6
CONTINUOUS
 10
-10.6112142523
 20
-11.0984405666
 11
-10.7172802695
 21
-11.2821522971
  0
LINE
  5
40C
100
AcDbEntity
  8
0
100
AcDbLine
 62
7
  6
CONTINUOUS
 10
-10.2576608617
 20
-10.8943032699
 11
-10.3637268789
 21
-11.0780150005
  0
LINE
  5
40D
100
AcDbEntity
  8
0
100
AcDbLine
 62
7
  6
CONTINUOUS
 10
-9.9041074712
 20
-10.6901659733
 11
-10.0101734883
 21
-10.8738777038
  0
LINE
  5
40E
100
AcDbEntity
  8
0
100
AcDbLine
 62
7
  6
CONTINUOUS
 10
-13.2982200208
 20
-8.567138088
 11
-13.4396413771
 21
-8.6487930066
  0
LINE
  5
40F
100
AcDbEntity
  8
0
100
AcDbLine
 62
7
  6
CONTINUOUS
 10
-13.6517734114
 20
-8.7712753846
 11
-13.7931947677
 21
-8.8529303033
  0
LINE
  5
410
100
AcDbEntity
  8
0
100
AcDbLine
 62
7
  6
CONTINUOUS
 10
-14.005326802
 20
-8.9754126813
 11
-14.1467481583
 21
-9.0570676
  0
LINE
  5
411
100
AcDbEntity
  8
0
100
AcDbLine
 62
7
  6
CONTINUOUS
 10
-14.3588801926
 20
-9.179549978
 11
-14.5003015489
 21
-9.2612048966
  0
LINE
  5
412
100
AcDbEntity
  8
0
100
AcDbLine
 62
7
  6
CONTINUOUS
 10
-14.7124335832
 20
-9.3836872746
 11
-14.8538549395
 21
-9.4653421933
  0
LINE
  5
413
100
AcDbEntity
  8
0
100
AcDbLine
 62
7
  6
CONTINUOUS
 10
-15.0659869738
 20
-9.5878245713
 11
-15.20740833
 21
-9.66947949
  0
LINE
  5
414
100
AcDbEntity
  8
0
100
AcDbLine
 62
7
  6
CONTINUOUS
 10
-15.4195403644
 20
-9.791961868
 11
-15.5609617206
 21
-9.8736167866
  0
LINE
  5
415
100
AcDbEntity
  8
0
100
AcDbLine
 62
7
  6
CONTINUOUS
 10
-15.773093755
 20
-9.9960991646
 11
-15.9145151112
 21
-10.0777540833
  0
LINE
  5
416
100
AcDbEntity
  8
0
100
AcDbLine
 62
7
  6
CONTINUOUS
 10
-16.1266471456
 20
-10.2002364613
 11
-16.1595377841
 21
-10.2192271037
  0
LWPOLYLINE
  5
417
100
AcDbEntity
  8
ASSI
100
AcDbPolyline
 62
250
  6
CONTINUOUS
 90
19
 70
0
 10
40.297676567
 20
-26.8582013624
 10
40.3290939799
 20
-26.8748560153
 10
40.3628553559
 20
-26.8899041163
 10
40.3987150367
 20
-26.9032361705
 10
40.4364120959
 20
-26.9147551697
 10
40.4756722378
 20
-26.9243772981
 10
40.516209793
 20
-26.9320325419
 10
40.5577297977
 20
-26.9376651993
 10
40.5999301391
 20
-26.9412342852
 10
40.6425037542
 20
-26.9427138298
 10
40.6851408639
 20
-26.9420930675
 10
40.7275312272
 20
-26.9393765151
 10
40.7693663983
 20
-26.9345839392
 10
40.8103419713
 20
-26.927750212
 10
40.850159795
 20
-26.918925058
 10
40.8885301424
 20
-26.9081726916
 10
40.9251738186
 20
-26.8955713506
 10
40.9598241927
 20
-26.8812127262
 10
40.9922291376
 20
-26.8652012963
  0
LWPOLYLINE
  5
418
100
AcDbEntity
  8
ASSI
100
AcDbPolyline
 62
250
  6
CONTINUOUS
 90
19
 70
0
 10
-26.8443794612
 20
11.9087803007
 10
-26.8137030098
 20
11.8924867589
 10
-26.780782718
 20
11.877725106
 10
-26.745847366
 20
11.8645979287
 10
-26.7091397378
 20
11.8531964543
 10
-26.6709149339
 20
11.8435999179
 10
-26.6314385984
 20
11.8358750107
 10
-26.590985073
 20
11.8300754171
 10
-26.5498354903
 20
11.8262414415
 10
-26.5082758203
 20
11.8243997283
 10
-26.4665948829
 20
11.8245630764
 10
-26.4250823406
 20
11.8267303508
 10
-26.3840266858
 20
11.8308864898
 10
-26.3437132356
 20
11.8370026103
 10
-26.3044221494
 20
11.8450362082
 10
-26.2664264813
 20
11.8549314538
 10
-26.2299902831
 20
11.8666195799
 10
-26.1953667691
 20
11.8800193597
 10
-26.1627965561
 20
11.8950376709
  0
LINE
  5
419
100
AcDbEntity
  8
ASSI
100
AcDbLine
 62
250
  6
CONTINUOUS
 10
40.297676567
 20
-26.8582013624
 11
22.0975389582
 21
-16.3496700083
  0
LINE
  5
41A
100
AcDbEntity
  8
ASSI
100
AcDbLine
 62
250
  6
CONTINUOUS
 10
-26.8443794612
 20
11.9087803007
 11
-45.04451707
 21
22.4173116548
  0
LINE
  5
41B
100
AcDbEntity
  8
ASSI
100
AcDbLine
 62
7
  6
CONTINUOUS
 10
44.2249166287
 20
-28.0639425359
 11
43.3056778131
 21
-27.5331855646
  0
LWPOLYLINE
  5
41C
100
AcDbEntity
  8
ASSI
100
AcDbPolyline
 62
250
  6
CONTINUOUS
 90
11
 70
0
 10
22.0975389582
 20
-16.3496700083
 10
22.069319534
 20
-16.3319578097
 10
22.0437532485
 20
-16.3129500458
 10
22.0210177751
 20
-16.2927788114
 10
22.0012711145
 20
-16.2715842869
 10
21.9846504967
 20
-16.2495137642
 10
21.9712714269
 20
-16.2267206228
 10
21.9612268833
 20
-16.2033632642
 10
21.9545866706
 20
-16.1796040109
 10
21.9513969353
 20
-16.1556079783
 10
21.9510923488
 20
-16.1455329991
  0
LWPOLYLINE
  5
41D
100
AcDbEntity
  8
ASSI
100
AcDbPolyline
 62
250
  6
CONTINUOUS
 90
11
 70
0
 10
-45.04451707
 20
22.4173116548
 10
-45.0733619167
 20
22.4354516752
 10
-45.0994243129
 20
22.4549450706
 10
-45.1225146205
 20
22.4756500009
 10
-45.1424648271
 20
22.4974158104
 10
-45.1591297686
 20
22.5200841243
 10
-45.1723881856
 20
22.5434900006
 10
-45.1821436058
 20
22.567463131
 10
-45.1883250457
 20
22.5918290792
 10
-45.190887527
 20
22.616410551
 10
-45.1909636794
 20
22.6214489363
  0
LINE
  5
41E
100
AcDbEntity
  8
RACCORDO
100
AcDbLine
 62
7
  6
CONTINUOUS
 10
-23.6926507499
 20
27.7530816285
 11
-23.7101551966
 21
27.7730013345
  0
LWPOLYLINE
  5
41F
100
AcDbEntity
  8
RACCORDO
100
AcDbPolyline
 62
250
  6
CONTINUOUS
 90
17
 70
0
 10
-23.7936277783
 20
21.0517363019
 10
-23.785477024
 20
21.0420488899
 10
-23.7784199981
 20
21.0330992725
 10
-23.7723811061
 20
21.0248894448
 10
-23.7672824474
 20
21.0174336016
 10
-23.7630510518
 20
21.0106935581
 10
-23.7596315594
 20
21.0045902231
 10
-23.756971704
 20
20.9991008651
 10
-23.7550073956
 20
20.9942079082
 10
-23.7536879357
 20
20.9898517325
 10
-23.7529710779
 20
20.9860083194
 10
-23.7528111172
 20
20.9826587823
 10
-23.7531692373
 20
20.9797637945
 10
-23.7540152827
 20
20.9772976933
 10
-23.7553125638
 20
20.9752459583
 10
-23.7570202235
 20
20.973590723
 10
-23.75813863
 20
20.9728313283
  0
LWPOLYLINE
  5
420
100
AcDbEntity
  8
RACCORDO
100
AcDbPolyline
 62
7
  6
CONTINUOUS
 90
5
 70
0
 10
7.8605895841
 20
-19.2505680474
 10
7.8674427747
 20
-19.2607052248
 10
7.8747804983
 20
-19.2738707982
 10
7.8811027709
 20
-19.2881284122
 10
7.8863249206
 20
-19.303294142
  0
LINE
  5
421
100
AcDbEntity
  8
CURVE
100
AcDbLine
 62
250
  6
CONTINUOUS
 10
-1.3003483078
 20
-25.7945022781
 11
-1.4042318061
 21
-25.041731919
  0
LINE
  5
422
100
AcDbEntity
  8
CURVE
100
AcDbLine
 62
250
  6
CONTINUOUS
 10
-1.4042318061
 20
-25.041731919
 11
-1.5077340908
 21
-24.2682917685
  0
LINE
  5
423
100
AcDbEntity
  8
CURVE
100
AcDbLine
 62
250
  6
CONTINUOUS
 10
-1.5077340908
 20
-24.2682917685
 11
-1.6108693535
 21
-23.4741431116
  0
LINE
  5
424
100
AcDbEntity
  8
CURVE
100
AcDbLine
 62
250
  6
CONTINUOUS
 10
-1.7991116426
 20
-24.7450094671
 11
-1.7046054973
 21
-25.5610892435
  0
LINE
  5
425
100
AcDbEntity
  8
CURVE
100
AcDbLine
 62
250
  6
CONTINUOUS
 10
-1.8739987784
 20
-24.0744422908
 11
-1.7991116426
 21
-24.7450094671
  0
LWPOLYLINE
  5
426
100
AcDbEntity
  8
RACCORDO
100
AcDbPolyline
 62
250
  6
CONTINUOUS
 90
16
 70
0
 10
6.5831746608
 20
-20.081405053
 10
6.5823733743
 20
-20.0639047457
 10
6.5799782941
 20
-20.0457333141
 10
6.5760156612
 20
-20.0270898482
 10
6.5705288909
 20
-20.0081786098
 10
6.5635780974
 20
-19.9892067942
 10
6.5552394351
 20
-19.9703822608
 10
6.5456042642
 20
-19.951911255
 10
6.5347781496
 20
-19.9339961491
 10
6.5228797044
 20
-19.9168332246
 10
6.5100392906
 20
-19.9006105222
 10
6.4963975903
 20
-19.8855057812
 10
6.482104065
 20
-19.8716844924
 10
6.4673153174
 20
-19.8592980845
 10
6.4521933762
 20
-19.8484822658
 10
6.4369039204
 20
-19.8393555365
  0
LINE
  5
427
100
AcDbEntity
  8
RACCORDO
100
AcDbLine
 62
7
  6
CONTINUOUS
 10
5.5633329853
 20
-22.3395191353
 11
5.5633329853
 21
-22.360591612
  0
LINE
  5
428
100
AcDbEntity
  8
CURVE
100
AcDbLine
 62
250
  6
CONTINUOUS
 10
-0.6755854428
 20
-25.4005587351
 11
-0.5158994431
 21
-24.6976449054
  0
LINE
  5
429
100
AcDbEntity
  8
CURVE
100
AcDbLine
 62
250
  6
CONTINUOUS
 10
-0.8267034371
 20
-26.0679788904
 11
-0.7398556958
 21
-25.6931692477
  0
LINE
  5
42A
100
AcDbEntity
  8
CURVE
100
AcDbLine
 62
250
  6
CONTINUOUS
 10
-1.0366078682
 20
-25.0775418077
 11
-1.2354585328
 21
-25.831968821
  0
LINE
  5
42B
100
AcDbEntity
  8
CURVE
100
AcDbLine
 62
250
  6
CONTINUOUS
 10
-0.8268539688
 20
-24.2967435759
 11
-1.0366078682
 21
-25.0775418077
  0
LINE
  5
42C
100
AcDbEntity
  8
CURVE
100
AcDbLine
 62
250
  6
CONTINUOUS
 10
-0.7398997682
 20
-23.9770300343
 11
-0.8268539688
 21
-24.2967435759
  0
LINE
  5
42D
100
AcDbEntity
  8
CURVE
100
AcDbLine
 62
250
  6
CONTINUOUS
 10
-4.7334995158
 20
-23.8122437982
 11
-4.5283722701
 21
-23.061441252
  0
LINE
  5
42E
100
AcDbEntity
  8
CURVE
100
AcDbLine
 62
250
  6
CONTINUOUS
 10
-4.5283722701
 20
-23.061441252
 11
-4.3121446283
 21
-22.2843806835
  0
LINE
  5
42F
100
AcDbEntity
  8
CURVE
100
AcDbLine
 62
250
  6
CONTINUOUS
 10
-4.3121446283
 20
-22.2843806835
 11
-4.2225456224
 21
-21.9661939659
  0
LWPOLYLINE
  5
430
100
AcDbEntity
  8
CURVE
100
AcDbPolyline
 62
250
  6
CONTINUOUS
 90
3
 70
0
 10
-2.0197283939
 20
-23.2380730259
 10
-2.0593288008
 20
-23.3504815311
 10
-2.366600708
 20
-24.2302795398
  0
LINE
  5
431
100
AcDbEntity
  8
CURVE
100
AcDbLine
 62
250
  6
CONTINUOUS
 10
-2.2808480265
 20
-25.2283740292
 11
-2.0131196715
 21
-24.4661281442
  0
LINE
  5
432
100
AcDbEntity
  8
CURVE
100
AcDbLine
 62
250
  6
CONTINUOUS
 10
-2.0131196715
 20
-24.4661281442
 11
-1.8739987784
 21
-24.0744422908
  0
LWPOLYLINE
  5
433
100
AcDbEntity
  8
RACCORDO
100
AcDbPolyline
 62
250
  6
CONTINUOUS
 90
22
 70
0
 10
-4.0034868169
 20
-16.9086765428
 10
-4.0138035886
 20
-16.9232955469
 10
-4.0241595583
 20
-16.9390793714
 10
-4.034554726
 20
-16.9560280163
 10
-4.0453679629
 20
-16.974156577
 10
-4.0562203977
 20
-16.993449958
 10
-4.0659754167
 20
-17.0138628731
 10
-4.0746809004
 20
-17.0356116187
 10
-4.0822889683
 20
-17.0584798983
 10
-4.0875193648
 20
-17.0817735361
 10
-4.0900981496
 20
-17.1055106769
 10
-4.0902992629
 20
-17.1296731758
 10
-4.08766427
 20
-17.1535124221
 10
-4.0820738978
 20
-17.1768320291
 10
-4.0736474194
 20
-17.1998283834
 10
-4.0622842189
 20
-17.2223420349
 10
-4.0478997001
 20
-17.2444613174
 10
-4.0305784592
 20
-17.266097897
 10
-4.0104736684
 20
-17.2868273217
 10
-3.9876363849
 20
-17.3065081074
 10
-3.9620155515
 20
-17.3252817381
 10
-3.9336111682
 20
-17.3431482138
  0
LWPOLYLINE
  5
434
100
AcDbEntity
  8
RACCORDO
100
AcDbPolyline
 62
250
  6
CONTINUOUS
 90
10
 70
0
 10
-8.1094739398
 20
-10.6304266754
 10
-8.1009688115
 20
-10.6246260612
 10
-8.092902461
 20
-10.6173077882
 10
-8.0857413825
 20
-10.6087635129
 10
-8.0795316356
 20
-10.5990427311
 10
-8.0743331723
 20
-10.5882329822
 10
-8.0702031934
 20
-10.5764758063
 10
-8.0671621887
 20
-10.563895338
 10
-8.0652103683
 20
-10.5505807836
 10
-8.0643467675
 20
-10.5366423482
  0
LINE
  5
435
100
AcDbEntity
  8
RACCORDO
100
AcDbLine
 62
250
  6
CONTINUOUS
 10
-9.4729986563
 20
-10.6531771867
 11
-12.3368538817
 21
-12.4263968795
  0
LINE
  5
436
100
AcDbEntity
  8
RACCORDO
100
AcDbLine
 62
250
  6
CONTINUOUS
 10
-9.3267279159
 20
-10.8952267031
 11
-12.0588766987
 21
-12.5868974211
  0
LINE
  5
437
100
AcDbEntity
  8
RACCORDO
100
AcDbLine
 62
250
  6
CONTINUOUS
 10
-8.0643467675
 20
-10.5366423482
 11
-11.8103032973
 21
-12.7327131886
  0
LINE
  5
438
100
AcDbEntity
  8
RACCORDO
100
AcDbLine
 62
7
  6
CONTINUOUS
 10
-8.1098784015
 20
-10.6306620512
 11
-11.7424417439
 21
-12.7602560197
  0
LINE
  5
439
100
AcDbEntity
  8
0
100
AcDbLine
 62
7
  6
CONTINUOUS
 10
-9.7626861149
 20
-10.6085110546
 11
-9.9041074712
 21
-10.6901659733
  0
LINE
  5
43A
100
AcDbEntity
  8
0
100
AcDbLine
 62
7
  6
CONTINUOUS
 10
-10.1162395055
 20
-10.8126483513
 11
-10.2576608617
 21
-10.8943032699
  0
LINE
  5
43B
100
AcDbEntity
  8
0
100
AcDbLine
 62
7
  6
CONTINUOUS
 10
-10.4697928961
 20
-11.0167856479
 11
-10.6112142523
 21
-11.0984405666
  0
LINE
  5
43C
100
AcDbEntity
  8
0
100
AcDbLine
 62
7
  6
CONTINUOUS
 10
-10.8233462867
 20
-11.2209229446
 11
-10.9647676429
 21
-11.3025778633
  0
LINE
  5
43D
100
AcDbEntity
  8
0
100
AcDbLine
 62
7
  6
CONTINUOUS
 10
-11.1768996773
 20
-11.4250602413
 11
-11.3183210335
 21
-11.5067151599
  0
LINE
  5
43E
100
AcDbEntity
  8
0
100
AcDbLine
 62
7
  6
CONTINUOUS
 10
-11.5304530679
 20
-11.6291975379
 11
-11.6718744241
 21
-11.7108524566
  0
LINE
  5
43F
100
AcDbEntity
  8
0
100
AcDbLine
 62
7
  6
CONTINUOUS
 10
-11.8840064585
 20
-11.8333348346
 11
-12.0254278147
 21
-11.9149897533
  0
LINE
  5
440
100
AcDbEntity
  8
0
100
AcDbLine
 62
7
  6
CONTINUOUS
 10
-12.2375598491
 20
-12.0374721313
 11
-12.3789812053
 21
-12.1191270499
  0
LINE
  5
441
100
AcDbEntity
  8
0
100
AcDbLine
 62
7
  6
CONTINUOUS
 10
-12.5911132397
 20
-12.2416094279
 11
-12.6240038782
 21
-12.2606000704
  0
LINE
  5
442
100
AcDbEntity
  8
0
100
AcDbLine
 62
7
  6
CONTINUOUS
 10
-12.517948111
 20
-12.3218353411
 11
-9.6566200977
 21
-10.6697404071
  0
LINE
  5
443
100
AcDbEntity
  8
RACCORDO
100
AcDbLine
 62
7
  6
CONTINUOUS
 10
-11.2928544582
 20
-12.7688907449
 11
-11.1461516049
 21
-12.6871431115
  0
LINE
  5
444
100
AcDbEntity
  8
RACCORDO
100
AcDbLine
 62
250
  6
CONTINUOUS
 10
-11.1452390279
 20
-12.7850885066
 11
-10.9964207675
 21
-12.7021620991
  0
LINE
  5
445
100
AcDbEntity
  8
RACCORDO
100
AcDbLine
 62
250
  6
CONTINUOUS
 10
-10.7855228046
 20
-12.9857916712
 11
-10.6428673769
 21
-12.9062993958
  0
LINE
  5
446
100
AcDbEntity
  8
RACCORDO
100
AcDbLine
 62
7
  6
CONTINUOUS
 10
-16.2918022703
 20
-10.1428592471
 11
-13.2582821509
 21
-8.509543689
  0
LINE
  5
447
100
AcDbEntity
  8
RACCORDO
100
AcDbLine
 62
250
  6
CONTINUOUS
 10
-16.2345762463
 20
-10.1759008361
 11
-14.1489606356
 21
-9.0529584158
  0
LINE
  5
448
100
AcDbEntity
  8
RACCORDO
100
AcDbLine
 62
250
  6
CONTINUOUS
 10
-14.0052391269
 20
-8.9755755184
 11
-13.8002956015
 21
-8.8652293083
  0
LINE
  5
449
100
AcDbEntity
  8
RACCORDO
100
AcDbLine
 62
250
  6
CONTINUOUS
 10
-13.639238812
 20
-8.7785127052
 11
-13.4582836498
 21
-8.6810823701
  0
LINE
  5
44A
100
AcDbEntity
  8
RACCORDO
100
AcDbLine
 62
250
  6
CONTINUOUS
 10
-13.273339065
 20
-8.5815040401
 11
-13.1554164892
 21
-8.5180009696
  0
LWPOLYLINE
  5
44B
100
AcDbEntity
  8
RACCORDO
100
AcDbPolyline
 62
250
  6
CONTINUOUS
 90
3
 70
0
 10
-13.1554164892
 20
-8.5180009696
 10
-13.1473673408
 20
-8.5137563266
 10
-13.1393210273
 20
-8.5096132972
  0
LWPOLYLINE
  5
44C
100
AcDbEntity
  8
RACCORDO
100
AcDbPolyline
 62
250
  6
CONTINUOUS
 90
10
 70
0
 10
-9.2724057258
 20
-10.8648334996
 10
-9.2784272076
 20
-10.8678817488
 10
-9.2844525122
 20
-10.8710123274
 10
-9.2904816393
 20
-10.8742252356
 10
-9.2965149136
 20
-10.8775206548
 10
-9.3025520105
 20
-10.8808984034
 10
-9.3085919566
 20
-10.884357937
 10
-9.3146344272
 20
-10.8878990741
 10
-9.320679747
 20
-10.8915219961
 10
-9.3267279159
 20
-10.8952267031
  0
LWPOLYLINE
  5
44D
100
AcDbEntity
  8
RACCORDO
100
AcDbPolyline
 62
250
  6
CONTINUOUS
 90
7
 70
0
 10
-13.1393210273
 20
-8.5096132972
 10
-13.1312790353
 20
-8.5055726639
 10
-13.1232417951
 20
-8.5016346014
 10
-13.1152086839
 20
-8.4977987476
 10
-13.107180135
 20
-8.494065351
 10
-13.0991576354
 20
-8.4904352003
 10
-13.0911421446
 20
-8.4869087883
  0
LWPOLYLINE
  5
44E
100
AcDbEntity
  8
RACCORDO
100
AcDbPolyline
 62
7
  6
CONTINUOUS
 90
5
 70
0
 10
-11.2928595426
 20
-12.7688946733
 10
-11.3004754703
 20
-12.7727194388
 10
-11.3085149344
 20
-12.7759082595
 10
-11.3158533288
 20
-12.7780925483
 10
-11.3223526857
 20
-12.7794357731
  0
LINE
  5
44F
100
AcDbEntity
  8
RACCORDO
100
AcDbLine
 62
250
  6
CONTINUOUS
 10
-8.0643467675
 20
-10.2613744121
 11
-9.2724057258
 21
-10.8648334996
  0
LWPOLYLINE
  5
450
100
AcDbEntity
  8
RACCORDO
100
AcDbPolyline
 62
250
  6
CONTINUOUS
 90
10
 70
0
 10
-8.1965455569
 20
-10.0120103249
 10
-9.4121842385
 20
-10.6192474311
 10
-9.4197706943
 20
-10.623129348
 10
-9.427362923
 20
-10.6271146704
 10
-9.4349594145
 20
-10.6312026229
 10
-9.4425597586
 20
-10.6353929437
 10
-9.450164648
 20
-10.6396859546
 10
-9.4577736757
 20
-10.6440814674
 10
-9.4653853318
 20
-10.648578713
 10
-9.4729986563
 20
-10.6531771867
  0
LWPOLYLINE
  5
451
100
AcDbEntity
  8
RACCORDO
100
AcDbPolyline
 62
250
  6
CONTINUOUS
 90
8
 70
0
 10
-13.2582821509
 20
-8.509543689
 10
-13.2547367359
 20
-8.5077783042
 10
-13.2436412568
 20
-8.503891778
 10
-13.2316673759
 20
-8.5019965325
 10
-13.2189462816
 20
-8.5021133328
 10
-13.2056173492
 20
-8.5042408999
 10
-13.1918266134
 20
-8.5083559237
 10
-13.1777251683
 20
-8.5144133195
  0
LWPOLYLINE
  5
452
100
AcDbEntity
  8
RACCORDO
100
AcDbPolyline
 62
250
  6
CONTINUOUS
 90
3
 70
0
 10
-11.2928546634
 20
-12.7688908593
 10
-11.2842179932
 20
-12.7646257944
 10
-11.2736434627
 20
-12.7607352867
  0
LWPOLYLINE
  5
453
100
AcDbEntity
  8
RACCORDO
100
AcDbPolyline
 62
7
  6
CONTINUOUS
 90
6
 70
0
 10
-13.1837318333
 20
-8.473574584
 10
-13.190808189
 20
-8.4766323923
 10
-13.2075248483
 20
-8.4841519069
 10
-13.224208167
 20
-8.4920718942
 10
-13.240854869
 20
-8.5003896073
 10
-13.2582840146
 20
-8.5095446925
  0
LINE
  5
454
100
AcDbEntity
  8
RACCORDO
100
AcDbLine
 62
7
  6
CONTINUOUS
 10
-13.18373072
 20
-8.4735741088
 11
-11.8882460933
 21
-7.9205935066
  0
LINE
  5
455
100
AcDbEntity
  8
RACCORDO
100
AcDbLine
 62
250
  6
CONTINUOUS
 10
-13.0911421446
 20
-8.4869087883
 11
-11.7956575179
 21
-7.9339281861
  0
LWPOLYLINE
  5
456
100
AcDbEntity
  8
RACCORDO
100
AcDbPolyline
 62
250
  6
CONTINUOUS
 90
10
 70
0
 10
-11.8882460933
 20
-7.9205935066
 10
-11.8866814466
 20
-7.9199464721
 10
-11.8765001223
 20
-7.9166887819
 10
-11.8658066305
 20
-7.9148579125
 10
-11.8546762729
 20
-7.9144698497
 10
-11.8431983371
 20
-7.9155306833
 10
-11.8314667603
 20
-7.9180323848
 10
-11.8195733558
 20
-7.9219544219
 10
-11.8076065555
 20
-7.9272666926
 10
-11.7956575179
 20
-7.9339281861
  0
LWPOLYLINE
  5
457
100
AcDbEntity
  8
RACCORDO
100
AcDbPolyline
 62
250
  6
CONTINUOUS
 90
8
 70
0
 10
-13.18373072
 20
-8.4735741088
 10
-13.1738676773
 20
-8.4701538659
 10
-13.1611071417
 20
-8.4678199945
 10
-13.1477369324
 20
-8.4675553167
 10
-13.1339028898
 20
-8.4693627196
 10
-13.1197559138
 20
-8.4732224884
 10
-13.1054503175
 20
-8.4790925211
 10
-13.0911421446
 20
-8.4869087883
  0
LWPOLYLINE
  5
458
100
AcDbEntity
  8
RACCORDO
100
AcDbPolyline
 62
7
  6
CONTINUOUS
 90
10
 70
0
 10
7.9690996815
 20
-19.3612750393
 10
7.9725384759
 20
-19.3712427661
 10
7.9755826009
 20
-19.3811364659
 10
7.9782320566
 20
-19.3909561385
 10
7.9804922743
 20
-19.4007281886
 10
7.9823578226
 20
-19.4104262116
 10
7.9838124079
 20
-19.4199709938
 10
7.9848505992
 20
-19.4293361305
 10
7.9854778275
 20
-19.4385480264
 10
7.9856940929
 20
-19.4476066815
  0
LINE
  5
459
100
AcDbEntity
  8
RACCORDO
100
AcDbLine
 62
7
  6
CONTINUOUS
 10
12.016734097
 20
-26.4696247919
 11
12.016701485
 21
-26.469509323
  0
LWPOLYLINE
  5
45A
100
AcDbEntity
  8
RACCORDO
100
AcDbPolyline
 62
250
  6
CONTINUOUS
 90
16
 70
0
 10
12.016701485
 20
-26.469509323
 10
12.0121943445
 20
-26.4520682322
 10
12.007464935
 20
-26.4298008166
 10
12.0032445864
 20
-26.4061431599
 10
11.9992264105
 20
-26.3810927361
 10
11.9952323354
 20
-26.354998465
 10
11.9909074401
 20
-26.3280922292
 10
11.9858188391
 20
-26.3004743648
 10
11.9797355834
 20
-26.2723646579
 10
11.9726070269
 20
-26.2441651044
 10
11.9640704111
 20
-26.2158608197
 10
11.9540715916
 20
-26.1880125179
 10
11.9432075534
 20
-26.161713826
 10
11.931699189
 20
-26.1373675557
 10
11.9193068439
 20
-26.114921796
 10
11.9060728299
 20
-26.0946368009
  0
LWPOLYLINE
  5
45B
100
AcDbEntity
  8
RACCORDO
100
AcDbPolyline
 62
7
  6
CONTINUOUS
 90
8
 70
0
 10
7.8863249206
 20
-19.303294142
 10
7.8902233935
 20
-19.3188325131
 10
7.8927596582
 20
-19.3346080777
 10
7.8939924236
 20
-19.3505136217
 10
7.893947411
 20
-19.3660037446
 10
7.8927054327
 20
-19.3808337335
 10
7.890351334
 20
-19.3950815621
 10
7.8869672088
 20
-19.4086972997
  0
LINE
  5
45C
100
AcDbEntity
  8
RACCORDO
100
AcDbLine
 62
7
  6
CONTINUOUS
 10
11.5496336588
 20
-25.842748497
 11
11.5526276323
 21
-25.8554159074
  0
LWPOLYLINE
  5
45D
100
AcDbEntity
  8
RACCORDO
100
AcDbPolyline
 62
7
  6
CONTINUOUS
 90
3
 70
0
 10
11.5526276323
 20
-25.8554159074
 10
11.5557297755
 20
-25.8702316188
 10
11.5590514808
 20
-25.8872688203
  0
LWPOLYLINE
  5
45E
100
AcDbEntity
  8
RACCORDO
100
AcDbPolyline
 62
250
  6
CONTINUOUS
 90
28
 70
0
 10
12.1222687628
 20
-26.4602422195
 10
12.1216905336
 20
-26.4458800114
 10
12.120396921
 20
-26.4311569551
 10
12.1183920314
 20
-26.4161244005
 10
12.1156811952
 20
-26.4008370993
 10
12.112274662
 20
-26.385345565
 10
12.108186814
 20
-26.3696956942
 10
12.1034305755
 20
-26.3539403186
 10
12.0980210299
 20
-26.3381344359
 10
12.0919781929
 20
-26.3223274186
 10
12.0853210688
 20
-26.3065727099
 10
12.078071188
 20
-26.2909248841
 10
12.0702550882
 20
-26.2754346953
 10
12.0618983274
 20
-26.2601552637
 10
12.0530277786
 20
-26.24513864
 10
12.0436745264
 20
-26.2304329719
 10
12.033869416
 20
-26.2160887554
 10
12.0236442128
 20
-26.2021548942
 10
12.0130334404
 20
-26.1886755962
 10
12.0020714607
 20
-26.1756962986
 10
11.9907948252
 20
-26.1632627146
 10
11.9792431333
 20
-26.1514170979
 10
11.9674532324
 20
-26.1401984661
 10
11.9554659496
 20
-26.1296475251
 10
11.9433285621
 20
-26.1198047685
 10
11.9310844365
 20
-26.1107043273
 10
11.9187725626
 20
-26.102375017
 10
11.9064345388
 20
-26.0948444284
  0
LINE
  5
45F
100
AcDbEntity
  8
ASSI
100
AcDbLine
 62
7
  6
CONTINUOUS
 10
7.744615455
 20
-19.8496961366
 11
7.744615455
 21
-19.5868024656
  0
LINE
  5
460
100
AcDbEntity
  8
RACCORDO
100
AcDbLine
 62
250
  6
CONTINUOUS
 10
7.8455558092
 20
-19.447552762
 11
7.8455558092
 21
-19.4874308601
  0
LINE
  5
461
100
AcDbEntity
  8
ASSI
100
AcDbLine
 62
7
  6
CONTINUOUS
 10
7.9856940929
 20
-19.4476066815
 11
7.9856940929
 21
-19.9374888476
  0
LINE
  5
462
100
AcDbEntity
  8
RACCORDO
100
AcDbLine
 62
250
  6
CONTINUOUS
 10
12.1222687628
 20
-26.5487877496
 11
12.1222687628
 21
-26.4602422195
  0
LINE
  5
463
100
AcDbEntity
  8
RACCORDO
100
AcDbLine
 62
250
  6
CONTINUOUS
 10
12.263690119
 20
-26.3814376092
 11
12.263690119
 21
-26.6304426683
  0
LINE
  5
464
100
AcDbEntity
  8
RACCORDO
100
AcDbLine
 62
7
  6
CONTINUOUS
 10
12.3515580847
 20
-26.2589552312
 11
12.3515580847
 21
-26.6811765304
  0
LWPOLYLINE
  5
465
100
AcDbEntity
  8
ASSI
100
AcDbPolyline
 62
7
  6
CONTINUOUS
 90
13
 70
0
 10
7.9856940929
 20
-19.9374888476
 10
7.9853805597
 20
-19.9480628752
 10
7.9844747691
 20
-19.958158913
 10
7.9829767212
 20
-19.967776961
 10
7.9808749615
 20
-19.9769540058
 10
7.9781809444
 20
-19.9856530608
 10
7.9749290331
 20
-19.9937631666
 10
7.9711120811
 20
-20.0012767787
 10
7.9667372347
 20
-20.0082014417
 10
7.9618602969
 20
-20.0144488289
 10
7.9564748358
 20
-20.0200102645
 10
7.9505872831
 20
-20.0248944245
 10
7.9442775687
 20
-20.0290362198
  0
LWPOLYLINE
  5
466
100
AcDbEntity
  8
RACCORDO
100
AcDbPolyline
 62
250
  6
CONTINUOUS
 90
16
 70
0
 10
6.6374968509
 20
-20.0510118495
 10
6.6381138105
 20
-20.0327595096
 10
6.6371285382
 20
-20.0138472104
 10
6.6345517815
 20
-19.9944812449
 10
6.6304116475
 20
-19.9748728545
 10
6.6247532965
 20
-19.9552359249
 10
6.6176384492
 20
-19.9357846531
 10
6.6091447135
 20
-19.9167312108
 10
6.5993647381
 20
-19.8982834303
 10
6.5884052017
 20
-19.8806425373
 10
6.5763856495
 20
-19.8640009561
 10
6.5634371893
 20
-19.8485402107
 10
6.5497010609
 20
-19.8344289445
 10
6.5353270961
 20
-19.8218210809
 10
6.5204720841
 20
-19.810854145
 10
6.5052980615
 20
-19.8016477622
  0
LWPOLYLINE
  5
467
100
AcDbEntity
  8
RACCORDO
100
AcDbPolyline
 62
250
  6
CONTINUOUS
 90
19
 70
0
 10
7.8455558092
 20
-19.447552762
 10
7.846181221
 20
-19.4323986668
 10
7.8456942056
 20
-19.4167614983
 10
7.8440981425
 20
-19.4007595693
 10
7.8414047153
 20
-19.3845135056
 10
7.8376340621
 20
-19.3681468422
 10
7.8328149574
 20
-19.3517851084
 10
7.8269841249
 20
-19.3355528166
 10
7.8201856116
 20
-19.3195724459
 10
7.8124709062
 20
-19.3039650376
 10
7.803898439
 20
-19.2888488322
 10
7.7945331804
 20
-19.274338423
 10
7.784446129
 20
-19.2605438245
 10
7.7737136355
 20
-19.2475694716
 10
7.7624171109
 20
-19.2355138001
 10
7.750642494
 20
-19.2244684611
 10
7.7384791593
 20
-19.2145171529
 10
7.7260191923
 20
-19.2057350775
 10
7.7133570197
 20
-19.1981886747
  0
LWPOLYLINE
  5
468
100
AcDbEntity
  8
RACCORDO
100
AcDbPolyline
 62
250
  6
CONTINUOUS
 90
3
 70
0
 10
5.5633329853
 20
-22.3395195564
 10
5.5621536756
 20
-22.3548628209
 10
5.5611263864
 20
-22.3593175494
  0
LINE
  5
469
100
AcDbEntity
  8
RACCORDO
100
AcDbLine
 62
250
  6
CONTINUOUS
 10
-3.8473941704
 20
-17.3233419691
 11
-3.8495442498
 21
-17.3263390477
  0
LWPOLYLINE
  5
46A
100
AcDbEntity
  8
RACCORDO
100
AcDbPolyline
 62
250
  6
CONTINUOUS
 90
4
 70
0
 10
-3.8053151357
 20
-17.2852050107
 10
-3.8212474327
 20
-17.2971935268
 10
-3.8353094509
 20
-17.3099381779
 10
-3.8473941704
 20
-17.3233419691
  0
LINE
  5
46B
100
AcDbEntity
  8
ASSI
100
AcDbLine
 62
250
  6
CONTINUOUS
 10
43.0758552563
 20
11.7691127137
 11
43.5182405978
 21
12.0245387997
  0
LINE
  5
46C
100
AcDbEntity
  8
RACCORDO
100
AcDbLine
 62
7
  6
CONTINUOUS
 10
-4.3579265055
 20
-16.6065792075
 11
-4.3786163804
 21
-16.6181082833
  0
LWPOLYLINE
  5
46D
100
AcDbEntity
  8
RACCORDO
100
AcDbPolyline
 62
250
  6
CONTINUOUS
 90
10
 70
0
 10
-11.1461516049
 20
-12.6871431115
 10
-11.1336426873
 20
-12.6812286196
 10
-11.1187641209
 20
-12.6765859951
 10
-11.1029826378
 20
-12.6740181665
 10
-11.0864183621
 20
-12.6735446689
 10
-11.0691973474
 20
-12.6751690957
 10
-11.0514506384
 20
-12.6788790819
 10
-11.0333132914
 20
-12.6846463943
 10
-11.0149233484
 20
-12.6924271389
 10
-10.9964207675
 20
-12.7021620991
  0
LWPOLYLINE
  5
46E
100
AcDbEntity
  8
RACCORDO
100
AcDbPolyline
 62
7
  6
CONTINUOUS
 90
4
 70
0
 10
-24.1472598674
 20
20.7787360428
 10
-24.1647265732
 20
20.7853698744
 10
-24.1853255378
 20
20.793562681
 10
-24.2092737595
 20
20.803220645
  0
LWPOLYLINE
  5
46F
100
AcDbEntity
  8
RACCORDO
100
AcDbPolyline
 62
250
  6
CONTINUOUS
 90
10
 70
0
 10
12.3515580847
 20
-26.2589556523
 10
12.350378775
 20
-26.2742989168
 10
12.3469213537
 20
-26.2892916507
 10
12.341211891
 20
-26.3040531196
 10
12.333285083
 20
-26.3184846866
 10
12.3232059642
 20
-26.3324615078
 10
12.3110869865
 20
-26.3458414924
 10
12.2970501084
 20
-26.3585167663
 10
12.2812066897
 20
-26.3704097358
 10
12.263690119
 20
-26.3814376092
  0
LWPOLYLINE
  5
470
100
AcDbEntity
  8
RACCORDO
100
AcDbPolyline
 62
7
  6
CONTINUOUS
 90
13
 70
0
 10
7.8869672088
 20
-19.4086972997
 10
7.8844273296
 20
-19.4170293641
 10
7.8817147958
 20
-19.4250650235
 10
7.8788456058
 20
-19.4328031149
 10
7.8758497997
 20
-19.4402507303
 10
7.8727298803
 20
-19.4474004565
 10
7.8694521012
 20
-19.45422757
 10
7.8660418099
 20
-19.4607480917
 10
7.862489176
 20
-19.4669427737
 10
7.8586848491
 20
-19.4727258166
 10
7.8545806877
 20
-19.4780603606
 10
7.8502065532
 20
-19.4829650923
 10
7.8455558092
 20
-19.4874308601
  0
LWPOLYLINE
  5
471
100
AcDbEntity
  8
RACCORDO
100
AcDbPolyline
 62
250
  6
CONTINUOUS
 90
10
 70
0
 10
7.8869672088
 20
-19.4086972997
 10
7.8837313754
 20
-19.4134452965
 10
7.8801354459
 20
-19.4181061267
 10
7.8761864409
 20
-19.4226706908
 10
7.8718920698
 20
-19.4271300775
 10
7.8672607166
 20
-19.4314755807
 10
7.8623014233
 20
-19.4356987165
 10
7.8570238718
 20
-19.4397912401
 10
7.8514383655
 20
-19.4437451617
 10
7.8455558092
 20
-19.447552762
  0
LINE
  5
472
100
AcDbEntity
  8
RACCORDO
100
AcDbLine
 62
250
  6
CONTINUOUS
 10
-3.7876338139
 20
-17.2740638697
 11
-3.8053151357
 21
-17.2852050107
  0
LINE
  5
473
100
AcDbEntity
  8
ASSI
100
AcDbLine
 62
250
  6
CONTINUOUS
 10
43.2775789027
 20
10.2535626482
 11
44.2249166287
 21
10.800540011
  0
LINE
  5
474
100
AcDbEntity
  8
RACCORDO
100
AcDbLine
 62
250
  6
CONTINUOUS
 10
-4.2081956681
 20
-16.6215981951
 11
-4.3508510958
 21
-16.7010904705
  0
LINE
  5
475
100
AcDbEntity
  8
RACCORDO
100
AcDbLine
 62
250
  6
CONTINUOUS
 10
-3.8546422775
 20
-16.8257354918
 11
-4.0034868169
 21
-16.9086765428
  0
LINE
  5
476
100
AcDbEntity
  8
RACCORDO
100
AcDbLine
 62
250
  6
CONTINUOUS
 10
-3.6462124576
 20
-17.1952592593
 11
-3.7876338139
 21
-17.2740638697
  0
LINE
  5
477
100
AcDbEntity
  8
RACCORDO
100
AcDbLine
 62
250
  6
CONTINUOUS
 10
2.7544886866
 20
-17.7041779327
 11
-0.3246736696
 21
-19.362079186
  0
LWPOLYLINE
  5
478
100
AcDbEntity
  8
RACCORDO
100
AcDbPolyline
 62
250
  6
CONTINUOUS
 90
3
 70
0
 10
-4.3579026542
 20
-16.6065659183
 10
-4.3507886981
 20
-16.6029558623
 10
-4.3373154275
 20
-16.5978448294
  0
LINE
  5
479
100
AcDbEntity
  8
RACCORDO
100
AcDbLine
 62
250
  6
CONTINUOUS
 10
2.655165869
 20
-17.6939566412
 11
2.6516204258
 21
-17.6957220389
  0
LWPOLYLINE
  5
47A
100
AcDbEntity
  8
RACCORDO
100
AcDbPolyline
 62
7
  6
CONTINUOUS
 90
6
 70
0
 10
2.7227255538
 20
-17.6612323528
 10
2.7055444527
 20
-17.6688738391
 10
2.6883951333
 20
-17.6769399336
 10
2.6712812811
 20
-17.6854277775
 10
2.6542092914
 20
-17.6943332023
 10
-0.3818996936
 20
-19.3290375969
  0
LWPOLYLINE
  5
47B
100
AcDbEntity
  8
RACCORDO
100
AcDbPolyline
 62
250
  6
CONTINUOUS
 90
9
 70
0
 10
2.8187604321
 20
-17.6730871382
 10
2.8107475358
 20
-17.6766123925
 10
2.8027269855
 20
-17.6802416165
 10
2.7946997384
 20
-17.6839743427
 10
2.7866672783
 20
-17.6878098085
 10
2.7786300382
 20
-17.69174779
 10
2.7705873966
 20
-17.6957886728
 10
2.7625397842
 20
-17.6999323062
 10
2.7544886866
 20
-17.7041779327
  0
LINE
  5
47C
100
AcDbEntity
  8
RACCORDO
100
AcDbLine
 62
7
  6
CONTINUOUS
 10
4.0216564834
 20
-17.1067718564
 11
2.7227255538
 21
-17.6612323528
  0
LINE
  5
47D
100
AcDbEntity
  8
RACCORDO
100
AcDbLine
 62
250
  6
CONTINUOUS
 10
4.1142450588
 20
-17.120106536
 11
2.8187604321
 21
-17.6730871382
  0
LINE
  5
47E
100
AcDbEntity
  8
RACCORDO
100
AcDbLine
 62
250
  6
CONTINUOUS
 10
4.1142450588
 20
-17.120106536
 11
4.1251580174
 21
-17.1155637252
  0
LWPOLYLINE
  5
47F
100
AcDbEntity
  8
RACCORDO
100
AcDbPolyline
 62
250
  6
CONTINUOUS
 90
8
 70
0
 10
4.1251580174
 20
-17.1155637252
 10
4.1358801219
 20
-17.1120949929
 10
4.14634878
 20
-17.1097094614
 10
4.1565072218
 20
-17.108409231
 10
4.1662951744
 20
-17.1081909266
 10
4.175650277
 20
-17.1090425042
 10
4.1845269566
 20
-17.1109449388
 10
4.1928767417
 20
-17.1138723024
  0
LWPOLYLINE
  5
480
100
AcDbEntity
  8
ASSI
100
AcDbPolyline
 62
250
  6
CONTINUOUS
 90
19
 70
0
 10
-26.5602080669
 20
30.3449592957
 10
-26.5295340951
 20
30.3286047691
 10
-26.4966187523
 20
30.3136586067
 10
-26.4616907664
 20
30.3002246676
 10
-26.4249928504
 20
30.2883963027
 10
-26.3867800164
 20
30.2782557054
 10
-26.3473178029
 20
30.269873341
 10
-26.3068804304
 20
30.2633074571
 10
-26.2657488955
 20
30.2586036787
 10
-26.2242090171
 20
30.2557946908
 10
-26.1825494529
 20
30.2549000121
 10
-26.1410596913
 20
30.2559258589
 10
-26.1000280399
 20
30.2588651019
 10
-26.0597396522
 20
30.2636973118
 10
-26.0204744584
 20
30.2703889108
 10
-25.9825052274
 20
30.2788934195
 10
-25.9460957877
 20
30.2891517595
 10
-25.9114991857
 20
30.3010926511
 10
-25.8789558447
 20
30.3146331271
  0
LINE
  5
481
100
AcDbEntity
  8
ASSI
100
AcDbLine
 62
250
  6
CONTINUOUS
 10
-25.8949398502
 20
30.7278695498
 11
21.7733889275
 21
3.2047739381
  0
LWPOLYLINE
  5
482
100
AcDbEntity
  8
ASSI
100
AcDbPolyline
 62
7
  6
CONTINUOUS
 90
30
 70
0
 10
-25.7917759826
 20
30.4799246691
 10
21.8785667482
 20
2.9556563016
 10
21.8925274389
 20
2.9470074161
 10
21.9081350165
 20
2.9363257576
 10
21.9250549936
 20
2.9236091947
 10
21.9430978661
 20
2.9087943126
 10
21.9620844406
 20
2.8918283688
 10
21.9816797735
 20
2.8728299042
 10
22.001682598
 20
2.8518386176
 10
22.0219086678
 20
2.8289001795
 10
22.042067201
 20
2.8042124771
 10
22.061970903
 20
2.7778977145
 10
22.0814470195
 20
2.7500903859
 10
22.1002588127
 20
2.7210508962
 10
22.1182501166
 20
2.6909670947
 10
22.1352878418
 20
2.6600273106
 10
22.1512063365
 20
2.6285196252
 10
22.1659053789
 20
2.5966529564
 10
22.1792951879
 20
2.5646603945
 10
22.1912677321
 20
2.5328824167
 10
22.2017855222
 20
2.5015405277
 10
22.210826583
 20
2.4708708302
 10
22.2183604388
 20
2.4412395569
 10
22.2244299763
 20
2.4128352102
 10
22.2290893511
 20
2.3858699591
 10
22.2323968065
 20
2.3607218912
 10
22.234476977
 20
2.337532392
 10
22.2354682949
 20
2.3164406046
 10
22.23553255
 20
2.2977519578
 10
22.2353476257
 20
2.2910929684
  0
LWPOLYLINE
  5
483
100
AcDbEntity
  8
ASSI
100
AcDbPolyline
 62
250
  6
CONTINUOUS
 90
25
 70
0
 10
21.7733889275
 20
3.2047739381
 10
21.815042591
 20
3.1790287466
 10
21.8560299274
 20
3.1505082472
 10
21.8963510282
 20
3.1192109199
 10
21.9361618812
 20
3.0849793186
 10
21.9753068639
 20
3.0479648172
 10
22.0133187247
 20
3.008627916
 10
22.0501893033
 20
2.9669306696
 10
22.0859274316
 20
2.9228998703
 10
22.1200913666
 20
2.877092799
 10
22.152670531
 20
2.8294612968
 10
22.1836763796
 20
2.7800389756
 10
22.2127001557
 20
2.729506818
 10
22.2396748547
 20
2.6779711169
 10
22.2646683943
 20
2.625310482
 10
22.2874743098
 20
2.5718658853
 10
22.3081449156
 20
2.5174894165
 10
22.3266289012
 20
2.4623124359
 10
22.3425642047
 20
2.4070974977
 10
22.3559102671
 20
2.3517174431
 10
22.3667084843
 20
2.296285698
 10
22.374719314
 20
2.2419325242
 10
22.379862875
 20
2.1890352718
 10
22.3822192652
 20
2.1372131257
 10
22.3817886274
 20
2.0864637916
  0
LWPOLYLINE
  5
484
100
AcDbEntity
  8
ASSI
100
AcDbPolyline
 62
250
  6
CONTINUOUS
 90
11
 70
0
 10
22.3817886274
 20
2.0864637916
 10
22.3535692384
 20
2.1041135498
 10
22.3280004656
 20
2.1229353731
 10
22.3052599841
 20
2.1427984702
 10
22.2855058158
 20
2.1635648142
 10
22.2688752307
 20
2.1850901012
 10
22.2554837935
 20
2.207224754
 10
22.2454245601
 20
2.2298149606
 10
22.2387674313
 20
2.2527037435
 10
22.235558667
 20
2.2757320504
 10
22.2353476257
 20
2.2910929684
  0
LWPOLYLINE
  5
485
100
AcDbEntity
  8
ASSI
100
AcDbPolyline
 62
250
  6
CONTINUOUS
 90
22
 70
0
 10
42.6049299739
 20
-61.6448074425
 10
42.5341002824
 20
-61.4631039898
 10
42.4672105424
 20
-61.2803669251
 10
42.404344557
 20
-61.0980698733
 10
42.3459815943
 20
-60.9190990547
 10
42.2917464176
 20
-60.7438936672
 10
42.240414414
 20
-60.5697356696
 10
42.1916500044
 20
-60.3963983058
 10
42.1458194289
 20
-60.2261461072
 10
42.1027413606
 20
-60.0593298375
 10
42.0627851518
 20
-59.8984666164
 10
42.0255742907
 20
-59.7431312449
 10
41.9898123397
 20
-59.588628845
 10
41.9553525899
 20
-59.4347381553
 10
41.9223386647
 20
-59.2825229795
 10
41.8899241745
 20
-59.1283587925
 10
41.8577689867
 20
-58.9706548918
 10
41.8262203586
 20
-58.8111466761
 10
41.7954676187
 20
-58.6509488707
 10
41.7655620966
 20
-58.4905490065
 10
41.7364492589
 20
-58.3298825848
 10
41.7081562844
 20
-58.1693284113
  0
LWPOLYLINE
  5
486
100
AcDbEntity
  8
ASSI
100
AcDbPolyline
 62
250
  6
CONTINUOUS
 90
23
 70
0
 10
43.2775789027
 20
-61.5229976653
 10
43.2086402066
 20
-61.344069891
 10
43.1435740024
 20
-61.1668332416
 10
43.0823802901
 20
-60.9912877172
 10
43.0254180238
 20
-60.8174209283
 10
42.9723282494
 20
-60.6452452644
 10
42.9220341042
 20
-60.4747978934
 10
42.8742202899
 20
-60.3052736397
 10
42.8292021047
 20
-60.1374776789
 10
42.786848581
 20
-59.9738627064
 10
42.7475363941
 20
-59.8162961126
 10
42.7108888686
 20
-59.6629105071
 10
42.6756450115
 20
-59.5105564138
 10
42.6416597704
 20
-59.3591846496
 10
42.6090781976
 20
-59.2088443977
 10
42.5770744568
 20
-59.0565337321
 10
42.5453088235
 20
-58.9007749827
 10
42.5141210222
 20
-58.7430458197
 10
42.48370439
 20
-58.5847773273
 10
42.45411455
 20
-58.4261763457
 10
42.4252958791
 20
-58.2670360348
 10
42.3972748445
 20
-58.1081669589
 10
42.3701482078
 20
-57.9501816094
  0
LINE
  5
487
100
AcDbEntity
  8
ASSI
100
AcDbLine
 62
250
  6
CONTINUOUS
 10
22.3423834601
 20
-33.3727718966
 11
22.3817886274
 21
-34.4576498051
  0
LWPOLYLINE
  5
488
100
AcDbEntity
  8
ASSI
100
AcDbPolyline
 62
7
  6
CONTINUOUS
 90
7
 70
0
 10
22.1756045618
 20
-32.5610009898
 10
22.2354780249
 20
-34.2581635119
 10
22.2355867689
 20
-34.2699678403
 10
22.2352639672
 20
-34.2797680757
 10
22.2346595251
 20
-34.2875523221
 10
22.2339554942
 20
-34.2931541686
 10
22.233860551
 20
-34.2937589605
  0
LINE
  5
489
100
AcDbEntity
  8
ASSI
100
AcDbLine
 62
250
  6
CONTINUOUS
 10
22.3045335515
 20
-32.20944103
 11
22.3423834601
 21
-33.3727718966
  0
LINE
  5
48A
100
AcDbEntity
  8
ASSI
100
AcDbLine
 62
250
  6
CONTINUOUS
 10
22.2690487182
 20
-30.9799737497
 11
22.3045335515
 21
-32.20944103
  0
LINE
  5
48B
100
AcDbEntity
  8
ASSI
100
AcDbLine
 62
250
  6
CONTINUOUS
 10
22.2378003337
 20
-29.7504238745
 11
22.2690487182
 21
-30.9799737497
  0
LINE
  5
48C
100
AcDbEntity
  8
ASSI
100
AcDbLine
 62
250
  6
CONTINUOUS
 10
22.2108249576
 20
-28.5395859385
 11
22.2378003337
 21
-29.7504238745
  0
LINE
  5
48D
100
AcDbEntity
  8
ASSI
100
AcDbLine
 62
250
  6
CONTINUOUS
 10
22.1875835128
 20
-27.343251555
 11
22.2108249576
 21
-28.5395859385
  0
LINE
  5
48E
100
AcDbEntity
  8
ASSI
100
AcDbLine
 62
250
  6
CONTINUOUS
 10
22.1572956817
 20
-25.4616912228
 11
22.1875835128
 21
-27.343251555
  0
LINE
  5
48F
100
AcDbEntity
  8
ASSI
100
AcDbLine
 62
250
  6
CONTINUOUS
 10
22.1330206943
 20
-23.4925434235
 11
22.1572956817
 21
-25.4616912228
  0
LWPOLYLINE
  5
490
100
AcDbEntity
  8
ASSI
100
AcDbPolyline
 62
250
  6
CONTINUOUS
 90
25
 70
0
 10
22.3817886274
 20
-34.4576498051
 10
22.3821948124
 20
-34.5038665718
 10
22.3799626499
 20
-34.5479499742
 10
22.3750919677
 20
-34.5899029948
 10
22.3675405299
 20
-34.6298833824
 10
22.3573502717
 20
-34.6677385934
 10
22.344647117
 20
-34.7030090078
 10
22.3294007996
 20
-34.7356781018
 10
22.3116409511
 20
-34.7657735284
 10
22.291583044
 20
-34.7929072093
 10
22.2691868816
 20
-34.8170561632
 10
22.2444918123
 20
-34.8382583234
 10
22.2178323838
 20
-34.8562213
 10
22.1892675138
 20
-34.870910572
 10
22.1587373274
 20
-34.8823775879
 10
22.1263980523
 20
-34.8904612432
 10
22.0921565176
 20
-34.8951779401
 10
22.0561050578
 20
-34.8965261016
 10
22.0186780922
 20
-34.8943188335
 10
21.9797495465
 20
-34.8884473657
 10
21.9394447846
 20
-34.8790330827
 10
21.8985753628
 20
-34.8662346841
 10
21.8574116522
 20
-34.8501076909
 10
21.8156828739
 20
-34.8306038316
 10
21.7733889275
 20
-34.8077248904
  0
LINE
  5
491
100
AcDbEntity
  8
ASSI
100
AcDbLine
 62
250
  6
CONTINUOUS
 10
22.1152852132
 20
-21.4857369262
 11
22.1330206943
 21
-23.4925434235
  0
LINE
  5
492
100
AcDbEntity
  8
ASSI
100
AcDbLine
 62
250
  6
CONTINUOUS
 10
22.1042155787
 20
-19.5484402772
 11
22.1152852132
 21
-21.4857369262
  0
LWPOLYLINE
  5
493
100
AcDbEntity
  8
ASSI
100
AcDbPolyline
 62
250
  6
CONTINUOUS
 90
19
 70
0
 10
21.7733889275
 20
-34.8077248904
 10
21.7732906759
 20
-34.7727026433
 10
21.7758009164
 20
-34.7362940536
 10
21.7809011139
 20
-34.6987679535
 10
21.7885536098
 20
-34.6604014268
 10
21.7987018999
 20
-34.6214777627
 10
21.8112710517
 20
-34.5822843642
 10
21.8261682575
 20
-34.5431106261
 10
21.84328352
 20
-34.5042457978
 10
21.8624904642
 20
-34.4659768478
 10
21.8836472706
 20
-34.428586345
 10
21.9065977224
 20
-34.3923503718
 10
21.9311723589
 20
-34.3575364861
 10
21.957189727
 20
-34.3244017451
 10
21.9844577206
 20
-34.293190808
 10
22.0127749993
 20
-34.2641341287
 10
22.0419324753
 20
-34.2374462548
 10
22.0717148566
 20
-34.2133242432
 10
22.1019022374
 20
-34.1919462051
  0
LWPOLYLINE
  5
494
100
AcDbEntity
  8
ASSI
100
AcDbPolyline
 62
7
  6
CONTINUOUS
 90
9
 70
0
 10
21.9510923488
 20
-16.1455322147
 10
21.9542947328
 20
-18.3773259802
 10
21.964340384
 20
-20.6072969731
 10
21.9813392777
 20
-22.7695504638
 10
22.0054136468
 20
-24.8639859276
 10
22.0367033495
 20
-26.8904893901
 10
22.0753693001
 20
-28.8489311959
 10
22.1215975176
 20
-30.7391608488
 10
22.1756045618
 20
-32.5610009898
  0
LINE
  5
495
100
AcDbEntity
  8
ASSI
100
AcDbLine
 62
250
  6
CONTINUOUS
 10
22.0975389582
 20
-16.3496700083
 11
22.1042155787
 21
-19.5484402772
  0
LINE
  5
496
100
AcDbEntity
  8
ASSI
100
AcDbLine
 62
250
  6
CONTINUOUS
 10
22.1008179753
 20
-14.0880691801
 11
22.0975389582
 21
-16.3496700083
  0
LWPOLYLINE
  5
497
100
AcDbEntity
  8
ASSI
100
AcDbPolyline
 62
250
  6
CONTINUOUS
 90
11
 70
0
 10
21.7733889275
 20
3.2047739381
 10
21.7732906774
 20
3.1696381848
 10
21.7758009259
 20
3.1361283211
 10
21.7809011364
 20
3.1044917753
 10
21.7885536487
 20
3.0749621436
 10
21.798701957
 20
3.0477574647
 10
21.8112711272
 20
3.0230786101
 10
21.8261683502
 20
3.0011078015
 10
21.8432836274
 20
2.9820072645
 10
21.8624905828
 20
2.9659180311
 10
21.8765504607
 20
2.9568304053
  0
LINE
  5
498
100
AcDbEntity
  8
ASSI
100
AcDbLine
 62
250
  6
CONTINUOUS
 10
22.1099123433
 20
-12.0185862711
 11
22.1008179753
 21
-14.0880691801
  0
LINE
  5
499
100
AcDbEntity
  8
ASSI
100
AcDbLine
 62
250
  6
CONTINUOUS
 10
22.1236363798
 20
-10.1438103675
 11
22.1099123433
 21
-12.0185862711
  0
LINE
  5
49A
100
AcDbEntity
  8
ASSI
100
AcDbLine
 62
250
  6
CONTINUOUS
 10
22.146921383
 20
-7.9524887711
 11
22.1236363798
 21
-10.1438103675
  0
LINE
  5
49B
100
AcDbEntity
  8
ASSI
100
AcDbLine
 62
250
  6
CONTINUOUS
 10
22.1806498797
 20
-5.6528541706
 11
22.146921383
 21
-7.9524887711
  0
LINE
  5
49C
100
AcDbEntity
  8
ASSI
100
AcDbLine
 62
250
  6
CONTINUOUS
 10
22.2252239118
 20
-3.3459320532
 11
22.1806498797
 21
-5.6528541706
  0
LINE
  5
49D
100
AcDbEntity
  8
ASSI
100
AcDbLine
 62
250
  6
CONTINUOUS
 10
22.2717116769
 20
-1.420469113
 11
22.2252239118
 21
-3.3459320532
  0
LINE
  5
49E
100
AcDbEntity
  8
ASSI
100
AcDbLine
 62
250
  6
CONTINUOUS
 10
22.3249789088
 20
0.4176284319
 11
22.2717116769
 21
-1.420469113
  0
LWPOLYLINE
  5
49F
100
AcDbEntity
  8
ASSI
100
AcDbPolyline
 62
7
  6
CONTINUOUS
 90
10
 70
0
 10
22.2353476864
 20
2.2910946243
 10
22.1757574113
 20
0.5337248092
 10
22.1217289834
 20
-1.3502384622
 10
22.0754796551
 20
-3.2936598618
 10
22.0367931628
 20
-5.2966060338
 10
22.005483549
 20
-7.3591321625
 10
21.9813902549
 20
-9.4812835119
 10
21.9643733982
 20
-11.663102292
 10
21.9543106103
 20
-13.9046280595
 10
21.9510923488
 20
-16.1455329991
  0
LWPOLYLINE
  5
4A0
100
AcDbEntity
  8
ASSI
100
AcDbPolyline
 62
250
  6
CONTINUOUS
 90
3
 70
0
 10
22.3817886274
 20
2.0864637916
 10
22.3749792226
 20
1.8991081015
 10
22.3249789088
 20
0.4176284319
  0
LINE
  5
4A1
100
AcDbEntity
  8
RACCORDO
100
AcDbLine
 62
250
  6
CONTINUOUS
 10
6.4369039204
 20
-19.8393555365
 11
3.573048695
 21
-21.6125752294
  0
LINE
  5
4A2
100
AcDbEntity
  8
RACCORDO
100
AcDbLine
 62
250
  6
CONTINUOUS
 10
6.5831746608
 20
-20.081405053
 11
3.851025878
 21
-21.773075771
  0
LINE
  5
4A3
100
AcDbEntity
  8
ASSI
100
AcDbLine
 62
7
  6
CONTINUOUS
 10
4.1678650719
 20
-21.9465697007
 11
7.744615455
 21
-19.8496961366
  0
LINE
  5
4A4
100
AcDbEntity
  8
ASSI
100
AcDbLine
 62
250
  6
CONTINUOUS
 10
7.744615455
 20
-19.5868024656
 11
7.9856940929
 21
-19.4476066815
  0
LINE
  5
4A5
100
AcDbEntity
  8
RACCORDO
100
AcDbLine
 62
250
  6
CONTINUOUS
 10
4.4471237511
 20
-21.9806150142
 11
7.9856940929
 21
-19.9374888476
  0
LINE
  5
4A6
100
AcDbEntity
  8
ASSI
100
AcDbLine
 62
7
  6
CONTINUOUS
 10
4.5883070032
 20
-21.9667315641
 11
7.9442775687
 21
-20.0290362198
  0
LINE
  5
4A7
100
AcDbEntity
  8
RACCORDO
100
AcDbLine
 62
7
  6
CONTINUOUS
 10
4.7637509718
 20
-21.8733214614
 11
4.617047887
 21
-21.9550692238
  0
LINE
  5
4A8
100
AcDbEntity
  8
RACCORDO
100
AcDbLine
 62
250
  6
CONTINUOUS
 10
4.9134818092
 20
-21.888340449
 11
4.7646254407
 21
-21.9712880916
  0
LINE
  5
4A9
100
AcDbEntity
  8
RACCORDO
100
AcDbLine
 62
250
  6
CONTINUOUS
 10
5.1243797721
 20
-22.1719700211
 11
5.2670351998
 21
-22.0924777457
  0
LWPOLYLINE
  5
4AA
100
AcDbEntity
  8
RACCORDO
100
AcDbPolyline
 62
250
  6
CONTINUOUS
 90
10
 70
0
 10
6.6374968509
 20
-20.0510118495
 10
6.631475369
 20
-20.0540600987
 10
6.6254500645
 20
-20.0571906773
 10
6.6194209374
 20
-20.0604035855
 10
6.6133876631
 20
-20.0636990046
 10
6.6073505662
 20
-20.0670767533
 10
6.6013106201
 20
-20.0705362869
 10
6.5952681495
 20
-20.074077424
 10
6.5892228297
 20
-20.077700346
 10
6.5831746608
 20
-20.081405053
  0
LWPOLYLINE
  5
4AB
100
AcDbEntity
  8
RACCORDO
100
AcDbPolyline
 62
7
  6
CONTINUOUS
 90
5
 70
0
 10
4.617016755
 20
-21.9550894528
 10
4.60947058
 20
-21.9588803268
 10
4.6014164251
 20
-21.9620760601
 10
4.5940682259
 20
-21.9642650082
 10
4.5875478492
 20
-21.965615186
  0
LINE
  5
4AC
100
AcDbEntity
  8
RACCORDO
100
AcDbLine
 62
250
  6
CONTINUOUS
 10
7.8455558092
 20
-19.447552762
 11
6.6374968509
 21
-20.0510118495
  0
LWPOLYLINE
  5
4AD
100
AcDbEntity
  8
RACCORDO
100
AcDbPolyline
 62
250
  6
CONTINUOUS
 90
10
 70
0
 10
7.7133570197
 20
-19.1981886747
 10
6.4977183382
 20
-19.805425781
 10
6.4901318824
 20
-19.8093076979
 10
6.4825396537
 20
-19.8132930202
 10
6.4749431622
 20
-19.8173809728
 10
6.4673428181
 20
-19.8215712936
 10
6.4597379287
 20
-19.8258643045
 10
6.452128901
 20
-19.8302598172
 10
6.4445172449
 20
-19.8347570628
 10
6.4369039204
 20
-19.8393555365
  0
LWPOLYLINE
  5
4AE
100
AcDbEntity
  8
RACCORDO
100
AcDbPolyline
 62
250
  6
CONTINUOUS
 90
10
 70
0
 10
4.7637509718
 20
-21.8733214614
 10
4.7762599277
 20
-21.8674069544
 10
4.7911384694
 20
-21.8627643418
 10
4.8069199312
 20
-21.8601965171
 10
4.8234841989
 20
-21.8597230182
 10
4.8407052125
 20
-21.861347443
 10
4.8584519229
 20
-21.8650574277
 10
4.8765892724
 20
-21.8708247394
 10
4.8949792205
 20
-21.878605485
 10
4.9134818092
 20
-21.888340449
  0
LWPOLYLINE
  5
4AF
100
AcDbEntity
  8
ASSI
100
AcDbPolyline
 62
250
  6
CONTINUOUS
 90
10
 70
0
 10
42.6140656646
 20
-61.6690751456
 10
42.6131355355
 20
-61.6664342307
 10
42.6121841455
 20
-61.6637793747
 10
42.6112114952
 20
-61.6611105795
 10
42.6102175541
 20
-61.6584277649
 10
42.6092023535
 20
-61.6557310151
 10
42.6081659855
 20
-61.6530205803
 10
42.6071084813
 20
-61.6502965459
 10
42.6060298107
 20
-61.6475588323
 10
42.6049299739
 20
-61.6448074425
  0
LINE
  5
4B0
100
AcDbEntity
  8
0
100
AcDbLine
 62
7
  6
CONTINUOUS
 10
15.9052900422
 20
-28.450110783
 11
15.799224025
 21
-28.6338225136
  0
LINE
  5
4B1
100
AcDbEntity
  8
0
100
AcDbLine
 62
7
  6
CONTINUOUS
 10
16.2588434328
 20
-28.2459734864
 11
16.1527774156
 21
-28.4296852169
  0
LINE
  5
4B2
100
AcDbEntity
  8
0
100
AcDbLine
 62
7
  6
CONTINUOUS
 10
16.6123968233
 20
-28.0418361897
 11
16.5063308062
 21
-28.2255479202
  0
LINE
  5
4B3
100
AcDbEntity
  8
0
100
AcDbLine
 62
7
  6
CONTINUOUS
 10
16.9659502139
 20
-27.837698893
 11
16.8598841968
 21
-28.0214106236
  0
LINE
  5
4B4
100
AcDbEntity
  8
0
100
AcDbLine
 62
7
  6
CONTINUOUS
 10
17.3195036045
 20
-27.6335615964
 11
17.2134375874
 21
-27.8172733269
  0
LINE
  5
4B5
100
AcDbEntity
  8
0
100
AcDbLine
 62
7
  6
CONTINUOUS
 10
17.6730569951
 20
-27.4294242997
 11
17.5669909779
 21
-27.6131360302
  0
LINE
  5
4B6
100
AcDbEntity
  8
0
100
AcDbLine
 62
7
  6
CONTINUOUS
 10
18.0266103857
 20
-27.225287003
 11
17.9205443685
 21
-27.4089987336
  0
LINE
  5
4B7
100
AcDbEntity
  8
0
100
AcDbLine
 62
7
  6
CONTINUOUS
 10
18.3801637763
 20
-27.0211497064
 11
18.2740977591
 21
-27.2048614369
  0
LINE
  5
4B8
100
AcDbEntity
  8
RACCORDO
100
AcDbLine
 62
250
  6
CONTINUOUS
 10
12.0625084063
 20
-26.509520319
 11
12.0604002094
 21
-26.5124590159
  0
LWPOLYLINE
  5
4B9
100
AcDbEntity
  8
RACCORDO
100
AcDbPolyline
 62
250
  6
CONTINUOUS
 90
4
 70
0
 10
12.104587441
 20
-26.4713833605
 10
12.088655144
 20
-26.4833718767
 10
12.0745931258
 20
-26.4961165277
 10
12.0625084063
 20
-26.509520319
  0
LINE
  5
4BA
100
AcDbEntity
  8
RACCORDO
100
AcDbLine
 62
250
  6
CONTINUOUS
 10
12.1222687628
 20
-26.4602422195
 11
12.104587441
 21
-26.4713833605
  0
LINE
  5
4BB
100
AcDbEntity
  8
RACCORDO
100
AcDbLine
 62
7
  6
CONTINUOUS
 10
11.5519760712
 20
-25.7927575574
 11
11.5312861962
 21
-25.8042866331
  0
LINE
  5
4BC
100
AcDbEntity
  8
RACCORDO
100
AcDbLine
 62
250
  6
CONTINUOUS
 10
11.7017069086
 20
-25.807776545
 11
11.5590514808
 21
-25.8872688203
  0
LINE
  5
4BD
100
AcDbEntity
  8
RACCORDO
100
AcDbLine
 62
250
  6
CONTINUOUS
 10
12.0552602992
 20
-26.0119138416
 11
11.9064609981
 21
-26.0948296844
  0
LINE
  5
4BE
100
AcDbEntity
  8
RACCORDO
100
AcDbLine
 62
250
  6
CONTINUOUS
 10
12.263690119
 20
-26.3814376092
 11
12.1222687628
 21
-26.4602422195
  0
LWPOLYLINE
  5
4BF
100
AcDbEntity
  8
RACCORDO
100
AcDbPolyline
 62
250
  6
CONTINUOUS
 90
3
 70
0
 10
11.5519999225
 20
-25.7927442682
 10
11.5591138786
 20
-25.7891342121
 10
11.5725871492
 20
-25.7840231793
  0
LWPOLYLINE
  5
4C0
100
AcDbEntity
  8
RACCORDO
100
AcDbPolyline
 62
250
  6
CONTINUOUS
 90
8
 70
0
 10
11.9762914085
 20
-26.5293265637
 10
11.9908962679
 20
-26.5220637075
 10
12.0053181428
 20
-26.5166435265
 10
12.0194024945
 20
-26.5131240972
 10
12.0329984046
 20
-26.5115431292
 10
12.0459601849
 20
-26.5119175565
 10
12.0581489377
 20
-26.514243356
 10
12.069434056
 20
-26.5184955991
  0
LWPOLYLINE
  5
4C1
100
AcDbEntity
  8
ASSI
100
AcDbPolyline
 62
7
  6
CONTINUOUS
 90
11
 70
0
 10
-25.8295704563
 20
30.4984245044
 10
-25.8307728659
 20
30.4984987998
 10
-25.8336469293
 20
30.4987834067
 10
-25.8343914281
 20
30.4988944584
 10
-25.8330609744
 20
30.498581194
 10
-25.829707625
 20
30.4976114036
 10
-25.8243485062
 20
30.4957537523
 10
-25.8171364392
 20
30.4928381538
 10
-25.8083915396
 20
30.4888051277
 10
-25.7983226995
 20
30.4835977945
 10
-25.7918418527
 20
30.4799627217
  0
LWPOLYLINE
  5
4C2
100
AcDbEntity
  8
ASSI
100
AcDbPolyline
 62
250
  6
CONTINUOUS
 90
19
 70
0
 10
42.6140656646
 20
10.4507703387
 10
42.6453889145
 20
10.4358776013
 10
42.6788256377
 20
10.4214344537
 10
42.7141403145
 20
10.4075426418
 10
42.7510841962
 20
10.394300031
 10
42.7893970533
 20
10.3817999084
 10
42.8288090077
 20
10.3701303245
 10
42.8690424414
 20
10.3593734859
 10
42.9098139457
 20
10.3496051745
 10
42.9508363133
 20
10.3408942036
 10
42.9918205751
 20
10.3333019388
 10
43.0324780262
 20
10.3268818693
 10
43.0725222537
 20
10.3216792261
 10
43.1116711724
 20
10.3177306605
 10
43.149649001
 20
10.3150639924
 10
43.1861881966
 20
10.3136980151
 10
43.2210313574
 20
10.3136423539
 10
43.2539330342
 20
10.3148973997
 10
43.2846614497
 20
10.3174543115
  0
LWPOLYLINE
  5
4C3
100
AcDbEntity
  8
ASSI
100
AcDbPolyline
 62
250
  6
CONTINUOUS
 90
12
 70
0
 10
-42.8914902952
 20
59.7792276115
 10
-42.9205780582
 20
59.7963621938
 10
-42.9470335873
 20
59.8137368353
 10
-42.9706638411
 20
59.8312247563
 10
-42.991296394
 20
59.8486983508
 10
-43.008780694
 20
59.8660301173
 10
-43.0229891614
 20
59.8830935891
 10
-43.0338181195
 20
59.8997642572
 10
-43.041188551
 20
59.9159204789
 10
-43.0450466754
 20
59.9314443651
 10
-43.0453643401
 20
59.946222641
 10
-43.0438480583
 20
59.9547075371
  0
LWPOLYLINE
  5
4C4
100
AcDbEntity
  8
ASSI
100
AcDbPolyline
 62
250
  6
CONTINUOUS
 90
11
 70
0
 10
-42.8812401888
 20
59.8146884308
 10
-42.9091272152
 20
59.8339833521
 10
-42.9344836854
 20
59.8534870534
 10
-42.957130983
 20
59.8730621462
 10
-42.9769095752
 20
59.8925707395
 10
-42.9936801374
 20
59.9118754103
 10
-43.0073245338
 20
59.9308401724
 10
-43.0177466504
 20
59.9493314336
 10
-43.0248730713
 20
59.9672189375
 10
-43.0286535964
 20
59.9843766806
 10
-43.0290615949
 20
60.0006837999
  0
LINE
  5
4C5
100
AcDbEntity
  8
ASSI
100
AcDbLine
 62
250
  6
CONTINUOUS
 10
41.2653832018
 20
-54.955942362
 11
41.2121248093
 21
-54.4570413685
  0
LWPOLYLINE
  5
4C6
100
AcDbEntity
  8
ASSI
100
AcDbPolyline
 62
250
  6
CONTINUOUS
 90
3
 70
0
 10
41.2121248093
 20
-54.4570413685
 10
41.1611032774
 20
-53.9496508103
 10
41.136858529
 20
-53.697681044
  0
LINE
  5
4C7
100
AcDbEntity
  8
0
100
AcDbLine
 62
7
  6
CONTINUOUS
 10
19.4408239481
 20
-30.4914837497
 11
19.3347579309
 21
-30.6751954802
  0
LINE
  5
4C8
100
AcDbEntity
  8
0
100
AcDbLine
 62
7
  6
CONTINUOUS
 10
19.7943773387
 20
-30.287346453
 11
19.6883113215
 21
-30.4710581835
  0
LINE
  5
4C9
100
AcDbEntity
  8
0
100
AcDbLine
 62
7
  6
CONTINUOUS
 10
20.1479307293
 20
-30.0832091563
 11
20.0418647121
 21
-30.2669208869
  0
LINE
  5
4CA
100
AcDbEntity
  8
0
100
AcDbLine
 62
7
  6
CONTINUOUS
 10
20.5014841199
 20
-29.8790718597
 11
20.3954181027
 21
-30.0627835902
  0
LINE
  5
4CB
100
AcDbEntity
  8
0
100
AcDbLine
 62
7
  6
CONTINUOUS
 10
20.8550375105
 20
-29.674934563
 11
20.7489714933
 21
-29.8586462935
  0
LINE
  5
4CC
100
AcDbEntity
  8
0
100
AcDbLine
 62
7
  6
CONTINUOUS
 10
21.2085909011
 20
-29.4707972664
 11
21.1025248839
 21
-29.6545089969
  0
LINE
  5
4CD
100
AcDbEntity
  8
0
100
AcDbLine
 62
7
  6
CONTINUOUS
 10
21.5621442917
 20
-29.2666599697
 11
21.4560782745
 21
-29.4503717002
  0
LINE
  5
4CE
100
AcDbEntity
  8
0
100
AcDbLine
 62
7
  6
CONTINUOUS
 10
21.9156976822
 20
-29.062522673
 11
21.8096316651
 21
-29.2462344035
  0
LINE
  5
4CF
100
AcDbEntity
  8
0
100
AcDbLine
 62
7
  6
CONTINUOUS
 10
18.5215851325
 20
-26.9394947877
 11
18.3801637763
 21
-27.0211497064
  0
LINE
  5
4D0
100
AcDbEntity
  8
0
100
AcDbLine
 62
7
  6
CONTINUOUS
 10
18.168031742
 20
-27.1436320844
 11
18.0266103857
 21
-27.225287003
  0
LINE
  5
4D1
100
AcDbEntity
  8
0
100
AcDbLine
 62
7
  6
CONTINUOUS
 10
17.8144783514
 20
-27.347769381
 11
17.6730569951
 21
-27.4294242997
  0
LINE
  5
4D2
100
AcDbEntity
  8
0
100
AcDbLine
 62
7
  6
CONTINUOUS
 10
17.4609249608
 20
-27.5519066777
 11
17.3195036045
 21
-27.6335615964
  0
LINE
  5
4D3
100
AcDbEntity
  8
0
100
AcDbLine
 62
7
  6
CONTINUOUS
 10
17.1073715702
 20
-27.7560439744
 11
16.9659502139
 21
-27.837698893
  0
LINE
  5
4D4
100
AcDbEntity
  8
0
100
AcDbLine
 62
7
  6
CONTINUOUS
 10
16.7538181796
 20
-27.960181271
 11
16.6123968233
 21
-28.0418361897
  0
LINE
  5
4D5
100
AcDbEntity
  8
0
100
AcDbLine
 62
7
  6
CONTINUOUS
 10
16.400264789
 20
-28.1643185677
 11
16.2588434328
 21
-28.2459734864
  0
LINE
  5
4D6
100
AcDbEntity
  8
0
100
AcDbLine
 62
7
  6
CONTINUOUS
 10
16.0467113984
 20
-28.3684558644
 11
15.9052900422
 21
-28.450110783
  0
LINE
  5
4D7
100
AcDbEntity
  8
0
100
AcDbLine
 62
7
  6
CONTINUOUS
 10
15.6931580078
 20
-28.572593161
 11
15.6602673693
 21
-28.5915838035
  0
LINE
  5
4D8
100
AcDbEntity
  8
RACCORDO
100
AcDbLine
 62
7
  6
CONTINUOUS
 10
15.5280028831
 20
-28.5152159468
 11
18.5615230025
 21
-26.8819003888
  0
LINE
  5
4D9
100
AcDbEntity
  8
RACCORDO
100
AcDbLine
 62
250
  6
CONTINUOUS
 10
15.5852289071
 20
-28.5482575359
 11
17.6708445178
 21
-27.4253151155
  0
LINE
  5
4DA
100
AcDbEntity
  8
RACCORDO
100
AcDbLine
 62
250
  6
CONTINUOUS
 10
17.8145660265
 20
-27.3479322181
 11
18.0195095519
 21
-27.237586008
  0
LINE
  5
4DB
100
AcDbEntity
  8
RACCORDO
100
AcDbLine
 62
250
  6
CONTINUOUS
 10
18.1805663414
 20
-27.150869405
 11
18.3615215036
 21
-27.0534390699
  0
LINE
  5
4DC
100
AcDbEntity
  8
RACCORDO
100
AcDbLine
 62
250
  6
CONTINUOUS
 10
18.5464660884
 20
-26.9538607398
 11
18.6643886642
 21
-26.8903576694
  0
LWPOLYLINE
  5
4DD
100
AcDbEntity
  8
RACCORDO
100
AcDbPolyline
 62
250
  6
CONTINUOUS
 90
3
 70
0
 10
18.6643886642
 20
-26.8903576694
 10
18.6724378126
 20
-26.8861130263
 10
18.680484126
 20
-26.881969997
  0
LWPOLYLINE
  5
4DE
100
AcDbEntity
  8
RACCORDO
100
AcDbPolyline
 62
250
  6
CONTINUOUS
 90
7
 70
0
 10
18.680484126
 20
-26.881969997
 10
18.6885261181
 20
-26.8779293636
 10
18.6965633583
 20
-26.8739913011
 10
18.7045964695
 20
-26.8701554473
 10
18.7126250184
 20
-26.8664220508
 10
18.720647518
 20
-26.8627919001
 10
18.7286630088
 20
-26.8592654881
  0
LWPOLYLINE
  5
4DF
100
AcDbEntity
  8
RACCORDO
100
AcDbPolyline
 62
250
  6
CONTINUOUS
 90
8
 70
0
 10
18.5615230025
 20
-26.8819003888
 10
18.5650684175
 20
-26.880135004
 10
18.5761638966
 20
-26.8762484778
 10
18.5881377774
 20
-26.8743532322
 10
18.6008588718
 20
-26.8744700326
 10
18.6141878042
 20
-26.8765975996
 10
18.62797854
 20
-26.8807126234
 10
18.6420799851
 20
-26.8867700193
  0
LWPOLYLINE
  5
4E0
100
AcDbEntity
  8
RACCORDO
100
AcDbPolyline
 62
7
  6
CONTINUOUS
 90
6
 70
0
 10
18.6360733201
 20
-26.8459312838
 10
18.6289969644
 20
-26.8489890921
 10
18.6122803051
 20
-26.8565086066
 10
18.5955969863
 20
-26.864428594
 10
18.5789502844
 20
-26.872746307
 10
18.5615211388
 20
-26.8819013923
  0
LINE
  5
4E1
100
AcDbEntity
  8
RACCORDO
100
AcDbLine
 62
7
  6
CONTINUOUS
 10
18.6360744334
 20
-26.8459308085
 11
19.9315590601
 21
-26.2929502063
  0
LINE
  5
4E2
100
AcDbEntity
  8
RACCORDO
100
AcDbLine
 62
250
  6
CONTINUOUS
 10
18.7286630088
 20
-26.8592654881
 11
20.0241476355
 21
-26.3062848858
  0
LWPOLYLINE
  5
4E3
100
AcDbEntity
  8
RACCORDO
100
AcDbPolyline
 62
250
  6
CONTINUOUS
 90
10
 70
0
 10
19.9315590601
 20
-26.2929502063
 10
19.9331237068
 20
-26.2923031718
 10
19.9433050311
 20
-26.2890454817
 10
19.9539985228
 20
-26.2872146122
 10
19.9651288805
 20
-26.2868265495
 10
19.9766068163
 20
-26.287887383
 10
19.9883383931
 20
-26.2903890845
 10
20.0002317976
 20
-26.2943111217
 10
20.0121985979
 20
-26.2996233924
 10
20.0241476355
 20
-26.3062848858
  0
LWPOLYLINE
  5
4E4
100
AcDbEntity
  8
RACCORDO
100
AcDbPolyline
 62
250
  6
CONTINUOUS
 90
8
 70
0
 10
18.6360744334
 20
-26.8459308085
 10
18.6459374761
 20
-26.8425105656
 10
18.6586980117
 20
-26.8401766942
 10
18.6720682209
 20
-26.8399120164
 10
18.6859022635
 20
-26.8417194194
 10
18.7000492396
 20
-26.8455791881
 10
18.7143548359
 20
-26.8514492209
 10
18.7286630088
 20
-26.8592654881
  0
LWPOLYLINE
  5
4E5
100
AcDbEntity
  8
ASSI
100
AcDbPolyline
 62
250
  6
CONTINUOUS
 90
19
 70
0
 10
42.6049299739
 20
10.4146660699
 10
42.6361847258
 20
10.3969596329
 10
42.6696314047
 20
10.3797474842
 10
42.7050259563
 20
10.3631552179
 10
42.7421101129
 20
10.3473039046
 10
42.7806132783
 20
10.3323092085
 10
42.8202545016
 20
10.318280543
 10
42.8607445283
 20
10.3053202728
 10
42.9017879099
 20
10.2935229665
 10
42.9430851605
 20
10.2829747068
 10
42.9843349416
 20
10.2737524623
 10
43.0252362612
 20
10.2659235262
 10
43.0654906699
 20
10.2595450245
 10
43.1048044388
 20
10.2546635
 10
43.1428907026
 20
10.2513145723
 10
43.179471553
 20
10.2495226777
 10
43.2142800664
 20
10.2493008914
 10
43.2470622514
 20
10.2506508317
 10
43.2775789027
 20
10.2535626482
  0
LINE
  5
4E6
100
AcDbEntity
  8
ASSI
100
AcDbLine
 62
250
  6
CONTINUOUS
 10
-42.8812401888
 20
59.8146884308
 11
42.6140656646
 21
10.4507703389
  0
LINE
  5
4E7
100
AcDbEntity
  8
ASSI
100
AcDbLine
 62
250
  6
CONTINUOUS
 10
-41.7479656501
 20
60.7453238129
 11
43.0758552563
 21
11.7691127137
  0
LINE
  5
4E8
100
AcDbEntity
  8
ASSI
100
AcDbLine
 62
7
  6
CONTINUOUS
 10
43.5182405978
 20
12.0245387997
 11
-41.3354346452
 21
61.0179874187
  0
LINE
  5
4E9
100
AcDbEntity
  8
ASSI
100
AcDbLine
 62
250
  6
CONTINUOUS
 10
41.7081562844
 20
-58.1693284113
 11
41.6542097811
 21
-57.8506201806
  0
LINE
  5
4EA
100
AcDbEntity
  8
ASSI
100
AcDbLine
 62
250
  6
CONTINUOUS
 10
42.3701482078
 20
-57.9501816094
 11
42.3180240257
 21
-57.6339977056
  0
LINE
  5
4EB
100
AcDbEntity
  8
ASSI
100
AcDbLine
 62
250
  6
CONTINUOUS
 10
41.6542097811
 20
-57.8506201806
 11
41.6027827267
 21
-57.5306102056
  0
LINE
  5
4EC
100
AcDbEntity
  8
ASSI
100
AcDbLine
 62
250
  6
CONTINUOUS
 10
42.3180240257
 20
-57.6339977056
 11
42.2681575955
 21
-57.3159870675
  0
LINE
  5
4ED
100
AcDbEntity
  8
ASSI
100
AcDbLine
 62
250
  6
CONTINUOUS
 10
41.6027827267
 20
-57.5306102056
 11
41.5531440752
 21
-57.2057830744
  0
LINE
  5
4EE
100
AcDbEntity
  8
ASSI
100
AcDbLine
 62
250
  6
CONTINUOUS
 10
42.2681575955
 20
-57.3159870675
 11
42.2190881795
 21
-56.986843626
  0
LINE
  5
4EF
100
AcDbEntity
  8
ASSI
100
AcDbLine
 62
250
  6
CONTINUOUS
 10
41.5531440752
 20
-57.2057830744
 11
41.503901337
 21
-56.8670812682
  0
LINE
  5
4F0
100
AcDbEntity
  8
ASSI
100
AcDbLine
 62
250
  6
CONTINUOUS
 10
42.2190881795
 20
-56.986843626
 11
42.1699077069
 21
-56.639868291
  0
LINE
  5
4F1
100
AcDbEntity
  8
ASSI
100
AcDbLine
 62
250
  6
CONTINUOUS
 10
41.503901337
 20
-56.8670812682
 11
41.4534833243
 21
-56.5021759509
  0
LINE
  5
4F2
100
AcDbEntity
  8
ASSI
100
AcDbLine
 62
250
  6
CONTINUOUS
 10
42.1699077069
 20
-56.639868291
 11
42.1189565745
 21
-56.2616006336
  0
LINE
  5
4F3
100
AcDbEntity
  8
ASSI
100
AcDbLine
 62
250
  6
CONTINUOUS
 10
41.4534833243
 20
-56.5021759509
 11
41.4014094205
 21
-56.1047068831
  0
LINE
  5
4F4
100
AcDbEntity
  8
ASSI
100
AcDbLine
 62
250
  6
CONTINUOUS
 10
42.1189565745
 20
-56.2616006336
 11
42.0662124665
 21
-55.8473012208
  0
LINE
  5
4F5
100
AcDbEntity
  8
ASSI
100
AcDbLine
 62
250
  6
CONTINUOUS
 10
41.4014094205
 20
-56.1047068831
 11
41.3473586849
 21
-55.6683695896
  0
LINE
  5
4F6
100
AcDbEntity
  8
ASSI
100
AcDbLine
 62
250
  6
CONTINUOUS
 10
42.0662124665
 20
-55.8473012208
 11
42.0120126083
 21
-55.3972564063
  0
LWPOLYLINE
  5
4F7
100
AcDbEntity
  8
ASSI
100
AcDbPolyline
 62
250
  6
CONTINUOUS
 90
3
 70
0
 10
41.3473586849
 20
-55.6683695896
 10
41.292745513
 20
-55.200904578
 10
41.2653832018
 20
-54.955942362
  0
LWPOLYLINE
  5
4F8
100
AcDbEntity
  8
ASSI
100
AcDbPolyline
 62
250
  6
CONTINUOUS
 90
3
 70
0
 10
42.0120126083
 20
-55.3972564063
 10
41.957591074
 20
-54.9171208384
 10
41.9308224075
 20
-54.6703807933
  0
LWPOLYLINE
  5
4F9
100
AcDbEntity
  8
ASSI
100
AcDbPolyline
 62
250
  6
CONTINUOUS
 90
10
 70
0
 10
43.2846614498
 20
-61.5753113006
 10
43.2840437211
 20
-61.569611194
 10
43.2833837108
 20
-61.5638821937
 10
43.2826813918
 20
-61.5581246935
 10
43.2819366928
 20
-61.5523392992
 10
43.2811496413
 20
-61.5465261994
 10
43.2803203512
 20
-61.5406851565
 10
43.2794488375
 20
-61.5348163507
 10
43.278535029
 20
-61.5289203881
 10
43.2775789027
 20
-61.5229976653
  0
LINE
  5
4FA
100
AcDbEntity
  8
ASSI
100
AcDbLine
 62
250
  6
CONTINUOUS
 10
41.9308224075
 20
-54.6703807933
 11
41.8788031319
 21
-54.1680206227
  0
LINE
  5
4FB
100
AcDbEntity
  8
ASSI
100
AcDbLine
 62
250
  6
CONTINUOUS
 10
41.8788031319
 20
-54.1680206227
 11
41.8296291731
 21
-53.6649141473
  0
LINE
  5
4FC
100
AcDbEntity
  8
ASSI
100
AcDbLine
 62
250
  6
CONTINUOUS
 10
41.136858529
 20
-53.697681044
 11
41.0905648819
 21
-53.195649115
  0
LINE
  5
4FD
100
AcDbEntity
  8
ASSI
100
AcDbLine
 62
250
  6
CONTINUOUS
 10
41.8296291731
 20
-53.6649141473
 11
41.7835184378
 21
-53.1647900941
  0
LINE
  5
4FE
100
AcDbEntity
  8
ASSI
100
AcDbLine
 62
250
  6
CONTINUOUS
 10
41.0905648819
 20
-53.195649115
 11
41.0471539287
 21
-52.698089364
  0
LINE
  5
4FF
100
AcDbEntity
  8
ASSI
100
AcDbLine
 62
250
  6
CONTINUOUS
 10
41.7835184378
 20
-53.1647900941
 11
41.7402609828
 21
-52.6691537408
  0
LINE
  5
500
100
AcDbEntity
  8
ASSI
100
AcDbLine
 62
250
  6
CONTINUOUS
 10
41.0471539287
 20
-52.698089364
 11
40.9855191319
 21
-51.9423957093
  0
LINE
  5
501
100
AcDbEntity
  8
ASSI
100
AcDbLine
 62
250
  6
CONTINUOUS
 10
41.7402609828
 20
-52.6691537408
 11
41.67882434
 21
-51.9161888699
  0
LINE
  5
502
100
AcDbEntity
  8
ASSI
100
AcDbLine
 62
250
  6
CONTINUOUS
 10
41.67882434
 20
-51.9161888699
 11
41.6185990899
 21
-51.1150760623
  0
LINE
  5
503
100
AcDbEntity
  8
ASSI
100
AcDbLine
 62
250
  6
CONTINUOUS
 10
40.9855191319
 20
-51.9423957093
 11
40.92511672
 21
-51.1386993623
  0
LINE
  5
504
100
AcDbEntity
  8
ASSI
100
AcDbLine
 62
250
  6
CONTINUOUS
 10
40.92511672
 20
-51.1386993623
 11
40.883909061
 21
-50.5497874887
  0
LINE
  5
505
100
AcDbEntity
  8
ASSI
100
AcDbLine
 62
250
  6
CONTINUOUS
 10
41.6185990899
 20
-51.1150760623
 11
41.5775280208
 21
-50.5274262688
  0
LINE
  5
506
100
AcDbEntity
  8
ASSI
100
AcDbLine
 62
250
  6
CONTINUOUS
 10
40.883909061
 20
-50.5497874887
 11
40.8416651846
 21
-49.9075876979
  0
LINE
  5
507
100
AcDbEntity
  8
ASSI
100
AcDbLine
 62
250
  6
CONTINUOUS
 10
41.5775280208
 20
-50.5274262688
 11
41.5353858733
 21
-49.8870798703
  0
LINE
  5
508
100
AcDbEntity
  8
ASSI
100
AcDbLine
 62
250
  6
CONTINUOUS
 10
41.5353858733
 20
-49.8870798703
 11
41.4924409085
 21
-49.1893005963
  0
LINE
  5
509
100
AcDbEntity
  8
ASSI
100
AcDbLine
 62
250
  6
CONTINUOUS
 10
40.8416651846
 20
-49.9075876979
 11
40.7986125868
 21
-49.2081790557
  0
LINE
  5
50A
100
AcDbEntity
  8
ASSI
100
AcDbLine
 62
250
  6
CONTINUOUS
 10
40.7986125868
 20
-49.2081790557
 11
40.7561834454
 21
-48.468708643
  0
LINE
  5
50B
100
AcDbEntity
  8
ASSI
100
AcDbLine
 62
250
  6
CONTINUOUS
 10
41.4924409085
 20
-49.1893005963
 11
41.4501171858
 21
-48.4513736184
  0
LINE
  5
50C
100
AcDbEntity
  8
ASSI
100
AcDbLine
 62
250
  6
CONTINUOUS
 10
41.4501171858
 20
-48.4513736184
 11
41.4091973057
 21
-47.6848783065
  0
LINE
  5
50D
100
AcDbEntity
  8
ASSI
100
AcDbLine
 62
250
  6
CONTINUOUS
 10
40.7561834454
 20
-48.468708643
 11
40.7151938943
 21
-47.7003058955
  0
LINE
  5
50E
100
AcDbEntity
  8
ASSI
100
AcDbLine
 62
250
  6
CONTINUOUS
 10
40.7151938943
 20
-47.7003058955
 11
40.6769096578
 21
-46.9274461876
  0
LINE
  5
50F
100
AcDbEntity
  8
ASSI
100
AcDbLine
 62
250
  6
CONTINUOUS
 10
41.4091973057
 20
-47.6848783065
 11
41.3709961214
 21
-46.9133759151
  0
LINE
  5
510
100
AcDbEntity
  8
ASSI
100
AcDbLine
 62
250
  6
CONTINUOUS
 10
41.3709961214
 20
-46.9133759151
 11
41.3356402948
 21
-46.1457032515
  0
LINE
  5
511
100
AcDbEntity
  8
ASSI
100
AcDbLine
 62
250
  6
CONTINUOUS
 10
40.6769096578
 20
-46.9274461876
 11
40.6415074046
 21
-46.1580084405
  0
LINE
  5
512
100
AcDbEntity
  8
ASSI
100
AcDbLine
 62
250
  6
CONTINUOUS
 10
40.6415074046
 20
-46.1580084405
 11
40.6088945023
 21
-45.3952043897
  0
LINE
  5
513
100
AcDbEntity
  8
ASSI
100
AcDbLine
 62
250
  6
CONTINUOUS
 10
41.3356402948
 20
-46.1457032515
 11
41.3030899437
 21
-45.3840662384
  0
LINE
  5
514
100
AcDbEntity
  8
ASSI
100
AcDbLine
 62
250
  6
CONTINUOUS
 10
40.6088945023
 20
-45.3952043897
 11
40.5643084851
 21
-44.2525523956
  0
LINE
  5
515
100
AcDbEntity
  8
ASSI
100
AcDbLine
 62
250
  6
CONTINUOUS
 10
41.3030899437
 20
-45.3840662384
 11
41.2585732899
 21
-44.2432509268
  0
LINE
  5
516
100
AcDbEntity
  8
ASSI
100
AcDbLine
 62
250
  6
CONTINUOUS
 10
40.5643084851
 20
-44.2525523956
 11
40.5239419962
 21
-43.0956041066
  0
LINE
  5
517
100
AcDbEntity
  8
ASSI
100
AcDbLine
 62
250
  6
CONTINUOUS
 10
41.2585732899
 20
-44.2432509268
 11
41.2182642394
 21
-43.0880037311
  0
LINE
  5
518
100
AcDbEntity
  8
ASSI
100
AcDbLine
 62
250
  6
CONTINUOUS
 10
40.5239419962
 20
-43.0956041066
 11
40.4876897072
 21
-41.9296770374
  0
LINE
  5
519
100
AcDbEntity
  8
ASSI
100
AcDbLine
 62
250
  6
CONTINUOUS
 10
41.2182642394
 20
-43.0880037311
 11
41.1820593267
 21
-41.9236512572
  0
LINE
  5
51A
100
AcDbEntity
  8
ASSI
100
AcDbLine
 62
250
  6
CONTINUOUS
 10
40.4876897072
 20
-41.9296770374
 11
40.4561331309
 21
-40.7879854825
  0
LINE
  5
51B
100
AcDbEntity
  8
ASSI
100
AcDbLine
 62
250
  6
CONTINUOUS
 10
41.1820593267
 20
-41.9236512572
 11
41.1505408152
 21
-40.7833830393
  0
LINE
  5
51C
100
AcDbEntity
  8
ASSI
100
AcDbLine
 62
250
  6
CONTINUOUS
 10
40.4561331309
 20
-40.7879854825
 11
40.4282663779
 21
-39.6506847788
  0
LINE
  5
51D
100
AcDbEntity
  8
ASSI
100
AcDbLine
 62
250
  6
CONTINUOUS
 10
41.1505408152
 20
-40.7833830393
 11
41.1227052441
 21
-39.64739771
  0
LINE
  5
51E
100
AcDbEntity
  8
ASSI
100
AcDbLine
 62
250
  6
CONTINUOUS
 10
40.4282663779
 20
-39.6506847788
 11
40.4022672851
 21
-38.4426249078
  0
LINE
  5
51F
100
AcDbEntity
  8
ASSI
100
AcDbLine
 62
250
  6
CONTINUOUS
 10
41.1227052441
 20
-39.64739771
 11
41.0967331839
 21
-38.4406360946
  0
LINE
  5
520
100
AcDbEntity
  8
ASSI
100
AcDbLine
 62
250
  6
CONTINUOUS
 10
40.4022672851
 20
-38.4426249078
 11
40.3780050478
 21
-37.1360143358
  0
LINE
  5
521
100
AcDbEntity
  8
ASSI
100
AcDbLine
 62
250
  6
CONTINUOUS
 10
41.0967331839
 20
-38.4406360946
 11
41.0724943537
 21
-37.1353282782
  0
LINE
  5
522
100
AcDbEntity
  8
ASSI
100
AcDbLine
 62
250
  6
CONTINUOUS
 10
40.3780050478
 20
-37.1360143358
 11
40.3560666456
 21
-35.7327782797
  0
LINE
  5
523
100
AcDbEntity
  8
ASSI
100
AcDbLine
 62
250
  6
CONTINUOUS
 10
41.0724943537
 20
-37.1353282782
 11
41.0505755548
 21
-35.7333878767
  0
LINE
  5
524
100
AcDbEntity
  8
ASSI
100
AcDbLine
 62
250
  6
CONTINUOUS
 10
40.3560666456
 20
-35.7327782797
 11
40.3367466507
 21
-34.2140141013
  0
LINE
  5
525
100
AcDbEntity
  8
ASSI
100
AcDbLine
 62
250
  6
CONTINUOUS
 10
41.0505755548
 20
-35.7333878767
 11
41.0312715217
 21
-34.2159199688
  0
LINE
  5
526
100
AcDbEntity
  8
ASSI
100
AcDbLine
 62
250
  6
CONTINUOUS
 10
40.3367466507
 20
-34.2140141013
 11
40.3207041268
 21
-32.5827103514
  0
LINE
  5
527
100
AcDbEntity
  8
ASSI
100
AcDbLine
 62
250
  6
CONTINUOUS
 10
41.0312715217
 20
-34.2159199688
 11
41.0152412327
 21
-32.5859009696
  0
LINE
  5
528
100
AcDbEntity
  8
ASSI
100
AcDbLine
 62
250
  6
CONTINUOUS
 10
40.3207041268
 20
-32.5827103514
 11
40.3085529259
 21
-30.8473501929
  0
LINE
  5
529
100
AcDbEntity
  8
ASSI
100
AcDbLine
 62
250
  6
CONTINUOUS
 10
41.0152412327
 20
-32.5859009696
 11
41.0030985802
 21
-30.8518006335
  0
LINE
  5
52A
100
AcDbEntity
  8
ASSI
100
AcDbLine
 62
250
  6
CONTINUOUS
 10
40.3085529259
 20
-30.8473501929
 11
40.3027653662
 21
-29.6131945278
  0
LINE
  5
52B
100
AcDbEntity
  8
ASSI
100
AcDbLine
 62
250
  6
CONTINUOUS
 10
41.0030985802
 20
-30.8518006335
 11
40.9972884428
 21
-29.6188792928
  0
LINE
  5
52C
100
AcDbEntity
  8
ASSI
100
AcDbLine
 62
250
  6
CONTINUOUS
 10
40.3027653662
 20
-29.6131945278
 11
40.2990218586
 21
-28.2875542017
  0
LINE
  5
52D
100
AcDbEntity
  8
ASSI
100
AcDbLine
 62
250
  6
CONTINUOUS
 10
40.9972884428
 20
-29.6188792928
 11
40.9936368017
 21
-28.2927478904
  0
LINE
  5
52E
100
AcDbEntity
  8
ASSI
100
AcDbLine
 62
250
  6
CONTINUOUS
 10
40.2990218586
 20
-28.2875542017
 11
40.297676567
 21
-26.8582013624
  0
LINE
  5
52F
100
AcDbEntity
  8
ASSI
100
AcDbLine
 62
250
  6
CONTINUOUS
 10
40.9936368017
 20
-28.2927478904
 11
40.9924725887
 21
-26.2681369906
  0
LINE
  5
530
100
AcDbEntity
  8
ASSI
100
AcDbLine
 62
250
  6
CONTINUOUS
 10
40.297676567
 20
-26.8582013624
 11
40.2997402423
 21
-25.0886385195
  0
LINE
  5
531
100
AcDbEntity
  8
ASSI
100
AcDbLine
 62
250
  6
CONTINUOUS
 10
40.9924725887
 20
-26.2681369906
 11
40.9958642935
 21
-24.5237789496
  0
LINE
  5
532
100
AcDbEntity
  8
ASSI
100
AcDbLine
 62
250
  6
CONTINUOUS
 10
40.2997402423
 20
-25.0886385195
 11
40.305802826
 21
-23.3871584423
  0
LINE
  5
533
100
AcDbEntity
  8
ASSI
100
AcDbLine
 62
250
  6
CONTINUOUS
 10
40.9958642935
 20
-24.5237789496
 11
41.0032834482
 21
-22.8350253228
  0
LINE
  5
534
100
AcDbEntity
  8
ASSI
100
AcDbLine
 62
250
  6
CONTINUOUS
 10
40.305802826
 20
-23.3871584423
 11
40.3159413282
 21
-21.7153740255
  0
LINE
  5
535
100
AcDbEntity
  8
ASSI
100
AcDbLine
 62
250
  6
CONTINUOUS
 10
41.0032834482
 20
-22.8350253228
 11
41.0147268355
 21
-21.1818303699
  0
LINE
  5
536
100
AcDbEntity
  8
ASSI
100
AcDbLine
 62
250
  6
CONTINUOUS
 10
40.3159413282
 20
-21.7153740255
 11
40.3299268698
 21
-20.1043884537
  0
LINE
  5
537
100
AcDbEntity
  8
ASSI
100
AcDbLine
 62
250
  6
CONTINUOUS
 10
41.0147268355
 20
-21.1818303699
 11
41.0299072452
 21
-19.595870371
  0
LINE
  5
538
100
AcDbEntity
  8
ASSI
100
AcDbLine
 62
250
  6
CONTINUOUS
 10
40.3299268698
 20
-20.1043884537
 11
40.3473913458
 21
-18.5696800479
  0
LINE
  5
539
100
AcDbEntity
  8
ASSI
100
AcDbLine
 62
250
  6
CONTINUOUS
 10
41.0299072452
 20
-19.595870371
 11
41.048406284
 21
-18.0908240982
  0
LINE
  5
53A
100
AcDbEntity
  8
ASSI
100
AcDbLine
 62
250
  6
CONTINUOUS
 10
40.3473913458
 20
-18.5696800479
 11
40.3678085637
 21
-17.124704322
  0
LINE
  5
53B
100
AcDbEntity
  8
ASSI
100
AcDbLine
 62
250
  6
CONTINUOUS
 10
41.048406284
 20
-18.0908240982
 11
41.0696389969
 21
-16.6801108896
  0
LINE
  5
53C
100
AcDbEntity
  8
ASSI
100
AcDbLine
 62
250
  6
CONTINUOUS
 10
40.3678085637
 20
-17.124704322
 11
40.3904623868
 21
-15.783744856
  0
LINE
  5
53D
100
AcDbEntity
  8
ASSI
100
AcDbLine
 62
250
  6
CONTINUOUS
 10
41.0696389969
 20
-16.6801108896
 11
41.0927400227
 21
-15.3819107385
  0
LINE
  5
53E
100
AcDbEntity
  8
ASSI
100
AcDbLine
 62
250
  6
CONTINUOUS
 10
40.3904623868
 20
-15.783744856
 11
40.4143880117
 21
-14.564202218
  0
LINE
  5
53F
100
AcDbEntity
  8
ASSI
100
AcDbLine
 62
250
  6
CONTINUOUS
 10
41.0927400227
 20
-15.3819107385
 11
41.1171772969
 21
-14.1910741673
  0
LINE
  5
540
100
AcDbEntity
  8
ASSI
100
AcDbLine
 62
250
  6
CONTINUOUS
 10
40.4143880117
 20
-14.564202218
 11
40.440291196
 21
-13.4041476606
  0
LINE
  5
541
100
AcDbEntity
  8
ASSI
100
AcDbLine
 62
250
  6
CONTINUOUS
 10
41.1171772969
 20
-14.1910741673
 11
41.1441965542
 21
-13.0305967821
  0
LINE
  5
542
100
AcDbEntity
  8
ASSI
100
AcDbLine
 62
250
  6
CONTINUOUS
 10
40.440291196
 20
-13.4041476606
 11
40.4700666131
 21
-12.2219208178
  0
LINE
  5
543
100
AcDbEntity
  8
ASSI
100
AcDbLine
 62
250
  6
CONTINUOUS
 10
41.1441965542
 20
-13.0305967821
 11
41.1752707952
 21
-11.8444334327
  0
LINE
  5
544
100
AcDbEntity
  8
ASSI
100
AcDbLine
 62
250
  6
CONTINUOUS
 10
40.4700666131
 20
-12.2219208178
 11
40.5038361965
 21
-11.0284760826
  0
LINE
  5
545
100
AcDbEntity
  8
ASSI
100
AcDbLine
 62
250
  6
CONTINUOUS
 10
41.1752707952
 20
-11.8444334327
 11
41.2102121474
 21
-10.6551051683
  0
LINE
  5
546
100
AcDbEntity
  8
ASSI
100
AcDbLine
 62
250
  6
CONTINUOUS
 10
40.5038361965
 20
-11.0284760826
 11
40.5412382056
 21
-9.8466075616
  0
LINE
  5
547
100
AcDbEntity
  8
ASSI
100
AcDbLine
 62
250
  6
CONTINUOUS
 10
41.2102121474
 20
-10.6551051683
 11
41.2488796959
 21
-9.4768551657
  0
LINE
  5
548
100
AcDbEntity
  8
ASSI
100
AcDbLine
 62
250
  6
CONTINUOUS
 10
40.5412382056
 20
-9.8466075616
 11
40.5828368224
 21
-8.666500632
  0
LINE
  5
549
100
AcDbEntity
  8
ASSI
100
AcDbLine
 62
250
  6
CONTINUOUS
 10
41.2488796959
 20
-9.4768551657
 11
41.29205486
 21
-8.2949168845
  0
LINE
  5
54A
100
AcDbEntity
  8
ASSI
100
AcDbLine
 62
250
  6
CONTINUOUS
 10
40.5828368224
 20
-8.666500632
 11
40.6296444091
 21
-7.4719490727
  0
LINE
  5
54B
100
AcDbEntity
  8
ASSI
100
AcDbLine
 62
250
  6
CONTINUOUS
 10
41.29205486
 20
-8.2949168845
 11
41.3238053819
 21
-7.4983837992
  0
LINE
  5
54C
100
AcDbEntity
  8
ASSI
100
AcDbLine
 62
250
  6
CONTINUOUS
 10
40.6296444091
 20
-7.4719490727
 11
40.6641175689
 21
-6.6658553658
  0
LINE
  5
54D
100
AcDbEntity
  8
ASSI
100
AcDbLine
 62
250
  6
CONTINUOUS
 10
41.3238053819
 20
-7.4983837992
 11
41.3582230613
 21
-6.6938199955
  0
LINE
  5
54E
100
AcDbEntity
  8
ASSI
100
AcDbLine
 62
250
  6
CONTINUOUS
 10
40.6641175689
 20
-6.6658553658
 11
40.7007538717
 21
-5.8668312839
  0
LINE
  5
54F
100
AcDbEntity
  8
ASSI
100
AcDbLine
 62
250
  6
CONTINUOUS
 10
41.3582230613
 20
-6.6938199955
 11
41.3947946075
 21
-5.8964492851
  0
LINE
  5
550
100
AcDbEntity
  8
ASSI
100
AcDbLine
 62
250
  6
CONTINUOUS
 10
40.7007538717
 20
-5.8668312839
 11
40.7391339449
 21
-5.0849945134
  0
LINE
  5
551
100
AcDbEntity
  8
ASSI
100
AcDbLine
 62
250
  6
CONTINUOUS
 10
41.3947946075
 20
-5.8964492851
 11
41.4330885929
 21
-5.1160718074
  0
LINE
  5
552
100
AcDbEntity
  8
ASSI
100
AcDbLine
 62
250
  6
CONTINUOUS
 10
40.7391339449
 20
-5.0849945134
 11
40.7783263609
 21
-4.3375227596
  0
LWPOLYLINE
  5
553
100
AcDbEntity
  8
ASSI
100
AcDbPolyline
 62
250
  6
CONTINUOUS
 90
3
 70
0
 10
41.4330885929
 20
-5.1160718074
 10
41.4722104211
 20
-4.3705075741
 10
41.4917571435
 20
-4.0145115293
  0
LINE
  5
554
100
AcDbEntity
  8
ASSI
100
AcDbLine
 62
250
  6
CONTINUOUS
 10
40.7783263609
 20
-4.3375227596
 11
40.8173413193
 21
-3.6383770789
  0
LINE
  5
555
100
AcDbEntity
  8
ASSI
100
AcDbLine
 62
250
  6
CONTINUOUS
 10
40.8173413193
 20
-3.6383770789
 11
40.8744892001
 21
-2.6850734026
  0
LINE
  5
556
100
AcDbEntity
  8
ASSI
100
AcDbLine
 62
250
  6
CONTINUOUS
 10
40.8744892001
 20
-2.6850734026
 11
40.9302086001
 21
-1.8261017064
  0
LINE
  5
557
100
AcDbEntity
  8
ASSI
100
AcDbLine
 62
250
  6
CONTINUOUS
 10
40.9302086001
 20
-1.8261017064
 11
40.9870492987
 21
-1.0120526227
  0
LINE
  5
558
100
AcDbEntity
  8
ASSI
100
AcDbLine
 62
250
  6
CONTINUOUS
 10
41.6610962877
 20
-1.3232934372
 11
41.7201775816
 21
-0.5170657201
  0
LINE
  5
559
100
AcDbEntity
  8
ASSI
100
AcDbLine
 62
250
  6
CONTINUOUS
 10
40.9870492987
 20
-1.0120526227
 11
41.0479449548
 21
-0.2009683937
  0
LINE
  5
55A
100
AcDbEntity
  8
ASSI
100
AcDbLine
 62
250
  6
CONTINUOUS
 10
41.0479449548
 20
-0.2009683937
 11
41.0917057016
 21
0.347133557
  0
LINE
  5
55B
100
AcDbEntity
  8
ASSI
100
AcDbLine
 62
250
  6
CONTINUOUS
 10
41.7201775816
 20
-0.5170657201
 11
41.7846549851
 21
0.3003740403
  0
LINE
  5
55C
100
AcDbEntity
  8
ASSI
100
AcDbLine
 62
250
  6
CONTINUOUS
 10
41.0917057016
 20
0.347133557
 11
41.1382113848
 21
0.9007933634
  0
LINE
  5
55D
100
AcDbEntity
  8
ASSI
100
AcDbLine
 62
250
  6
CONTINUOUS
 10
41.7846549851
 20
0.3003740403
 11
41.8309825062
 21
0.8517740007
  0
LINE
  5
55E
100
AcDbEntity
  8
ASSI
100
AcDbLine
 62
250
  6
CONTINUOUS
 10
41.1382113848
 20
0.9007933634
 11
41.1868604442
 21
1.450822933
  0
LINE
  5
55F
100
AcDbEntity
  8
ASSI
100
AcDbLine
 62
250
  6
CONTINUOUS
 10
41.8309825062
 20
0.8517740007
 11
41.8794304994
 21
1.3993075837
  0
LINE
  5
560
100
AcDbEntity
  8
ASSI
100
AcDbLine
 62
250
  6
CONTINUOUS
 10
41.1868604442
 20
1.450822933
 11
41.2371399745
 21
1.9905467764
  0
LINE
  5
561
100
AcDbEntity
  8
ASSI
100
AcDbLine
 62
250
  6
CONTINUOUS
 10
41.8794304994
 20
1.3993075837
 11
41.9294772306
 21
1.9366394568
  0
LINE
  5
562
100
AcDbEntity
  8
ASSI
100
AcDbLine
 62
250
  6
CONTINUOUS
 10
41.2371399745
 20
1.9905467764
 11
41.2879561723
 21
2.5087285693
  0
LINE
  5
563
100
AcDbEntity
  8
ASSI
100
AcDbLine
 62
250
  6
CONTINUOUS
 10
41.9294772306
 20
1.9366394568
 11
41.9800540686
 21
2.4520060716
  0
LINE
  5
564
100
AcDbEntity
  8
ASSI
100
AcDbLine
 62
250
  6
CONTINUOUS
 10
41.2879561723
 20
2.5087285693
 11
41.3380096269
 21
2.9943902851
  0
LINE
  5
565
100
AcDbEntity
  8
ASSI
100
AcDbLine
 62
250
  6
CONTINUOUS
 10
41.9800540686
 20
2.4520060716
 11
42.0298295419
 21
2.9352820352
  0
LINE
  5
566
100
AcDbEntity
  8
ASSI
100
AcDbLine
 62
250
  6
CONTINUOUS
 10
41.3380096269
 20
2.9943902851
 11
41.3867271991
 21
3.4452234522
  0
LINE
  5
567
100
AcDbEntity
  8
ASSI
100
AcDbLine
 62
250
  6
CONTINUOUS
 10
42.0298295419
 20
2.9352820352
 11
42.0782749038
 21
3.3833773976
  0
LINE
  5
568
100
AcDbEntity
  8
ASSI
100
AcDbLine
 62
250
  6
CONTINUOUS
 10
41.3867271991
 20
3.4452234522
 11
41.4335666716
 21
3.8597376155
  0
LINE
  5
569
100
AcDbEntity
  8
ASSI
100
AcDbLine
 62
250
  6
CONTINUOUS
 10
42.0782749038
 20
3.3833773976
 11
42.1248271765
 21
3.7953032569
  0
LINE
  5
56A
100
AcDbEntity
  8
ASSI
100
AcDbLine
 62
250
  6
CONTINUOUS
 10
42.1248271765
 20
3.7953032569
 11
42.1705534222
 21
4.1831992247
  0
LINE
  5
56B
100
AcDbEntity
  8
ASSI
100
AcDbLine
 62
250
  6
CONTINUOUS
 10
41.4335666716
 20
3.8597376155
 11
41.4795993911
 21
4.2501819293
  0
LINE
  5
56C
100
AcDbEntity
  8
ASSI
100
AcDbLine
 62
250
  6
CONTINUOUS
 10
41.4795993911
 20
4.2501819293
 11
41.5255360204
 21
4.6240913417
  0
LINE
  5
56D
100
AcDbEntity
  8
ASSI
100
AcDbLine
 62
250
  6
CONTINUOUS
 10
42.1705534222
 20
4.1831992247
 11
42.2161739262
 21
4.5542496794
  0
LINE
  5
56E
100
AcDbEntity
  8
ASSI
100
AcDbLine
 62
250
  6
CONTINUOUS
 10
41.5255360204
 20
4.6240913417
 11
41.5728417183
 21
4.9937044968
  0
LINE
  5
56F
100
AcDbEntity
  8
ASSI
100
AcDbLine
 62
250
  6
CONTINUOUS
 10
42.2161739262
 20
4.5542496794
 11
42.263121211
 21
4.9211105573
  0
LINE
  5
570
100
AcDbEntity
  8
ASSI
100
AcDbLine
 62
250
  6
CONTINUOUS
 10
41.5728417183
 20
4.9937044968
 11
41.6225568372
 21
5.3662414779
  0
LINE
  5
571
100
AcDbEntity
  8
ASSI
100
AcDbLine
 62
250
  6
CONTINUOUS
 10
42.263121211
 20
4.9211105573
 11
42.3124392634
 21
5.2903570539
  0
LWPOLYLINE
  5
572
100
AcDbEntity
  8
ASSI
100
AcDbPolyline
 62
250
  6
CONTINUOUS
 90
10
 70
0
 10
43.2775789027
 20
10.2535626482
 10
43.278535029
 20
10.260563783
 10
43.2794488375
 20
10.2675901993
 10
43.2803203512
 20
10.2746415007
 10
43.2811496413
 20
10.2817171156
 10
43.2819366928
 20
10.2888168171
 10
43.2826813918
 20
10.2959407308
 10
43.2833837108
 20
10.3030886373
 10
43.2840437211
 20
10.3102599648
 10
43.2846614498
 20
10.3174543146
  0
LINE
  5
573
100
AcDbEntity
  8
ASSI
100
AcDbLine
 62
250
  6
CONTINUOUS
 10
41.6225568372
 20
5.3662414779
 11
41.6751073459
 21
5.7433609556
  0
LINE
  5
574
100
AcDbEntity
  8
ASSI
100
AcDbLine
 62
250
  6
CONTINUOUS
 10
42.3124392634
 20
5.2903570539
 11
42.364531715
 21
5.6641213433
  0
LINE
  5
575
100
AcDbEntity
  8
ASSI
100
AcDbLine
 62
250
  6
CONTINUOUS
 10
41.6751073459
 20
5.7433609556
 11
41.7307557671
 21
6.1251695409
  0
LINE
  5
576
100
AcDbEntity
  8
ASSI
100
AcDbLine
 62
250
  6
CONTINUOUS
 10
42.364531715
 20
5.6641213433
 11
42.4196588221
 21
6.0422047321
  0
LINE
  5
577
100
AcDbEntity
  8
ASSI
100
AcDbLine
 62
250
  6
CONTINUOUS
 10
41.7307557671
 20
6.1251695409
 11
41.7887871098
 21
6.5052966134
  0
LINE
  5
578
100
AcDbEntity
  8
ASSI
100
AcDbLine
 62
250
  6
CONTINUOUS
 10
42.4196588221
 20
6.0422047321
 11
42.4770956459
 21
6.4182531086
  0
LINE
  5
579
100
AcDbEntity
  8
ASSI
100
AcDbLine
 62
250
  6
CONTINUOUS
 10
41.7887871098
 20
6.5052966134
 11
41.8489796105
 21
6.8813484487
  0
LINE
  5
57A
100
AcDbEntity
  8
ASSI
100
AcDbLine
 62
250
  6
CONTINUOUS
 10
42.4770956459
 20
6.4182531086
 11
42.5366188031
 21
6.7900209402
  0
LINE
  5
57B
100
AcDbEntity
  8
ASSI
100
AcDbLine
 62
250
  6
CONTINUOUS
 10
41.8489796105
 20
6.8813484487
 11
41.9113616752
 21
7.2527296738
  0
LWPOLYLINE
  5
57C
100
AcDbEntity
  8
ASSI
100
AcDbPolyline
 62
250
  6
CONTINUOUS
 90
3
 70
0
 10
42.5366188031
 20
6.7900209402
 10
42.5982480192
 20
7.1566827482
 10
42.629570802
 20
7.3364404907
  0
LINE
  5
57D
100
AcDbEntity
  8
ASSI
100
AcDbLine
 62
250
  6
CONTINUOUS
 10
41.9113616752
 20
7.2527296738
 11
41.9752389726
 21
7.6148935676
  0
LWPOLYLINE
  5
57E
100
AcDbEntity
  8
ASSI
100
AcDbPolyline
 62
250
  6
CONTINUOUS
 90
4
 70
0
 10
42.629570802
 20
7.3364404907
 10
42.6932396147
 20
7.688293773
 10
42.7248667418
 20
7.8570896962
 10
42.7560248047
 20
8.0193234872
  0
LWPOLYLINE
  5
57F
100
AcDbEntity
  8
ASSI
100
AcDbPolyline
 62
250
  6
CONTINUOUS
 90
4
 70
0
 10
41.9752389726
 20
7.6148935676
 10
42.0397646558
 20
7.9633031082
 10
42.071415632
 20
8.1281401708
 10
42.102735981
 20
8.2874887389
  0
LWPOLYLINE
  5
580
100
AcDbEntity
  8
ASSI
100
AcDbPolyline
 62
250
  6
CONTINUOUS
 90
3
 70
0
 10
42.7560248047
 20
8.0193234872
 10
42.8171251974
 20
8.3264476137
 10
42.846803354
 20
8.4707882783
  0
LINE
  5
581
100
AcDbEntity
  8
ASSI
100
AcDbLine
 62
250
  6
CONTINUOUS
 10
42.102735981
 20
8.2874887389
 11
42.1637467129
 21
8.5875747842
  0
LINE
  5
582
100
AcDbEntity
  8
ASSI
100
AcDbLine
 62
250
  6
CONTINUOUS
 10
42.1637467129
 20
8.5875747842
 11
42.2225488678
 21
8.8645111339
  0
LWPOLYLINE
  5
583
100
AcDbEntity
  8
ASSI
100
AcDbPolyline
 62
250
  6
CONTINUOUS
 90
3
 70
0
 10
42.846803354
 20
8.4707882783
 10
42.9045170221
 20
8.742297008
 10
42.9325124486
 20
8.8700826548
  0
LINE
  5
584
100
AcDbEntity
  8
ASSI
100
AcDbLine
 62
250
  6
CONTINUOUS
 10
42.2225488678
 20
8.8645111339
 11
42.2791087551
 21
9.120146937
  0
LWPOLYLINE
  5
585
100
AcDbEntity
  8
ASSI
100
AcDbPolyline
 62
250
  6
CONTINUOUS
 90
3
 70
0
 10
42.9325124486
 20
8.8700826548
 10
42.9868583021
 20
9.1106100528
 10
43.013235409
 20
9.2241521496
  0
LINE
  5
586
100
AcDbEntity
  8
ASSI
100
AcDbLine
 62
250
  6
CONTINUOUS
 10
42.2791087551
 20
9.120146937
 11
42.3335663799
 21
9.3568644291
  0
LINE
  5
587
100
AcDbEntity
  8
ASSI
100
AcDbLine
 62
250
  6
CONTINUOUS
 10
42.3335663799
 20
9.3568644291
 11
42.3860236224
 21
9.5766027551
  0
LINE
  5
588
100
AcDbEntity
  8
ASSI
100
AcDbLine
 62
250
  6
CONTINUOUS
 10
43.013235409
 20
9.2241521496
 11
43.0644956767
 21
9.4386007377
  0
LINE
  5
589
100
AcDbEntity
  8
ASSI
100
AcDbLine
 62
250
  6
CONTINUOUS
 10
42.6140656646
 20
10.4507703389
 11
42.6388561751
 21
10.5516470057
  0
LINE
  5
58A
100
AcDbEntity
  8
ASSI
100
AcDbLine
 62
250
  6
CONTINUOUS
 10
42.3860236224
 20
9.5766027551
 11
42.4366926934
 21
9.7815210516
  0
LINE
  5
58B
100
AcDbEntity
  8
ASSI
100
AcDbLine
 62
250
  6
CONTINUOUS
 10
43.0644956767
 20
9.4386007377
 11
43.1139358391
 21
9.6383421635
  0
LWPOLYLINE
  5
58C
100
AcDbEntity
  8
ASSI
100
AcDbPolyline
 62
250
  6
CONTINUOUS
 90
22
 70
0
 10
42.6388561751
 20
10.5516470057
 10
42.6657458231
 20
10.6575190644
 10
42.6800090775
 20
10.712075933
 10
42.6949291978
 20
10.7678115909
 10
42.7105554713
 20
10.8247172243
 10
42.7268782385
 20
10.8825512772
 10
42.7439107081
 20
10.9410593527
 10
42.7616302665
 20
11.0001207717
 10
42.7800362931
 20
11.0595622543
 10
42.7991469404
 20
11.1190486035
 10
42.8188972771
 20
11.1784190018
 10
42.8392628182
 20
11.2375171599
 10
42.8602964668
 20
11.2960197697
 10
42.8818719676
 20
11.3536453111
 10
42.9039662152
 20
11.4103561483
 10
42.9267857379
 20
11.4661683891
 10
42.9502931804
 20
11.5210130397
 10
42.9743600693
 20
11.574544059
 10
42.9990510259
 20
11.6263391968
 10
43.0243050673
 20
11.6761314251
 10
43.049939797
 20
11.7237954192
 10
43.075818534
 20
11.7691339167
  0
LINE
  5
58D
100
AcDbEntity
  8
ASSI
100
AcDbLine
 62
250
  6
CONTINUOUS
 10
42.4366926934
 20
9.7815210516
 11
42.4859263125
 21
9.9740727624
  0
LINE
  5
58E
100
AcDbEntity
  8
ASSI
100
AcDbLine
 62
250
  6
CONTINUOUS
 10
43.1139358391
 20
9.6383421635
 11
43.1619055759
 21
9.8258263098
  0
LINE
  5
58F
100
AcDbEntity
  8
ASSI
100
AcDbLine
 62
250
  6
CONTINUOUS
 10
42.4859263125
 20
9.9740727624
 11
42.5339870698
 21
10.1560997464
  0
LINE
  5
590
100
AcDbEntity
  8
ASSI
100
AcDbLine
 62
250
  6
CONTINUOUS
 10
43.1619055759
 20
9.8258263098
 11
43.2086687218
 21
10.0026938783
  0
LWPOLYLINE
  5
591
100
AcDbEntity
  8
ASSI
100
AcDbPolyline
 62
250
  6
CONTINUOUS
 90
9
 70
0
 10
42.6060298107
 20
10.4186288096
 10
42.6071084813
 20
10.4226038609
 10
42.6081659855
 20
10.4265912204
 10
42.6092023535
 20
10.4305910083
 10
42.6102175541
 20
10.4346030975
 10
42.6112114952
 20
10.4386271146
 10
42.6121841455
 20
10.4426629338
 10
42.6131355355
 20
10.4467106761
 10
42.6140656646
 20
10.4507703389
  0
LWPOLYLINE
  5
592
100
AcDbEntity
  8
ASSI
100
AcDbPolyline
 62
250
  6
CONTINUOUS
 90
3
 70
0
 10
42.5339870698
 20
10.1560997464
 10
42.5814600538
 20
10.3304181748
 10
42.6060298107
 20
10.4186288096
  0
LWPOLYLINE
  5
593
100
AcDbEntity
  8
ASSI
100
AcDbPolyline
 62
250
  6
CONTINUOUS
 90
3
 70
0
 10
43.2086687218
 20
10.0026938783
 10
43.2547936416
 20
10.1719741042
 10
43.2775789027
 20
10.2535626482
  0
LINE
  5
594
100
AcDbEntity
  8
ASSI
100
AcDbLine
 62
250
  6
CONTINUOUS
 10
22.1019022374
 20
-34.1919462051
 11
22.229757317
 21
-34.0958857127
  0
LINE
  5
595
100
AcDbEntity
  8
RACCORDO
100
AcDbLine
 62
250
  6
CONTINUOUS
 10
22.0836729261
 20
-29.1884588925
 11
19.4829512717
 21
-30.7987535793
  0
LINE
  5
596
100
AcDbEntity
  8
RACCORDO
100
AcDbLine
 62
250
  6
CONTINUOUS
 10
22.0916861818
 20
-29.5161136073
 11
19.7609284547
 21
-30.9592541209
  0
LINE
  5
597
100
AcDbEntity
  8
RACCORDO
100
AcDbLine
 62
250
  6
CONTINUOUS
 10
22.1005655207
 20
-29.8791816798
 11
20.0114720564
 21
-31.1039148564
  0
LINE
  5
598
100
AcDbEntity
  8
RACCORDO
100
AcDbLine
 62
7
  6
CONTINUOUS
 10
22.1021888164
 20
-29.9455567572
 11
20.0693308646
 21
-31.1373218071
  0
LINE
  5
599
100
AcDbEntity
  8
0
100
AcDbLine
 62
7
  6
CONTINUOUS
 10
22.0571190385
 20
-28.9808677544
 11
21.9156976822
 21
-29.062522673
  0
LINE
  5
59A
100
AcDbEntity
  8
0
100
AcDbLine
 62
7
  6
CONTINUOUS
 10
21.7035656479
 20
-29.185005051
 11
21.5621442917
 21
-29.2666599697
  0
LINE
  5
59B
100
AcDbEntity
  8
0
100
AcDbLine
 62
7
  6
CONTINUOUS
 10
21.3500122573
 20
-29.3891423477
 11
21.2085909011
 21
-29.4707972664
  0
LINE
  5
59C
100
AcDbEntity
  8
0
100
AcDbLine
 62
7
  6
CONTINUOUS
 10
20.9964588667
 20
-29.5932796444
 11
20.8550375105
 21
-29.674934563
  0
LINE
  5
59D
100
AcDbEntity
  8
0
100
AcDbLine
 62
7
  6
CONTINUOUS
 10
20.6429054761
 20
-29.797416941
 11
20.5014841199
 21
-29.8790718597
  0
LINE
  5
59E
100
AcDbEntity
  8
0
100
AcDbLine
 62
7
  6
CONTINUOUS
 10
20.2893520855
 20
-30.0015542377
 11
20.1479307293
 21
-30.0832091563
  0
LINE
  5
59F
100
AcDbEntity
  8
0
100
AcDbLine
 62
7
  6
CONTINUOUS
 10
19.9357986949
 20
-30.2056915343
 11
19.7943773387
 21
-30.287346453
  0
LINE
  5
5A0
100
AcDbEntity
  8
0
100
AcDbLine
 62
7
  6
CONTINUOUS
 10
19.5822453043
 20
-30.409828831
 11
19.4408239481
 21
-30.4914837497
  0
LINE
  5
5A1
100
AcDbEntity
  8
0
100
AcDbLine
 62
7
  6
CONTINUOUS
 10
19.2286919137
 20
-30.6139661277
 11
19.1958012752
 21
-30.6329567701
  0
LINE
  5
5A2
100
AcDbEntity
  8
0
100
AcDbLine
 62
7
  6
CONTINUOUS
 10
19.3018570424
 20
-30.6941920409
 11
22.0812504276
 21
-29.0894051343
  0
LINE
  5
5A3
100
AcDbEntity
  8
ASSI
100
AcDbLine
 62
7
  6
CONTINUOUS
 10
42.3954178934
 20
-28.9420123767
 11
42.3954178934
 21
-23.2773733541
  0
LINE
  5
5A4
100
AcDbEntity
  8
ASSI
100
AcDbLine
 62
7
  6
CONTINUOUS
 10
44.2249166287
 20
-61.04983909
 11
44.2249166287
 21
-28.0639425359
  0
LINE
  5
5A5
100
AcDbEntity
  8
ASSI
100
AcDbLine
 62
7
  6
CONTINUOUS
 10
44.2249166287
 20
-22.185356543
 11
44.2249166287
 21
10.800540011
  0
LINE
  5
5A6
100
AcDbEntity
  8
ASSI
100
AcDbLine
 62
250
  6
CONTINUOUS
 10
41.4917571435
 20
-4.0145115293
 11
41.5493883482
 21
-3.0259189991
  0
LINE
  5
5A7
100
AcDbEntity
  8
ASSI
100
AcDbLine
 62
250
  6
CONTINUOUS
 10
41.5493883482
 20
-3.0259189991
 11
41.6051668481
 21
-2.1439040698
  0
LWPOLYLINE
  5
5A8
100
AcDbEntity
  8
ASSI
100
AcDbPolyline
 62
250
  6
CONTINUOUS
 90
25
 70
0
 10
43.2846614498
 20
10.3174543146
 10
43.2884678825
 20
10.37251487
 10
43.2909235976
 20
10.4292901043
 10
43.2920514214
 20
10.4876044478
 10
43.2918812817
 20
10.5471552898
 10
43.2904626138
 20
10.6078809443
 10
43.2878193827
 20
10.6699706966
 10
43.2839649642
 20
10.7333758788
 10
43.2789202919
 20
10.7977666487
 10
43.272697269
 20
10.8629065848
 10
43.2653612192
 20
10.9286122072
 10
43.2569563664
 20
10.9946423789
 10
43.2474865953
 20
11.060667272
 10
43.237063399
 20
11.1264604263
 10
43.2257621402
 20
11.19180281
 10
43.2135547578
 20
11.2563752109
 10
43.200598328
 20
11.3198238561
 10
43.1869897905
 20
11.3820621349
 10
43.172604031
 20
11.4431361712
 10
43.1575495892
 20
11.502924475
 10
43.1419898219
 20
11.5610069533
 10
43.1258835501
 20
11.6169464104
 10
43.1093404578
 20
11.6704264348
 10
43.0926186923
 20
11.7212457663
 10
43.0759219252
 20
11.7691512072
  0
LINE
  5
5A9
100
AcDbEntity
  8
ASSI
100
AcDbLine
 62
250
  6
CONTINUOUS
 10
41.6051668481
 20
-2.1439040698
 11
41.6610962877
 21
-1.3232934372
  0
LINE
  5
5AA
100
AcDbEntity
  8
ASSI
100
AcDbLine
 62
7
  6
CONTINUOUS
 10
44.2249166287
 20
-22.185356543
 11
42.3954178934
 21
-23.2773733541
  0
LINE
  5
5AB
100
AcDbEntity
  8
ASSI
100
AcDbLine
 62
7
  6
CONTINUOUS
 10
42.3954178934
 20
-27.9700657697
 11
43.3056778131
 21
-27.5331855646
  0
LINE
  5
5AC
100
AcDbEntity
  8
ASSI
100
AcDbLine
 62
7
  6
CONTINUOUS
 10
44.2249166287
 20
-28.0639425359
 11
42.3954178934
 21
-28.9420123767
  0
LWPOLYLINE
  5
5AD
100
AcDbEntity
  8
ASSI
100
AcDbPolyline
 62
250
  6
CONTINUOUS
 90
14
 70
0
 10
-41.7479058895
 20
60.7453633118
 10
-41.8254400056
 20
60.751886975
 10
-41.9011986542
 20
60.7547250324
 10
-41.9749835302
 20
60.7539601237
 10
-42.0464703043
 20
60.749672693
 10
-42.1156584493
 20
60.7420319158
 10
-42.1828413243
 20
60.7311843845
 10
-42.2480446209
 20
60.7171492331
 10
-42.3109538785
 20
60.7000165055
 10
-42.3713405152
 20
60.6799545085
 10
-42.4291259861
 20
60.6570403188
 10
-42.4841671357
 20
60.6313808899
 10
-42.5361632347
 20
60.6032178029
 10
-42.5807207653
 20
60.5755671935
  0
LWPOLYLINE
  5
5AE
100
AcDbEntity
  8
ASSI
100
AcDbPolyline
 62
250
  6
CONTINUOUS
 90
25
 70
0
 10
-41.7479303371
 20
60.7453034236
 10
-41.8202556112
 20
60.7267948636
 10
-41.8908999329
 20
60.7055070178
 10
-41.959734691
 20
60.6816853425
 10
-42.0265364177
 20
60.6556818321
 10
-42.0913191227
 20
60.6276324736
 10
-42.1543161151
 20
60.5973948392
 10
-42.2155968533
 20
60.5650404525
 10
-42.2749107975
 20
60.5308273446
 10
-42.3320082729
 20
60.4948362356
 10
-42.3868541251
 20
60.4571881491
 10
-42.4393541454
 20
60.4180881432
 10
-42.4891930296
 20
60.3777510549
 10
-42.5361264058
 20
60.3365307027
 10
-42.5803538566
 20
60.2944037284
 10
-42.6222073284
 20
60.25099059
 10
-42.6617401654
 20
60.2063289591
 10
-42.6987910698
 20
60.1606142593
 10
-42.7333147344
 20
60.1136647994
 10
-42.7653732214
 20
60.065386463
 10
-42.7947695674
 20
60.0160970916
 10
-42.821094422
 20
59.9662340116
 10
-42.8442233508
 20
59.9160230403
 10
-42.8642723453
 20
59.865471478
 10
-42.8812401888
 20
59.8146884308
  0
LWPOLYLINE
  5
5AF
100
AcDbEntity
  8
ASSI
100
AcDbPolyline
 62
250
  6
CONTINUOUS
 90
14
 70
0
 10
43.2429995806
 20
-61.8951556183
 10
43.2454585348
 20
-61.8938030792
 10
43.2548087325
 20
-61.8861219003
 10
43.2631574315
 20
-61.8750101917
 10
43.2706211944
 20
-61.8603866919
 10
43.2770763833
 20
-61.8422872516
 10
43.2824262568
 20
-61.8207944012
 10
43.2867301933
 20
-61.7957475984
 10
43.2898712472
 20
-61.7670633654
 10
43.2916758923
 20
-61.7349052758
 10
43.2921213733
 20
-61.6994934867
 10
43.2911646132
 20
-61.661012774
 10
43.2886997545
 20
-61.6195657933
 10
43.2846614498
 20
-61.5753113006
  0
LINE
  5
5B0
100
AcDbEntity
  8
ASSI
100
AcDbLine
 62
250
  6
CONTINUOUS
 10
43.2775789027
 20
-61.5229976653
 11
44.2249166287
 21
-61.04983909
  0
LINE
  5
5B1
100
AcDbEntity
  8
ASSI
100
AcDbLine
 62
7
  6
CONTINUOUS
 10
43.2430068671
 20
-61.8951519798
 11
44.0002812416
 21
-61.5169227018
  0
ARC
  5
5B2
100
AcDbEntity
  8
RACCORDO
100
AcDbCircle
 62
7
  6
CONTINUOUS
 10
-11.000122982
 20
-12.9492034887
 40
0.3
100
AcDbArc
 50
59.999845608
 51
119.1279835013
  0
ARC
  5
5B3
100
AcDbEntity
  8
RACCORDO
100
AcDbCircle
 62
7
  6
CONTINUOUS
 10
-10.6465695914
 20
-13.1533407854
 40
0.3
100
AcDbArc
 50
359.9999195711
 51
59.9984803951
  0
ARC
  5
5B4
100
AcDbEntity
  8
RACCORDO
100
AcDbCircle
 62
7
  6
CONTINUOUS
 10
-3.858344492
 20
-17.0727768813
 40
0.3
100
AcDbArc
 50
359.9999195711
 51
59.9984803951
  0
ARC
  5
5B5
100
AcDbEntity
  8
RACCORDO
100
AcDbCircle
 62
7
  6
CONTINUOUS
 10
-4.2118978826
 20
-16.8686395847
 40
0.3
100
AcDbArc
 50
59.9995246643
 51
119.1247359263
  0
ARC
  5
5B6
100
AcDbEntity
  8
RACCORDO
100
AcDbCircle
 62
7
  6
CONTINUOUS
 10
4.9097795947
 20
-22.1353818386
 40
0.3
100
AcDbArc
 50
59.999845608
 51
119.1279835013
  0
ARC
  5
5B7
100
AcDbEntity
  8
RACCORDO
100
AcDbCircle
 62
7
  6
CONTINUOUS
 10
5.2633329853
 20
-22.3395191353
 40
0.3
100
AcDbArc
 50
359.9999195711
 51
59.9984803951
  0
ARC
  5
5B8
100
AcDbEntity
  8
RACCORDO
100
AcDbCircle
 62
7
  6
CONTINUOUS
 10
12.0515580847
 20
-26.2589552312
 40
0.3
100
AcDbArc
 50
359.9999195711
 51
59.9984803951
  0
ARC
  5
5B9
100
AcDbEntity
  8
RACCORDO
100
AcDbCircle
 62
7
  6
CONTINUOUS
 10
11.6980046941
 20
-26.0548179345
 40
0.3
100
AcDbArc
 50
59.9995246643
 51
119.1247359263
  0
ARC
  5
5BA
100
AcDbEntity
  8
RACCORDO
100
AcDbCircle
 62
7
  6
CONTINUOUS
 10
-8.2106175078
 20
-10.457886887
 40
0.2
100
AcDbArc
 50
300.3790158245
 51
359.9999999992
  0
ARC
  5
5BB
100
AcDbEntity
  8
RACCORDO
100
AcDbCircle
 62
7
  6
CONTINUOUS
 10
7.6992850689
 20
-19.3687973009
 40
0.2
100
AcDbArc
 50
36.2391805469
 51
59.9892624484
  0
ARC
  5
5BC
100
AcDbEntity
  8
RACCORDO
100
AcDbCircle
 62
7
  6
CONTINUOUS
 10
4.1001731079
 20
-17.2907151621
 40
0.2
100
AcDbArc
 50
59.985845815
 51
113.1641412941
  0
ARC
  5
5BD
100
AcDbEntity
  8
RACCORDO
100
AcDbCircle
 62
7
  6
CONTINUOUS
 10
20.0100756846
 20
-26.4768935119
 40
0.2
100
AcDbArc
 50
59.996138083
 51
113.1166749514
  0
ARC
  5
5BE
100
AcDbEntity
  8
RACCORDO
100
AcDbCircle
 62
7
  6
CONTINUOUS
 10
-11.8097294688
 20
-8.1045368122
 40
0.2
100
AcDbArc
 50
59.996138083
 51
113.1166749514
  0
ARC
  5
5BF
100
AcDbEntity
  8
RACCORDO
100
AcDbCircle
 62
7
  6
CONTINUOUS
 10
-8.2106175078
 20
-10.182618951
 40
0.2
100
AcDbArc
 50
0.0
 51
60.0048165667
  0
ELLIPSE
  5
5C0
100
AcDbEntity
  8
ASSI
100
AcDbEllipse
 62
7
  6
CONTINUOUS
 10
11.6529718756
 20
-17.1668566142
 30
0.0
 11
3.9076719757
 21
2.4225779577
 31
0.0
 40
0.0301914889
 41
2.8951111843
 42
3.1228774962
  0
ELLIPSE
  5
5C1
100
AcDbEntity
  8
ASSI
100
AcDbEllipse
 62
7
  6
CONTINUOUS
 10
43.5173788346
 20
-60.6403205888
 30
0.0
 11
-0.5006334602
 21
0.8670669287
 31
0.0
 40
0.5766289216
 41
-3.176455094
 42
-2.3568516818
  0
ELLIPSE
  5
5C2
100
AcDbEntity
  8
ASSI
100
AcDbEllipse
 62
7
  6
CONTINUOUS
 10
43.5173788346
 20
11.2080684194
 30
0.0
 11
-0.5000242486
 21
0.8660114034
 31
0.0
 40
0.5780352736
 41
-2.355633942
 42
-0.7860555904
  0
ELLIPSE
  5
5C3
100
AcDbEntity
  8
ASSI
100
AcDbEllipse
 62
7
  6
CONTINUOUS
 10
-41.334572882
 20
60.2005218958
 30
0.0
 11
-0.5006334602
 21
0.8670669287
 31
0.0
 40
0.5766289216
 41
-0.7848373798
 42
0.0348624404
  0
ENDSEC
  0
SECTION
  2
OBJECTS
  0
DICTIONARY
  5
C
100
AcDbDictionary
280
0
281
1
  3
ACAD_GROUP
350
D
  3
ACAD_MLINESTYLE
350
17
  3
ACAD_LAYOUT
350
1A
  3
ACAD_PLOTSETTINGS
350
19
  3
ACAD_PLOTSTYLENAME
350
E
  0
DICTIONARY
  5
D
102
{ACAD_REACTORS
330
C
102
}
100
AcDbDictionary
280
0
281
1
  0
ACDBDICTIONARYWDFLT
  5
E
102
{ACAD_REACTORS
330
C
102
}
100
AcDbDictionary
281
1
  3
Normal
350
F
100
AcDbDictionaryWithDefault
340
F
  0
DICTIONARY
  5
17
102
{ACAD_REACTORS
330
C
102
}
100
AcDbDictionary
280
0
281
1
  3
Standard
350
18
  0
DICTIONARY
  5
19
102
{ACAD_REACTORS
330
C
102
}
100
AcDbDictionary
281
1
  0
DICTIONARY
  5
1A
102
{ACAD_REACTORS
330
C
102
}
100
AcDbDictionary
281
1
  3
Model
350
5C4
  3
Layout1
350
5C5
  0
ACDBPLACEHOLDER
  5
F
102
{ACAD_REACTORS
330
E
102
}
  0
MLINESTYLE
  5
18
102
{ACAD_REACTORS
330
17
102
}
100
AcDbMlineStyle
  2
STANDARD
 70
0
  3

 62
256
 51
90.0
 52
90.0
 71
2
 49
0.5
 62
256
  6
BYLAYER
 49
-0.5
 62
256
  6
BYLAYER
  0
LAYOUT
  5
5C4
102
{ACAD_REACTORS
330
1A
102
}
100
AcDbPlotSettings
  1

  2
none_device
  4
ISO_A4_(297.00_x_210.00_MM)
  6

 40
0.0
 41
0.0
 42
0.0
 43
0.0
 44
297.0
 45
210.0
 46
0.0
 47
0.0
 48
0.0
 49
0.0
140
0.0
141
0.0
142
1.0
143
1.0
 70
1024
 72
1
 73
0
 74
0
  7

 75
0
147
1.0
148
0.0
149
0.0
100
AcDbLayout
  1
Model
 70
0
 71
0
 10
0.0
 20
0.0
 11
297.0
 21
210.0
 12
0.0
 22
0.0
 32
0.0
 14
0.0
 24
0.0
 34
0.0
 15
0.0
 25
0.0
 35
0.0
146
0.0
 13
0.0
 23
0.0
 33
0.0
 16
1.0
 26
0.0
 36
0.0
 17
0.0
 27
1.0
 37
0.0
 76
0
330
216
345
0
346
0
  0
LAYOUT
  5
5C5
102
{ACAD_REACTORS
330
1A
102
}
100
AcDbPlotSettings
  1

  2
none_device
  4
ISO_A4_(297.00_x_210.00_MM)
  6

 40
0.0
 41
0.0
 42
0.0
 43
0.0
 44
297.0
 45
210.0
 46
0.0
 47
0.0
 48
0.0
 49
0.0
140
0.0
141
0.0
142
1.0
143
1.0
 70
0
 72
1
 73
0
 74
0
  7

 75
0
147
1.0
148
0.0
149
0.0
100
AcDbLayout
  1
Layout1
 70
0
 71
1
 10
0.0
 20
0.0
 11
297.0
 21
210.0
 12
0.0
 22
0.0
 32
0.0
 14
0.0
 24
0.0
 34
0.0
 15
0.0
 25
0.0
 35
0.0
146
0.0
 13
0.0
 23
0.0
 33
0.0
 16
1.0
 26
0.0
 36
0.0
 17
0.0
 27
1.0
 37
0.0
 76
0
330
217
345
0
346
0
  0
ENDSEC
  0
EOF
