  0
SECTION
  2
HEADER
  9
$ACADVER
  1
AC1015
  9
$DWGCODEPAGE
  3
ANSI_1252
  9
$EXTMAX
 10
297.0
 20
210.0
 30
0.0
  9
$EXTMIN
 10
0.0
 20
0.0
 30
0.0
  9
$LIMMIN
 10
0.0
 20
0.0
  9
$LIMMAX
 10
297.0
 20
210.0
  9
$VIEWCTR
 10
148.5
 20
105.0
  9
$VIEWSIZE
 40
210.0
  9
$CLAYER
  8
0
  9
$LTSCALE
 40
16.335
  9
$CELTYPE
  6
BYLAYER
  9
$DIMSCALE
 40
1.0
  9
$DIMASZ
 40
3.0
  9
$DIMEXO
 40
0.5
  9
$DIMDLI
 40
11.286
  9
$DIMEXE
 40
1.5
  9
$DIMCEN
 40
2.673
  9
$DIMLFAC
 40
1.0
  9
$DIMBLK
  1
_FILLED
  9
$DIMTXT
 40
3.0
  9
$DIMTOL
 70
1
  9
$DIMLIM
 70
0
  9
$DIMTFAC
 40
1.0
  9
$DIMTP
 40
0.01
  9
$DIMTM
 40
0.01
  9
$DIMGAP
 40
0.625
  9
$DIMDSEP
 70
44
  9
$PDMODE
 70
3
  9
$PDSIZE
 40
3.0
  9
$HANDSEED
  5
5B6
  9
$TILEMODE
 70
1
  9
$MEASUREMENT
 70
1
  9
$INSUNITS
 70
4
  0
ENDSEC
  0
SECTION
  2
CLASSES
  0
CLASS
  1
ACDBDICTIONARYWDFLT
  2
AcDbDictionaryWithDefault
  3
AutoCAD 2000
 90
0
280
0
281
0
  0
CLASS
  1
ACDBPLACEHOLDER
  2
AcDbPlaceHolder
  3
AutoCAD 2000
 90
0
280
0
281
0
  0
CLASS
  1
LAYOUT
  2
AcDbLayout
  3
AutoCAD 2000
 90
0
280
0
281
0
  0
ENDSEC
  0
SECTION
  2
TABLES
  0
TABLE
  2
VPORT
  5
8
100
AcDbSymbolTable
 70
2
  0
VPORT
  5
1F4
100
AcDbSymbolTableRecord
100
AcDbViewportTableRecord
  2
*ACTIVE
 70
0
 10
0.0
 20
0.0
 11
1.0
 21
1.0
 12
148.5
 22
105.0
 13
0.0
 23
0.0
 14
1.0
 24
1.0
 15
0.0
 25
0.0
 16
0.0
 26
0.0
 36
1.0
 17
0.0
 27
0.0
 37
0.0
 40
210.0
 41
1.4142857143
 42
50.0
 43
0.0
 44
0.0
 50
0.0
 51
0.0
 71
0
 72
100
 73
1
 74
1
 75
0
 76
0
 77
0
 78
0
  0
ENDTAB
  0
TABLE
  2
LTYPE
  5
5
100
AcDbSymbolTable
 70
6
  0
LTYPE
  5
14
100
AcDbSymbolTableRecord
100
AcDbLinetypeTableRecord
  2
BYBLOCK
 70
0
  3

 72
65
 73
0
 40
0.0
  0
LTYPE
  5
15
100
AcDbSymbolTableRecord
100
AcDbLinetypeTableRecord
  2
BYLAYER
 70
0
  3

 72
65
 73
0
 40
0.0
  0
LTYPE
  5
16
100
AcDbSymbolTableRecord
100
AcDbLinetypeTableRecord
  2
CONTINUOUS
 70
64
  3
Solid line
 72
65
 73
0
 40
0.0
  0
LTYPE
  5
1F5
100
AcDbSymbolTableRecord
100
AcDbLinetypeTableRecord
  2
CENTER
 70
64
  3
____ _ ____ _ ____ _ ____ _ ____ _ ____ _ ____
 72
65
 73
4
 40
0.6
 49
0.375
 74
0
 49
-0.075
 74
0
 49
0.075
 74
0
 49
-0.075
 74
0
  0
LTYPE
  5
1F6
100
AcDbSymbolTableRecord
100
AcDbLinetypeTableRecord
  2
HIDDEN
 70
64
  3
- - - - - - - - - - - - - - - - - - - -
 72
65
 73
2
 40
0.2
 49
0.1
 74
0
 49
-0.1
 74
0
  0
LTYPE
  5
1F7
100
AcDbSymbolTableRecord
100
AcDbLinetypeTableRecord
  2
PHANTOM
 70
64
  3
_____ _ _ _____ _ _ _____ _ _ _____
 72
65
 73
6
 40
0.8
 49
0.45
 74
0
 49
-0.05
 74
0
 49
0.1
 74
0
 49
-0.05
 74
0
 49
0.1
 74
0
 49
-0.05
 74
0
  0
LTYPE
  5
1F8
100
AcDbSymbolTableRecord
100
AcDbLinetypeTableRecord
  2
DOT
 70
64
  3
. . . . . . . . . . . . . . . . . . . .
 72
65
 73
2
 40
0.2
 49
0.1
 74
0
 49
-0.1
 74
0
  0
LTYPE
  5
1F9
100
AcDbSymbolTableRecord
100
AcDbLinetypeTableRecord
  2
DASHED
 70
64
  3
- - - - - - - - - - - - - - - - - - - -
 72
65
 73
2
 40
0.2
 49
0.1
 74
0
 49
-0.1
 74
0
  0
ENDTAB
  0
TABLE
  2
LAYER
  5
2
100
AcDbSymbolTable
 70
36
  0
LAYER
  5
10
100
AcDbSymbolTableRecord
100
AcDbLayerTableRecord
  2
0
 70
0
 62
7
  6
CONTINUOUS
370
-3
390
F
  0
LAYER
  5
1FA
100
AcDbSymbolTableRecord
100
AcDbLayerTableRecord
  2
DEFAULT_1
 70
0
 62
7
  6
CENTER
370
-3
390
F
  0
LAYER
  5
1FB
100
AcDbSymbolTableRecord
100
AcDbLayerTableRecord
  2
DEFAULT_2
 70
0
 62
7
  6
HIDDEN
370
-3
390
F
  0
LAYER
  5
1FC
100
AcDbSymbolTableRecord
100
AcDbLayerTableRecord
  2
DEFAULT_3
 70
0
 62
7
  6
PHANTOM
370
-3
390
F
  0
LAYER
  5
1FD
100
AcDbSymbolTableRecord
100
AcDbLayerTableRecord
  2
ASSI
 70
0
 62
7
  6
CONTINUOUS
370
-3
390
F
  0
LAYER
  5
1FE
100
AcDbSymbolTableRecord
100
AcDbLayerTableRecord
  2
COLOR9
 70
0
 62
7
  6
CONTINUOUS
370
-3
390
F
  0
LAYER
  5
1FF
100
AcDbSymbolTableRecord
100
AcDbLayerTableRecord
  2
COLORE_TOP
 70
0
 62
7
  6
CONTINUOUS
370
-3
390
F
  0
LAYER
  5
200
100
AcDbSymbolTableRecord
100
AcDbLayerTableRecord
  2
COORDINATE
 70
0
 62
7
  6
CONTINUOUS
370
-3
390
F
  0
LAYER
  5
201
100
AcDbSymbolTableRecord
100
AcDbLayerTableRecord
  2
COORD_ORIGINE
 70
0
 62
7
  6
CONTINUOUS
370
-3
390
F
  0
LAYER
  5
202
100
AcDbSymbolTableRecord
100
AcDbLayerTableRecord
  2
COPY
 70
0
 62
7
  6
CONTINUOUS
370
-3
390
F
  0
LAYER
  5
203
100
AcDbSymbolTableRecord
100
AcDbLayerTableRecord
  2
COPY_PUBLISH
 70
0
 62
7
  6
CONTINUOUS
370
-3
390
F
  0
LAYER
  5
204
100
AcDbSymbolTableRecord
100
AcDbLayerTableRecord
  2
COSMETICHE
 70
0
 62
7
  6
CONTINUOUS
370
-3
390
F
  0
LAYER
  5
205
100
AcDbSymbolTableRecord
100
AcDbLayerTableRecord
  2
COSMETICI
 70
0
 62
7
  6
CONTINUOUS
370
-3
390
F
  0
LAYER
  5
206
100
AcDbSymbolTableRecord
100
AcDbLayerTableRecord
  2
CURVE
 70
0
 62
7
  6
CONTINUOUS
370
-3
390
F
  0
LAYER
  5
207
100
AcDbSymbolTableRecord
100
AcDbLayerTableRecord
  2
DRAFT
 70
0
 62
7
  6
CONTINUOUS
370
-3
390
F
  0
LAYER
  5
208
100
AcDbSymbolTableRecord
100
AcDbLayerTableRecord
  2
IGES
 70
0
 62
7
  6
CONTINUOUS
370
-3
390
F
  0
LAYER
  5
209
100
AcDbSymbolTableRecord
100
AcDbLayerTableRecord
  2
IGS
 70
0
 62
7
  6
CONTINUOUS
370
-3
390
F
  0
LAYER
  5
20A
100
AcDbSymbolTableRecord
100
AcDbLayerTableRecord
  2
IMPORT
 70
0
 62
7
  6
CONTINUOUS
370
-3
390
F
  0
LAYER
  5
20B
100
AcDbSymbolTableRecord
100
AcDbLayerTableRecord
  2
IMPORTED
 70
0
 62
7
  6
CONTINUOUS
370
-3
390
F
  0
LAYER
  5
20C
100
AcDbSymbolTableRecord
100
AcDbLayerTableRecord
  2
IMPORT_IGES
 70
0
 62
7
  6
CONTINUOUS
370
-3
390
F
  0
LAYER
  5
20D
100
AcDbSymbolTableRecord
100
AcDbLayerTableRecord
  2
INCISIONI_LASER
 70
0
 62
7
  6
CONTINUOUS
370
-3
390
F
  0
LAYER
  5
20E
100
AcDbSymbolTableRecord
100
AcDbLayerTableRecord
  2
INTF_6
 70
0
 62
7
  6
CONTINUOUS
370
-3
390
F
  0
LAYER
  5
20F
100
AcDbSymbolTableRecord
100
AcDbLayerTableRecord
  2
NOTE
 70
0
 62
7
  6
CONTINUOUS
370
-3
390
F
  0
LAYER
  5
210
100
AcDbSymbolTableRecord
100
AcDbLayerTableRecord
  2
PIANI
 70
0
 62
7
  6
CONTINUOUS
370
-3
390
F
  0
LAYER
  5
211
100
AcDbSymbolTableRecord
100
AcDbLayerTableRecord
  2
PIANI_ORIGINE
 70
0
 62
7
  6
CONTINUOUS
370
-3
390
F
  0
LAYER
  5
212
100
AcDbSymbolTableRecord
100
AcDbLayerTableRecord
  2
PIANI_RIFERIMENTO
 70
0
 62
7
  6
CONTINUOUS
370
-3
390
F
  0
LAYER
  5
213
100
AcDbSymbolTableRecord
100
AcDbLayerTableRecord
  2
PIANI_SFORMO
 70
0
 62
7
  6
CONTINUOUS
370
-3
390
F
  0
LAYER
  5
214
100
AcDbSymbolTableRecord
100
AcDbLayerTableRecord
  2
PUNTI
 70
0
 62
7
  6
CONTINUOUS
370
-3
390
F
  0
LAYER
  5
215
100
AcDbSymbolTableRecord
100
AcDbLayerTableRecord
  2
RACCORDO
 70
0
 62
7
  6
CONTINUOUS
370
-3
390
F
  0
LAYER
  5
216
100
AcDbSymbolTableRecord
100
AcDbLayerTableRecord
  2
RINTRACCIABILITA
 70
0
 62
7
  6
CONTINUOUS
370
-3
390
F
  0
LAYER
  5
217
100
AcDbSymbolTableRecord
100
AcDbLayerTableRecord
  2
SIMBOLI
 70
0
 62
7
  6
CONTINUOUS
370
-3
390
F
  0
LAYER
  5
218
100
AcDbSymbolTableRecord
100
AcDbLayerTableRecord
  2
SMUSSO
 70
0
 62
7
  6
CONTINUOUS
370
-3
390
F
  0
LAYER
  5
219
100
AcDbSymbolTableRecord
100
AcDbLayerTableRecord
  2
SNAPLINE
 70
0
 62
7
  6
CONTINUOUS
370
-3
390
F
  0
LAYER
  5
21A
100
AcDbSymbolTableRecord
100
AcDbLayerTableRecord
  2
SUPERFICI
 70
0
 62
7
  6
CONTINUOUS
370
-3
390
F
  0
LAYER
  5
21B
100
AcDbSymbolTableRecord
100
AcDbLayerTableRecord
  2
TRASH
 70
0
 62
7
  6
CONTINUOUS
370
-3
390
F
  0
LAYER
  5
21C
100
AcDbSymbolTableRecord
100
AcDbLayerTableRecord
  2
XSEC_DATUMS
 70
0
 62
7
  6
CONTINUOUS
370
-3
390
F
  0
ENDTAB
  0
TABLE
  2
STYLE
  5
3
100
AcDbSymbolTable
 70
1
  0
STYLE
  5
11
100
AcDbSymbolTableRecord
100
AcDbTextStyleTableRecord
  2
STANDARD
 70
0
 40
0.0
 41
0.8
 50
0.0
 71
0
 42
0.2
  3
txt
  4

  0
STYLE
  5
21D
100
AcDbSymbolTableRecord
100
AcDbTextStyleTableRecord
  2
TEXTSTYLE_1
 70
0
 40
0.0
 41
0.8
 50
0.0
 71
0
 42
0.2
  3
gdt
  4

  0
ENDTAB
  0
TABLE
  2
VIEW
  5
6
100
AcDbSymbolTable
 70
0
  0
ENDTAB
  0
TABLE
  2
UCS
  5
7
100
AcDbSymbolTable
 70
0
  0
ENDTAB
  0
TABLE
  2
APPID
  5
9
100
AcDbSymbolTable
 70
1
  0
APPID
  5
21E
100
AcDbSymbolTableRecord
100
AcDbRegAppTableRecord
  2
ACAD
 70
0
  0
ENDTAB
  0
TABLE
  2
BLOCK_RECORD
  5
1
100
AcDbSymbolTable
 70
0
  0
BLOCK_RECORD
  5
21F
100
AcDbSymbolTableRecord
100
AcDbBlockTableRecord
  2
*Model_Space
  0
BLOCK_RECORD
  5
220
100
AcDbSymbolTableRecord
100
AcDbBlockTableRecord
  2
*Paper_Space
  0
ENDTAB
  0
TABLE
  2
DIMSTYLE
  5
A
100
AcDbSymbolTable
 70
1
100
AcDbDimStyleTable
 71
0
  0
DIMSTYLE
105
221
100
AcDbSymbolTableRecord
100
AcDbDimStyleTableRecord
  2
STANDARD
 70
0
  3

  4

 40
1.0
 41
3.0
 42
0.5
 43
0.38
 44
1.5
 45
0.0
 46
0.0
 47
0.01
 48
0.01
140
3.0
141
0.09
142
0.0
143
25.4
144
1.0
145
0.0
146
1.0
147
0.625
 71
1.0
 72
0.0
 73
0
 74
0
 75
0
 76
0
 77
1
 78
8
170
0
171
2
172
0
173
0
174
0
175
0
176
0
177
0
178
0
270
2
271
2
272
2
273
2
274
2
275
0
280
0
281
0
282
0
283
1
284
8
285
0
286
0
287
3
288
0
340
11
278
44
  0
ENDTAB
  0
ENDSEC
  0
SECTION
  2
BLOCKS
  0
BLOCK
  5
20
100
AcDbEntity
  8
0
100
AcDbBlockBegin
  2
*Model_Space
 70
0
 10
0.0
 20
0.0
 30
0.0
  3
*Model_Space
  1

  0
ENDBLK
  5
21
100
AcDbEntity
  8
0
100
AcDbBlockEnd
  0
BLOCK
  5
1C
100
AcDbEntity
  8
0
100
AcDbBlockBegin
  2
*Paper_Space
 70
0
 10
0.0
 20
0.0
 30
0.0
  3
*Paper_Space
  1

  0
ENDBLK
  5
1D
100
AcDbEntity
  8
0
100
AcDbBlockEnd
  0
ENDSEC
  0
SECTION
  2
ENTITIES
  0
LWPOLYLINE
  5
222
100
AcDbEntity
  8
0
100
AcDbPolyline
 62
7
  6
CONTINUOUS
 90
8
 70
0
 10
128.2539154415
 20
128.3992409153
 10
128.2325787297
 20
128.3778516178
 10
128.2136973604
 20
128.3536394475
 10
128.1977524472
 20
128.3269598212
 10
128.1851479992
 20
128.2982507137
 10
128.1762210515
 20
128.2681234876
 10
128.1711540477
 20
128.2372190513
 10
128.1699103247
 20
128.2119370818
  0
LINE
  5
223
100
AcDbEntity
  8
0
100
AcDbLine
 62
7
  6
CONTINUOUS
 10
127.8158819592
 20
126.9939506037
 11
128.4329776644
 21
127.608347573
  0
LINE
  5
224
100
AcDbEntity
  8
0
100
AcDbLine
 62
253
  6
CONTINUOUS
 10
128.1571511789
 20
127.0622800454
 11
128.6443355398
 21
127.5473338099
  0
LWPOLYLINE
  5
225
100
AcDbEntity
  8
RACCORDO
100
AcDbPolyline
 62
7
  6
CONTINUOUS
 90
37
 70
0
 10
125.6233973755
 20
124.5508756678
 10
125.6106463176
 20
124.5395000469
 10
125.5914535189
 20
124.5214536809
 10
125.5723956472
 20
124.5023824562
 10
125.5533944562
 20
124.4821604108
 10
125.5345516182
 20
124.4608458908
 10
125.5161240177
 20
124.4387115214
 10
125.4981016429
 20
124.4157517582
 10
125.4804700809
 20
124.3919503109
 10
125.46344167
 20
124.3676188185
 10
125.447002171
 20
124.3427853061
 10
125.4311157942
 20
124.3174398883
 10
125.4159391745
 20
124.2918931281
 10
125.4014931628
 20
124.2662676411
 10
125.387692507
 20
124.2404938399
 10
125.3745313622
 20
124.2146337958
 10
125.3620047009
 20
124.1887515672
 10
125.3500706117
 20
124.1628314315
 10
125.3386818793
 20
124.136829822
 10
125.3278253603
 20
124.1107688463
 10
125.3174871066
 20
124.0846637085
 10
125.307631848
 20
124.0584672156
 10
125.2982536136
 20
124.0321975465
 10
125.2893451451
 20
124.0058667479
 10
125.2808800295
 20
123.9794205348
 10
125.2728577449
 20
123.9528734501
 10
125.2652775402
 20
123.926236068
 10
125.2581211733
 20
123.8994477419
 10
125.2513932508
 20
123.8725183076
 10
125.2450998098
 20
123.8454596459
 10
125.2392326076
 20
123.8182111683
 10
125.2338024267
 20
123.7907813189
 10
125.2288215857
 20
123.7631820309
 10
125.2242922667
 20
123.7353513322
 10
125.2202288027
 20
123.707271008
 10
125.2166553395
 20
123.6789753652
 10
125.2143886459
 20
123.6583869986
  0
LINE
  5
226
100
AcDbEntity
  8
0
100
AcDbLine
 62
7
  6
CONTINUOUS
 10
128.2539154415
 20
128.3992409153
 11
129.368593147
 21
129.3890288585
  0
LINE
  5
227
100
AcDbEntity
  8
0
100
AcDbLine
 62
253
  6
CONTINUOUS
 10
128.4191820414
 20
128.4281751802
 11
129.5335655558
 21
129.4177018939
  0
LWPOLYLINE
  5
228
100
AcDbEntity
  8
0
100
AcDbPolyline
 62
253
  6
CONTINUOUS
 90
20
 70
0
 10
128.2539154415
 20
128.3992409153
 10
128.2552642599
 20
128.4004232955
 10
128.2621933681
 20
128.4060451427
 10
128.2694797381
 20
128.4112281189
 10
128.2771068647
 20
128.4159604835
 10
128.2850574707
 20
128.4202315166
 10
128.2933135463
 20
128.4240315435
 10
128.3018563894
 20
128.4273519561
 10
128.3106666488
 20
128.430185233
 10
128.3197243671
 20
128.4325249562
 10
128.3290090267
 20
128.4343658258
 10
128.3384995956
 20
128.4357036716
 10
128.3481745757
 20
128.4365354633
 10
128.3580120509
 20
128.4368593166
 10
128.3679897371
 20
128.4366744979
 10
128.3780850327
 20
128.4359814258
 10
128.3882750696
 20
128.4347816704
 10
128.3985367649
 20
128.4330779493
 10
128.4088468737
 20
128.4308741218
 10
128.4191820414
 20
128.4281751802
  0
LINE
  5
229
100
AcDbEntity
  8
RACCORDO
100
AcDbLine
 62
7
  6
CONTINUOUS
 10
125.6233973525
 20
124.550875694
 11
127.5194521603
 21
126.2068430483
  0
LINE
  5
22A
100
AcDbEntity
  8
0
100
AcDbLine
 62
7
  6
CONTINUOUS
 10
129.3685937887
 20
129.3890294285
 11
129.3712314238
 21
129.3913136491
  0
LWPOLYLINE
  5
22B
100
AcDbEntity
  8
RACCORDO
100
AcDbPolyline
 62
253
  6
CONTINUOUS
 90
26
 70
0
 10
125.6234218073
 20
124.5508970545
 10
125.6302746891
 20
124.5567033664
 10
125.6409010966
 20
124.5650427868
 10
125.6519065983
 20
124.5729065693
 10
125.6632777972
 20
124.5802851416
 10
125.6750008514
 20
124.5871695219
 10
125.6870614906
 20
124.5935513298
 10
125.6994450336
 20
124.5994227969
 10
125.7121364062
 20
124.604776776
 10
125.7251201592
 20
124.6096067497
 10
125.738380488
 20
124.6139068387
 10
125.7519012507
 20
124.6176718084
 10
125.7656659889
 20
124.620897076
 10
125.779657947
 20
124.6235787151
 10
125.7938600927
 20
124.6257134617
 10
125.8082551381
 20
124.6272987171
 10
125.8228255603
 20
124.6283325515
 10
125.8375536229
 20
124.6288137065
 10
125.8524213978
 20
124.6287415965
 10
125.8674107867
 20
124.6281163091
 10
125.8825035431
 20
124.6269386056
 10
125.897681295
 20
124.6252099195
 10
125.9129255668
 20
124.6229323551
 10
125.9282178017
 20
124.6201086849
 10
125.943539385
 20
124.6167423461
 10
125.9588716657
 20
124.6128374365
  0
LINE
  5
22C
100
AcDbEntity
  8
0
100
AcDbLine
 62
7
  6
CONTINUOUS
 10
129.3712320494
 20
129.3913141775
 11
129.7510469792
 21
129.7120791191
  0
LINE
  5
22D
100
AcDbEntity
  8
0
100
AcDbLine
 62
253
  6
CONTINUOUS
 10
129.5335655558
 20
129.4177018939
 11
129.9130788916
 21
129.7382121304
  0
LWPOLYLINE
  5
22E
100
AcDbEntity
  8
0
100
AcDbPolyline
 62
7
  6
CONTINUOUS
 90
19
 70
0
 10
129.3712314238
 20
129.3913136491
 10
129.3768747485
 20
129.395836352
 10
129.3841611697
 20
129.4010193645
 10
129.3917860357
 20
129.4057497032
 10
129.3997320952
 20
129.4100166709
 10
129.407981343
 20
129.4138105979
 10
129.4165150561
 20
129.4171228619
 10
129.4253139395
 20
129.4199459919
 10
129.4343580719
 20
129.4222736033
 10
129.443626899
 20
129.4241003706
 10
129.4530994749
 20
129.4254222012
 10
129.4627543686
 20
129.4262361253
 10
129.4725696129
 20
129.4265402225
 10
129.4825230383
 20
129.4263338615
 10
129.4925921401
 20
129.4256175474
 10
129.5027539868
 20
129.4243928038
 10
129.5129855632
 20
129.4226624111
 10
129.5232638225
 20
129.4204304011
 10
129.5335655558
 20
129.4177018939
  0
LINE
  5
22F
100
AcDbEntity
  8
0
100
AcDbLine
 62
253
  6
CONTINUOUS
 10
129.7510469827
 20
129.712079122
 11
129.7567078762
 21
129.716615322
  0
LWPOLYLINE
  5
230
100
AcDbEntity
  8
0
100
AcDbPolyline
 62
253
  6
CONTINUOUS
 90
18
 70
0
 10
129.7567078762
 20
129.716615322
 10
129.7639959824
 20
129.7217979435
 10
129.7716202063
 20
129.7265257584
 10
129.7795632471
 20
129.7307880484
 10
129.7878071248
 20
129.734575175
 10
129.7963332142
 20
129.7378785828
 10
129.8051222823
 20
129.7406908065
 10
129.8141543388
 20
129.7430054371
 10
129.8234087203
 20
129.7448171924
 10
129.8328643196
 20
129.7461219814
 10
129.8424998255
 20
129.7469169038
 10
129.8522935831
 20
129.7472001876
 10
129.862224896
 20
129.7469711185
 10
129.872269807
 20
129.7462301348
 10
129.8824011868
 20
129.7449795617
 10
129.8925945299
 20
129.7432231727
 10
129.9028281541
 20
129.7409654472
 10
129.9130788916
 20
129.7382121304
  0
LWPOLYLINE
  5
231
100
AcDbEntity
  8
0
100
AcDbPolyline
 62
7
  6
CONTINUOUS
 90
3
 70
0
 10
129.8004799705
 20
129.7446522874
 10
129.7737340333
 20
129.7291304651
 10
129.7509757484
 20
129.7120189221
  0
LWPOLYLINE
  5
232
100
AcDbEntity
  8
0
100
AcDbPolyline
 62
7
  6
CONTINUOUS
 90
3
 70
0
 10
129.8591255788
 20
129.7653478796
 10
129.829007176
 20
129.7567779662
 10
129.8004799705
 20
129.7446522874
  0
LINE
  5
233
100
AcDbEntity
  8
0
100
AcDbLine
 62
7
  6
CONTINUOUS
 10
131.8285365398
 20
126.9365474883
 11
131.1965040099
 21
126.3396729134
  0
LINE
  5
234
100
AcDbEntity
  8
0
100
AcDbLine
 62
253
  6
CONTINUOUS
 10
131.6120338529
 20
128.8176997786
 11
131.98397495
 21
129.1403959321
  0
LINE
  5
235
100
AcDbEntity
  8
0
100
AcDbLine
 62
253
  6
CONTINUOUS
 10
131.8285365398
 20
128.5386981493
 11
132.200477637
 21
128.8613943028
  0
LINE
  5
236
100
AcDbEntity
  8
0
100
AcDbLine
 62
7
  6
CONTINUOUS
 10
137.275993821
 20
131.6627622698
 11
132.3234981514
 21
127.3659762592
  0
LINE
  5
237
100
AcDbEntity
  8
0
100
AcDbLine
 62
253
  6
CONTINUOUS
 10
130.4749629345
 20
127.8347223542
 11
131.6120338529
 21
128.8176997786
  0
LINE
  5
238
100
AcDbEntity
  8
0
100
AcDbLine
 62
253
  6
CONTINUOUS
 10
130.6914656215
 20
127.5557207249
 11
131.8285365398
 21
128.5386981493
  0
LINE
  5
239
100
AcDbEntity
  8
ASSI
100
AcDbLine
 62
7
  6
CONTINUOUS
 10
137.0771195302
 20
131.5601981473
 11
132.2373835867
 21
127.3908353928
  0
LINE
  5
23A
100
AcDbEntity
  8
RACCORDO
100
AcDbLine
 62
7
  6
CONTINUOUS
 10
136.2424193597
 20
130.858721196
 11
135.6269536609
 21
130.3528792535
  0
LINE
  5
23B
100
AcDbEntity
  8
DRAFT
100
AcDbLine
 62
7
  6
CONTINUOUS
 10
134.1132806075
 20
129.0068936367
 11
132.1704922212
 21
127.4101452667
  0
LINE
  5
23C
100
AcDbEntity
  8
DRAFT
100
AcDbLine
 62
7
  6
CONTINUOUS
 10
135.6302734773
 20
130.420313471
 11
132.0171420496
 21
127.4544136482
  0
LINE
  5
23D
100
AcDbEntity
  8
RACCORDO
100
AcDbLine
 62
253
  6
CONTINUOUS
 10
135.6860816851
 20
130.4629843745
 11
132.0201687788
 21
127.4535399067
  0
LINE
  5
23E
100
AcDbEntity
  8
RACCORDO
100
AcDbLine
 62
7
  6
CONTINUOUS
 10
135.638657111
 20
130.4271416437
 11
135.6302734773
 21
130.420313471
  0
LINE
  5
23F
100
AcDbEntity
  8
RACCORDO
100
AcDbLine
 62
7
  6
CONTINUOUS
 10
136.2424193597
 20
130.858721196
 11
136.2636138034
 21
130.8749463113
  0
LINE
  5
240
100
AcDbEntity
  8
RACCORDO
100
AcDbLine
 62
253
  6
CONTINUOUS
 10
135.6860816851
 20
130.4629843745
 11
135.6302734773
 21
130.420313471
  0
LINE
  5
241
100
AcDbEntity
  8
RACCORDO
100
AcDbLine
 62
253
  6
CONTINUOUS
 10
135.6860816851
 20
130.4629843745
 11
135.7076038359
 21
130.4794426735
  0
LWPOLYLINE
  5
242
100
AcDbEntity
  8
RACCORDO
100
AcDbPolyline
 62
7
  6
CONTINUOUS
 90
8
 70
0
 10
135.6988062023
 20
130.473133753
 10
135.6900589232
 20
130.4667587815
 10
135.6813624994
 20
130.4603181526
 10
135.6727176504
 20
130.453812435
 10
135.6641246403
 20
130.4472418661
 10
135.6555832912
 20
130.4406063357
 10
135.6470938773
 20
130.4339060691
 10
135.638657111
 20
130.4271416437
  0
LINE
  5
243
100
AcDbEntity
  8
RACCORDO
100
AcDbLine
 62
7
  6
CONTINUOUS
 10
136.2418766222
 20
130.8594841913
 11
135.6988062023
 21
130.473133753
  0
LINE
  5
244
100
AcDbEntity
  8
RACCORDO
100
AcDbLine
 62
253
  6
CONTINUOUS
 10
136.2424193597
 20
130.858721196
 11
135.6860816851
 21
130.4629843745
  0
LINE
  5
245
100
AcDbEntity
  8
DRAFT
100
AcDbLine
 62
7
  6
CONTINUOUS
 10
135.6269536609
 20
130.3528792535
 11
135.906508124
 21
130.5517332943
  0
LINE
  5
246
100
AcDbEntity
  8
RACCORDO
100
AcDbLine
 62
7
  6
CONTINUOUS
 10
136.2636138034
 20
130.8749463113
 11
136.2850139223
 21
130.8890299834
  0
LWPOLYLINE
  5
247
100
AcDbEntity
  8
0
100
AcDbPolyline
 62
7
  6
CONTINUOUS
 90
5
 70
0
 10
138.0662419376
 20
130.8403467602
 10
138.0740825367
 20
130.8453002847
 10
138.0823729181
 20
130.8497213713
 10
138.0911074467
 20
130.8536017593
 10
138.1002750542
 20
130.8569354344
  0
LINE
  5
248
100
AcDbEntity
  8
RACCORDO
100
AcDbLine
 62
7
  6
CONTINUOUS
 10
136.2850139223
 20
130.8890299834
 11
136.3168529347
 21
130.9052394339
  0
LWPOLYLINE
  5
249
100
AcDbEntity
  8
0
100
AcDbPolyline
 62
7
  6
CONTINUOUS
 90
8
 70
0
 10
138.1002750542
 20
130.8569354344
 10
138.1098732563
 20
130.859712175
 10
138.1199101962
 20
130.8619167368
 10
138.1303738421
 20
130.8635413248
 10
138.1412623406
 20
130.8645762567
 10
138.1526033296
 20
130.8650010133
 10
138.1643804919
 20
130.8648104362
 10
138.1765979207
 20
130.8639888058
  0
LINE
  5
24A
100
AcDbEntity
  8
0
100
AcDbLine
 62
253
  6
CONTINUOUS
 10
131.8285365398
 20
127.8116532968
 11
132.200477637
 21
128.513862786
  0
LINE
  5
24B
100
AcDbEntity
  8
0
100
AcDbLine
 62
7
  6
CONTINUOUS
 10
131.8322297862
 20
127.7565055212
 11
132.2041708833
 21
128.4587150104
  0
LINE
  5
24C
100
AcDbEntity
  8
0
100
AcDbLine
 62
7
  6
CONTINUOUS
 10
134.326131804
 20
125.2814487331
 11
134.826131804
 21
125.7598479032
  0
LINE
  5
24D
100
AcDbEntity
  8
0
100
AcDbLine
 62
7
  6
CONTINUOUS
 10
134.2534076704
 20
127.6221881344
 11
133.5109652531
 21
126.9629298127
  0
LINE
  5
24E
100
AcDbEntity
  8
0
100
AcDbLine
 62
7
  6
CONTINUOUS
 10
134.326131804
 20
126.7276114989
 11
134.9255500309
 21
127.2527631146
  0
LINE
  5
24F
100
AcDbEntity
  8
0
100
AcDbLine
 62
7
  6
CONTINUOUS
 10
138.8275862369
 20
130.5957404053
 11
135.576131804
 21
127.8126624478
  0
LINE
  5
250
100
AcDbEntity
  8
0
100
AcDbLine
 62
7
  6
CONTINUOUS
 10
138.626131804
 20
129.037665114
 11
138.8496104491
 21
129.2289513534
  0
LINE
  5
251
100
AcDbEntity
  8
0
100
AcDbLine
 62
7
  6
CONTINUOUS
 10
141.0120533716
 20
130.5842547762
 11
139.4921572078
 21
129.2833017417
  0
LINE
  5
252
100
AcDbEntity
  8
0
100
AcDbLine
 62
7
  6
CONTINUOUS
 10
138.0426646724
 20
130.8223277435
 11
134.2534076704
 21
127.6221881344
  0
LWPOLYLINE
  5
253
100
AcDbEntity
  8
0
100
AcDbPolyline
 62
7
  6
CONTINUOUS
 90
7
 70
0
 10
138.8275862369
 20
130.5957404053
 10
138.8312727591
 20
130.5988482776
 10
138.8349529533
 20
130.6018574711
 10
138.8386268194
 20
130.6047679857
 10
138.8422943574
 20
130.6075798214
 10
138.8459555673
 20
130.6102929783
 10
138.8496104491
 20
130.6129074564
  0
LINE
  5
254
100
AcDbEntity
  8
RACCORDO
100
AcDbLine
 62
7
  6
CONTINUOUS
 10
138.7587457501
 20
128.0220581706
 11
138.76485654
 21
128.0266982933
  0
LINE
  5
255
100
AcDbEntity
  8
0
100
AcDbLine
 62
7
  6
CONTINUOUS
 10
138.899553702
 20
130.6489338192
 11
138.8917687756
 21
130.6431413661
  0
LINE
  5
256
100
AcDbEntity
  8
0
100
AcDbLine
 62
7
  6
CONTINUOUS
 10
138.8917687756
 20
130.6431413661
 11
138.8820317999
 21
130.6360260379
  0
LINE
  5
257
100
AcDbEntity
  8
0
100
AcDbLine
 62
7
  6
CONTINUOUS
 10
138.8820317999
 20
130.6360260379
 11
138.8704157871
 21
130.6276564809
  0
LWPOLYLINE
  5
258
100
AcDbEntity
  8
0
100
AcDbPolyline
 62
7
  6
CONTINUOUS
 90
3
 70
0
 10
138.8704157871
 20
130.6276564809
 10
138.8569804802
 20
130.6181078252
 10
138.8496104491
 20
130.6129074564
  0
LINE
  5
259
100
AcDbEntity
  8
RACCORDO
100
AcDbLine
 62
7
  6
CONTINUOUS
 10
138.8237522116
 20
128.0643873909
 11
138.7648564478
 21
128.0266982182
  0
LWPOLYLINE
  5
25A
100
AcDbEntity
  8
RACCORDO
100
AcDbPolyline
 62
7
  6
CONTINUOUS
 90
3
 70
0
 10
138.76485654
 20
128.0266982933
 10
138.7812232154
 20
128.0361918499
 10
138.7995432604
 20
128.0429106681
  0
LWPOLYLINE
  5
25B
100
AcDbEntity
  8
RACCORDO
100
AcDbPolyline
 62
7
  6
CONTINUOUS
 90
3
 70
0
 10
138.9573730356
 20
128.128854778
 10
138.8885481446
 20
128.0987024644
 10
138.8237522116
 20
128.0643873909
  0
LWPOLYLINE
  5
25C
100
AcDbEntity
  8
RACCORDO
100
AcDbPolyline
 62
7
  6
CONTINUOUS
 90
9
 70
0
 10
138.6860757121
 20
127.9569561957
 10
138.6954430117
 20
127.9603795218
 10
138.7056753338
 20
127.96312169
 10
138.7168214711
 20
127.9650933726
 10
138.7288549596
 20
127.9661852768
 10
138.7417424049
 20
127.9662640684
 10
138.7554486772
 20
127.9652211307
 10
138.769934489
 20
127.9629753329
 10
138.7851324731
 20
127.9594401342
  0
LWPOLYLINE
  5
25D
100
AcDbEntity
  8
0
100
AcDbPolyline
 62
7
  6
CONTINUOUS
 90
8
 70
0
 10
144.94571203
 20
128.8799388447
 10
144.9552934941
 20
128.8828150552
 10
144.9653169632
 20
128.8851147951
 10
144.9757705414
 20
128.8868300956
 10
144.9866517664
 20
128.8879513941
 10
144.9979862709
 20
128.8884589566
 10
145.0097561413
 20
128.8883476815
 10
145.0219662618
 20
128.8876020191
  0
LWPOLYLINE
  5
25E
100
AcDbEntity
  8
RACCORDO
100
AcDbPolyline
 62
253
  6
CONTINUOUS
 90
31
 70
0
 10
124.109742126
 20
86.1792824994
 10
124.110217694
 20
86.1728934665
 10
124.1114318742
 20
86.16314037
 10
124.1132324415
 20
86.1534385086
 10
124.1156172739
 20
86.1437993161
 10
124.1185835607
 20
86.1342341524
 10
124.1221278062
 20
86.1247542902
 10
124.1262458334
 20
86.1153709018
 10
124.1309327891
 20
86.1060950457
 10
124.1361831496
 20
86.0969376536
 10
124.1419907274
 20
86.0879095177
 10
124.148348678
 20
86.0790212778
 10
124.1552495085
 20
86.0702834089
 10
124.1626850862
 20
86.0617062087
 10
124.170646648
 20
86.0532997857
 10
124.1791248111
 20
86.0450740468
 10
124.1881095839
 20
86.0370386865
 10
124.1975903776
 20
86.0292031744
 10
124.2075560189
 20
86.0215767448
 10
124.2179947631
 20
86.0141683857
 10
124.228894308
 20
86.006986828
 10
124.2402418083
 20
86.0000405352
 10
124.2520238906
 20
85.9933376937
 10
124.2642266696
 20
85.9868862029
 10
124.2768357641
 20
85.980693666
 10
124.289836314
 20
85.9747673811
 10
124.303212998
 20
85.9691143324
 10
124.3169500513
 20
85.963741182
 10
124.3310312845
 20
85.9586542624
 10
124.3454401028
 20
85.9538595687
 10
124.3601595249
 20
85.9493627513
  0
LWPOLYLINE
  5
25F
100
AcDbEntity
  8
RACCORDO
100
AcDbPolyline
 62
7
  6
CONTINUOUS
 90
39
 70
0
 10
124.1097421513
 20
86.1792825008
 10
124.1112562265
 20
86.1559517711
 10
124.1139181873
 20
86.125967525
 10
124.1173281388
 20
86.096728271
 10
124.1214739297
 20
86.0681929902
 10
124.1263414128
 20
86.0403571838
 10
124.1319076479
 20
86.0132558464
 10
124.1381590228
 20
85.9868692807
 10
124.1450829748
 20
85.961179334
 10
124.1526484031
 20
85.9362308576
 10
124.1608351269
 20
85.9120184379
 10
124.1696284718
 20
85.8885206399
 10
124.1789932443
 20
85.865769179
 10
124.1888917998
 20
85.8437879845
 10
124.1993138877
 20
85.8225365535
 10
124.2102606278
 20
85.8019638434
 10
124.2217109429
 20
85.7820690029
 10
124.2336423853
 20
85.7628518898
 10
124.2460563762
 20
85.7442770842
 10
124.2589314414
 20
85.7263488961
 10
124.2722455287
 20
85.7090707827
 10
124.2860007919
 20
85.6924164198
 10
124.3001737816
 20
85.676394175
 10
124.3147437788
 20
85.6610078291
 10
124.3297192541
 20
85.6462324657
 10
124.3450782027
 20
85.6320766984
 10
124.3607992061
 20
85.6185471489
 10
124.3768946018
 20
85.605623176
 10
124.3933474463
 20
85.5933115045
 10
124.4101326798
 20
85.5816237633
 10
124.4272526906
 20
85.5705522899
 10
124.4446855641
 20
85.5601067512
 10
124.462410065
 20
85.5502951505
 10
124.4804310498
 20
85.5411116913
 10
124.498726173
 20
85.5325661003
 10
124.5172741828
 20
85.5246662465
 10
124.5360831055
 20
85.5174081556
 10
124.5551413638
 20
85.5107978645
 10
124.5750771593
 20
85.5046567949
  0
LWPOLYLINE
  5
260
100
AcDbEntity
  8
RACCORDO
100
AcDbPolyline
 62
253
  6
CONTINUOUS
 90
22
 70
0
 10
124.3601595247
 20
85.9493627511
 10
124.3359934934
 20
86.4064841227
 10
124.3134661895
 20
86.8653828687
 10
124.292578541
 20
87.3260413997
 10
124.2733314686
 20
87.7884420376
 10
124.2557257104
 20
88.2525670831
 10
124.2397618229
 20
88.7183988171
 10
124.225440462
 20
89.1859193947
 10
124.2127622363
 20
89.655110895
 10
124.2017275314
 20
90.1259553896
 10
124.1923368065
 20
90.5984348352
 10
124.1845904718
 20
91.0725311329
 10
124.1784887423
 20
91.5482261775
 10
124.1740318791
 20
92.0255017541
 10
124.1712200956
 20
92.504339572
 10
124.1700534357
 20
92.9847213233
 10
124.170531963
 20
93.4666286071
 10
124.1726556928
 20
93.9500429672
 10
124.1764244984
 20
94.4349459271
 10
124.1818382321
 20
94.9213189294
 10
124.1888967252
 20
95.4091433358
 10
124.1975997204
 20
95.8984004662
  0
LWPOLYLINE
  5
261
100
AcDbEntity
  8
RACCORDO
100
AcDbPolyline
 62
253
  6
CONTINUOUS
 90
32
 70
0
 10
123.9475551136
 20
96.1100639536
 10
123.9476119946
 20
96.1036698214
 10
123.948209857
 20
96.0955141345
 10
123.9493958787
 20
96.087364138
 10
123.9511686625
 20
96.0792294333
 10
123.95352612
 20
96.0711196035
 10
123.9564654738
 20
96.063044203
 10
123.9599832612
 20
96.055012745
 10
123.9640753379
 20
96.0470346914
 10
123.9687368831
 20
96.039119441
 10
123.973962405
 20
96.0312763186
 10
123.9797457477
 20
96.0235145641
 10
123.9860800978
 20
96.0158433215
 10
123.992957993
 20
96.008271628
 10
124.0003713304
 20
96.000808404
 10
124.0083113766
 20
95.9934624415
 10
124.0167687776
 20
95.9862423948
 10
124.0257335697
 20
95.9791567698
 10
124.0351951917
 20
95.9722139138
 10
124.0451424971
 20
95.9654220062
 10
124.055563767
 20
95.9587890484
 10
124.0664467244
 20
95.9523228545
 10
124.0777785482
 20
95.9460310423
 10
124.0895458885
 20
95.9399210241
 10
124.1017348825
 20
95.933999998
 10
124.1143311704
 20
95.9282749394
 10
124.1273199129
 20
95.922752593
 10
124.140685808
 20
95.9174394645
 10
124.1544131096
 20
95.9123418132
 10
124.1684856459
 20
95.9074656447
 10
124.1828868381
 20
95.9028167034
 10
124.1975997205
 20
95.8984004662
  0
LWPOLYLINE
  5
262
100
AcDbEntity
  8
RACCORDO
100
AcDbPolyline
 62
253
  6
CONTINUOUS
 90
32
 70
0
 10
124.4445418623
 20
112.9656590497
 10
124.444551301
 20
112.9576265934
 10
124.4451638748
 20
112.9499698527
 10
124.4463643021
 20
112.9423084288
 10
124.4481511687
 20
112.9346513477
 10
124.4505223695
 20
112.92700763
 10
124.453475111
 20
112.9193862806
 10
124.4570059147
 20
112.9117962782
 10
124.461110621
 20
112.9042465644
 10
124.4657843942
 20
112.8967460334
 10
124.4710217282
 20
112.8893035215
 10
124.476816453
 20
112.8819277965
 10
124.4831617419
 20
112.8746275477
 10
124.4900501196
 20
112.8674113754
 10
124.497473471
 20
112.8602877809
 10
124.5054230508
 20
112.8532651563
 10
124.5138894938
 20
112.8463517749
 10
124.5228628257
 20
112.8395557812
 10
124.5323324752
 20
112.8328851814
 10
124.5422872863
 20
112.8263478342
 10
124.5527155314
 20
112.8199514411
 10
124.563604925
 20
112.8137035375
 10
124.5749426387
 20
112.8076114839
 10
124.5867153155
 20
112.8016824575
 10
124.5989090864
 20
112.7959234429
 10
124.611509586
 20
112.7903412249
 10
124.6245019699
 20
112.7849423798
 10
124.637870932
 20
112.7797332678
 10
124.6516007224
 20
112.7747200258
 10
124.6656751664
 20
112.7699085597
 10
124.680077683
 20
112.7653045378
 10
124.694791305
 20
112.7609133842
  0
LWPOLYLINE
  5
263
100
AcDbEntity
  8
RACCORDO
100
AcDbPolyline
 62
7
  6
CONTINUOUS
 90
19
 70
0
 10
123.9475551138
 20
96.1100639561
 10
123.9376895583
 20
95.5475725523
 10
123.9299114532
 20
94.979222786
 10
123.9243730611
 20
94.4128294727
 10
123.9210749769
 20
93.8484242991
 10
123.9200175774
 20
93.2860351975
 10
123.9212012137
 20
92.7256890956
 10
123.9246260786
 20
92.1674146473
 10
123.9302922968
 20
91.6112416553
 10
123.9381998969
 20
91.0571990928
 10
123.9483487298
 20
90.5053156302
 10
123.9607386127
 20
89.9556199046
 10
123.975369183
 20
89.4081404701
 10
123.9922399568
 20
88.8629065309
 10
124.0113504228
 20
88.3199460238
 10
124.0326999776
 20
87.7792847974
 10
124.0562879604
 20
87.2409496736
 10
124.0821133769
 20
86.7049707788
 10
124.1097420384
 20
86.1792841
  0
LWPOLYLINE
  5
264
100
AcDbEntity
  8
RACCORDO
100
AcDbPolyline
 62
253
  6
CONTINUOUS
 90
16
 70
0
 10
124.1975997204
 20
95.8984004662
 10
124.220035041
 20
97.013616042
 10
124.2440012637
 20
98.130141631
 10
124.2694982375
 20
99.247970066
 10
124.2965258026
 20
100.3670941707
 10
124.3250837858
 20
101.4875067621
 10
124.3551720012
 20
102.6092006507
 10
124.3867902551
 20
103.7321686376
 10
124.4199383465
 20
104.8564035138
 10
124.4546160626
 20
105.9818980624
 10
124.4908231788
 20
107.1086450595
 10
124.5285594634
 20
108.2366372732
 10
124.5678246769
 20
109.365867464
 10
124.6086185668
 20
110.4963283841
 10
124.6509408676
 20
111.6280127784
 10
124.6947913047
 20
112.760913384
  0
LWPOLYLINE
  5
265
100
AcDbEntity
  8
RACCORDO
100
AcDbPolyline
 62
7
  6
CONTINUOUS
 90
13
 70
0
 10
124.4445418621
 20
112.9656590512
 10
124.3902379652
 20
111.5568600302
 10
124.3380135299
 20
110.1420442056
 10
124.2881808032
 20
108.7291442464
 10
124.2407403257
 20
107.3181749924
 10
124.1956925631
 20
105.9091499451
 10
124.153037964
 20
104.5020825121
 10
124.1127769743
 20
103.0969870242
 10
124.0749100307
 20
101.6938778063
 10
124.0394375114
 20
100.2927682089
 10
124.0063597822
 20
98.8936716501
 10
123.975677211
 20
97.4966028239
 10
123.9475551136
 20
96.1100639536
  0
LWPOLYLINE
  5
266
100
AcDbEntity
  8
RACCORDO
100
AcDbPolyline
 62
253
  6
CONTINUOUS
 90
22
 70
0
 10
124.6947913048
 20
112.760913384
 10
124.7152253873
 20
113.2598555036
 10
124.7372994332
 20
113.7600764103
 10
124.7610125843
 20
114.2615569579
 10
124.7863638939
 20
114.764277953
 10
124.8133523952
 20
115.2682201551
 10
124.8419771015
 20
115.7733642777
 10
124.8722368835
 20
116.2796909962
 10
124.9041305637
 20
116.7871809285
 10
124.9376569849
 20
117.2958146351
 10
124.9728148208
 20
117.8055726508
 10
125.0096026979
 20
118.3164354743
 10
125.0480192912
 20
118.8283835497
 10
125.0880630791
 20
119.3413972992
 10
125.1297324919
 20
119.855457088
 10
125.1730260343
 20
120.3705432152
 10
125.2179419883
 20
120.8866359757
 10
125.2644785897
 20
121.4037156289
 10
125.3126341757
 20
121.9217623653
 10
125.3624069017
 20
122.4407563599
 10
125.4137947406
 20
122.9606777728
 10
125.4667956597
 20
123.4815067191
  0
LWPOLYLINE
  5
267
100
AcDbEntity
  8
RACCORDO
100
AcDbPolyline
 62
253
  6
CONTINUOUS
 90
33
 70
0
 10
125.2143886459
 20
123.6583869986
 10
125.2141025629
 20
123.6538658351
 10
125.2142575322
 20
123.6480184246
 10
125.2149988031
 20
123.6421227493
 10
125.2163255019
 20
123.6361857574
 10
125.2182360651
 20
123.6302144457
 10
125.2207282411
 20
123.6242158514
 10
125.2237990929
 20
123.6181970441
 10
125.2274450013
 20
123.6121651171
 10
125.2316616696
 20
123.606127179
 10
125.2364441283
 20
123.6000903458
 10
125.2417867413
 20
123.5940617318
 10
125.2476832121
 20
123.588048442
 10
125.2541265918
 20
123.5820575632
 10
125.2611092865
 20
123.5760961557
 10
125.2686230671
 20
123.5701712451
 10
125.2766590785
 20
123.564289814
 10
125.2852078501
 20
123.5584587939
 10
125.2942593069
 20
123.5526850567
 10
125.3038027817
 20
123.5469754068
 10
125.3138270272
 20
123.5413365732
 10
125.3243202298
 20
123.5357752014
 10
125.335270023
 20
123.5302978455
 10
125.3466635023
 20
123.5249109607
 10
125.3584872401
 20
123.5196208956
 10
125.3707273021
 20
123.5144338846
 10
125.3833692631
 20
123.5093560407
 10
125.3963982243
 20
123.5043933482
 10
125.4097988307
 20
123.4995516557
 10
125.4235552897
 20
123.4948366693
 10
125.4376513888
 20
123.4902539457
 10
125.4520705155
 20
123.4858088857
 10
125.4667956768
 20
123.4815067279
  0
LWPOLYLINE
  5
268
100
AcDbEntity
  8
RACCORDO
100
AcDbPolyline
 62
7
  6
CONTINUOUS
 90
19
 70
0
 10
125.2143892051
 20
123.6583925456
 10
125.1536291532
 20
123.0598893139
 10
125.0942089804
 20
122.4543309231
 10
125.0369863781
 20
121.850026373
 10
124.9819646996
 20
121.2470093792
 10
124.9291467656
 20
120.6453098414
 10
124.8785352898
 20
120.0449567254
 10
124.8301329835
 20
119.4459807112
 10
124.7839426019
 20
118.8484137442
 10
124.7399667514
 20
118.2522871307
 10
124.6982078308
 20
117.6576317028
 10
124.6586682049
 20
117.0644782742
 10
124.6213500813
 20
116.4728578738
 10
124.5862556001
 20
115.882802032
 10
124.5533867591
 20
115.294340943
 10
124.5227452913
 20
114.7075028608
 10
124.4943329551
 20
114.1223169321
 10
124.4681515021
 20
113.5388157874
 10
124.4445418623
 20
112.9656590497
  0
LWPOLYLINE
  5
269
100
AcDbEntity
  8
RACCORDO
100
AcDbPolyline
 62
253
  6
CONTINUOUS
 90
52
 70
0
 10
125.4667956597
 20
123.4815067191
 10
125.469664156
 20
123.507201956
 10
125.472889025
 20
123.5330681324
 10
125.4764677971
 20
123.5590858876
 10
125.4803976441
 20
123.5852355993
 10
125.4846756398
 20
123.6114978491
 10
125.4892987853
 20
123.6378534431
 10
125.4942635892
 20
123.6642829242
 10
125.4995662468
 20
123.6907662716
 10
125.5052029078
 20
123.7172833703
 10
125.5111692308
 20
123.7438143158
 10
125.5174606888
 20
123.7703393412
 10
125.5240727646
 20
123.7968385232
 10
125.5310003715
 20
123.8232919998
 10
125.5382382434
 20
123.8496800433
 10
125.5457812369
 20
123.8759829842
 10
125.5536235998
 20
123.9021812517
 10
125.5617593305
 20
123.9282551689
 10
125.5701825683
 20
123.9541850263
 10
125.5788868416
 20
123.9799514085
 10
125.5878655211
 20
124.0055350972
 10
125.5971121836
 20
124.030916865
 10
125.60661975
 20
124.0560777734
 10
125.6163809526
 20
124.0809989965
 10
125.6263887842
 20
124.105661727
 10
125.6366355507
 20
124.1300474966
 10
125.6471134432
 20
124.1541381399
 10
125.6578150085
 20
124.177915614
 10
125.6687320685
 20
124.2013622112
 10
125.6798562586
 20
124.2244603674
 10
125.6911795993
 20
124.2471926259
 10
125.7026934023
 20
124.2695419997
 10
125.714388873
 20
124.2914918195
 10
125.726257652
 20
124.3130255378
 10
125.7382906632
 20
124.3341271195
 10
125.7504786829
 20
124.3547807768
 10
125.7628129383
 20
124.3749708253
 10
125.7752839328
 20
124.3946821456
 10
125.787882163
 20
124.4139001038
 10
125.800598689
 20
124.432610281
 10
125.8134237904
 20
124.4507987566
 10
125.8263476264
 20
124.4684519298
 10
125.8393609524
 20
124.4855564409
 10
125.8524538324
 20
124.5020995918
 10
125.8656162053
 20
124.5180689954
 10
125.878838545
 20
124.5334524074
 10
125.8921106002
 20
124.5482382504
 10
125.9054223208
 20
124.5624156729
 10
125.9187644251
 20
124.5759741752
 10
125.9321269973
 20
124.5889036575
 10
125.9454994932
 20
124.6011944647
 10
127.8523499865
 20
126.2665545485
  0
LWPOLYLINE
  5
26A
100
AcDbEntity
  8
0
100
AcDbPolyline
 62
253
  6
CONTINUOUS
 90
32
 70
0
 10
130.6914656215
 20
127.2157467907
 10
130.6882239357
 20
127.2043509213
 10
130.6845025738
 20
127.1931232496
 10
130.6803099345
 20
127.1820891156
 10
130.6756554805
 20
127.1712734228
 10
130.6705497165
 20
127.1607005816
 10
130.665004166
 20
127.1503944543
 10
130.6590313449
 20
127.1403783011
 10
130.6526447337
 20
127.130674728
 10
130.6458587463
 20
127.1213056353
 10
130.6386886985
 20
127.1122921686
 10
130.6311507726
 20
127.1036546706
 10
130.6232619813
 20
127.0954126357
 10
130.615040129
 20
127.0875846658
 10
130.6065037721
 20
127.080188428
 10
130.5976721766
 20
127.0732406152
 10
130.5885652748
 20
127.0667569083
 10
130.5792036206
 20
127.0607519405
 10
130.5696083425
 20
127.0552392648
 10
130.5598010967
 20
127.0502313229
 10
130.5498040174
 20
127.0457394175
 10
130.5396396675
 20
127.0417736865
 10
130.5293309873
 20
127.0383430803
 10
130.5189012429
 20
127.0354553416
 10
130.5083739737
 20
127.0331169879
 10
130.4977729389
 20
127.0313332967
 10
130.4871220647
 20
127.0301082936
 10
130.4764453892
 20
127.0294447435
 10
130.4657670093
 20
127.029344144
 10
130.4551110253
 20
127.029806722
 10
130.4445014871
 20
127.0308314335
 10
130.4421175488
 20
127.031140016
  0
LWPOLYLINE
  5
26B
100
AcDbEntity
  8
0
100
AcDbPolyline
 62
7
  6
CONTINUOUS
 90
4
 70
0
 10
132.2041708833
 20
128.4587150104
 10
132.2168177181
 20
128.4865972864
 10
132.2259182866
 20
128.5156407086
 10
132.2314086392
 20
128.545463724
  0
LINE
  5
26C
100
AcDbEntity
  8
0
100
AcDbLine
 62
7
  6
CONTINUOUS
 10
137.2411953135
 20
125.3740474883
 11
137.0911953135
 21
125.2305277373
  0
LINE
  5
26D
100
AcDbEntity
  8
0
100
AcDbLine
 62
253
  6
CONTINUOUS
 10
138.9906549977
 20
126.0729590215
 11
138.9958694287
 21
126.0777631146
  0
LINE
  5
26E
100
AcDbEntity
  8
0
100
AcDbLine
 62
253
  6
CONTINUOUS
 10
136.9174084596
 20
126.6777631146
 11
137.0679902327
 21
126.8096881344
  0
LINE
  5
26F
100
AcDbEntity
  8
0
100
AcDbLine
 62
253
  6
CONTINUOUS
 10
137.0911953135
 20
126.4550647953
 11
137.2411953135
 21
126.5864801224
  0
LINE
  5
270
100
AcDbEntity
  8
0
100
AcDbLine
 62
7
  6
CONTINUOUS
 10
139.0150345723
 20
126.1872445819
 11
138.8646563989
 21
126.0554979363
  0
LINE
  5
271
100
AcDbEntity
  8
0
100
AcDbLine
 62
253
  6
CONTINUOUS
 10
139.1464512018
 20
126.2096881344
 11
138.9958694287
 21
126.0777631146
  0
LINE
  5
272
100
AcDbEntity
  8
0
100
AcDbLine
 62
7
  6
CONTINUOUS
 10
139.4921572078
 20
128.7172198891
 11
140.2727796672
 21
129.3932587696
  0
LINE
  5
273
100
AcDbEntity
  8
0
100
AcDbLine
 62
7
  6
CONTINUOUS
 10
139.0160147836
 20
126.1880934286
 11
139.0150353565
 21
126.187245269
  0
LINE
  5
274
100
AcDbEntity
  8
0
100
AcDbLine
 62
7
  6
CONTINUOUS
 10
137.7411953135
 20
125.8025256503
 11
137.2411953135
 21
125.3740474883
  0
LINE
  5
275
100
AcDbEntity
  8
0
100
AcDbLine
 62
253
  6
CONTINUOUS
 10
137.0679902327
 20
126.8096881344
 11
137.5679902327
 21
127.2376624478
  0
LINE
  5
276
100
AcDbEntity
  8
0
100
AcDbLine
 62
253
  6
CONTINUOUS
 10
137.2411953135
 20
126.5864801224
 11
137.7411953135
 21
127.0144544359
  0
LINE
  5
277
100
AcDbEntity
  8
0
100
AcDbLine
 62
7
  6
CONTINUOUS
 10
139.5160159373
 20
126.6160687297
 11
139.0160156113
 21
126.1880941372
  0
LINE
  5
278
100
AcDbEntity
  8
0
100
AcDbLine
 62
253
  6
CONTINUOUS
 10
139.6464512018
 20
126.6376624478
 11
139.1464512018
 21
126.2096881344
  0
LINE
  5
279
100
AcDbEntity
  8
RACCORDO
100
AcDbLine
 62
7
  6
CONTINUOUS
 10
138.7587219409
 20
128.0220387073
 11
138.6604397799
 21
127.941696192
  0
LINE
  5
27A
100
AcDbEntity
  8
RACCORDO
100
AcDbLine
 62
253
  6
CONTINUOUS
 10
138.883511502
 20
128.0389692304
 11
138.7859394262
 21
127.9592071869
  0
LWPOLYLINE
  5
27B
100
AcDbEntity
  8
RACCORDO
100
AcDbPolyline
 62
7
  6
CONTINUOUS
 90
5
 70
0
 10
138.6602373059
 20
127.9415295992
 10
138.6625330161
 20
127.943359273
 10
138.6696420274
 20
127.948375197
 10
138.6774901134
 20
127.9529345807
 10
138.6860757121
 20
127.9569561957
  0
LWPOLYLINE
  5
27C
100
AcDbEntity
  8
RACCORDO
100
AcDbPolyline
 62
253
  6
CONTINUOUS
 90
9
 70
0
 10
139.6580871737
 20
128.1986405628
 10
139.6645165142
 20
128.2037527558
 10
139.6709219642
 20
128.2081274863
 10
139.6772768188
 20
128.2117443631
 10
139.6835567669
 20
128.214586968
 10
139.6897329659
 20
128.2166396267
 10
139.6957726112
 20
128.2178904529
 10
139.7016534948
 20
128.2183345407
 10
139.7073479841
 20
128.2179694887
  0
LINE
  5
27D
100
AcDbEntity
  8
RACCORDO
100
AcDbLine
 62
7
  6
CONTINUOUS
 10
138.7964512018
 20
125.8380838917
 11
138.4751004278
 21
125.5906654927
  0
LWPOLYLINE
  5
27E
100
AcDbEntity
  8
0
100
AcDbPolyline
 62
7
  6
CONTINUOUS
 90
5
 70
0
 10
144.9117882756
 20
128.8629074564
 10
144.9195948018
 20
128.86797823
 10
144.9278557053
 20
128.872512248
 10
144.9365651512
 20
128.8765011768
 10
144.94571203
 20
128.8799388447
  0
LWPOLYLINE
  5
27F
100
AcDbEntity
  8
RACCORDO
100
AcDbPolyline
 62
253
  6
CONTINUOUS
 90
10
 70
0
 10
149.4454010178
 20
132.2202101423
 10
149.4954798675
 20
132.2516343694
 10
149.5492848213
 20
132.2773447967
 10
149.6064065496
 20
132.2971458281
 10
149.66641049
 20
132.3108868242
 10
149.7288401533
 20
132.3184632483
 10
149.7932205962
 20
132.3198174616
 10
149.8590620345
 20
132.3149391616
 10
149.9258635693
 20
132.3038654609
 10
149.9931169976
 20
132.2866806042
  0
LINE
  5
280
100
AcDbEntity
  8
0
100
AcDbLine
 62
253
  6
CONTINUOUS
 10
166.754891248
 20
77.2392586466
 11
166.3829501508
 21
77.2885035903
  0
LINE
  5
281
100
AcDbEntity
  8
0
100
AcDbLine
 62
253
  6
CONTINUOUS
 10
166.6001613446
 20
77.5427543888
 11
166.432967324
 21
77.5648908512
  0
LWPOLYLINE
  5
282
100
AcDbEntity
  8
0
100
AcDbPolyline
 62
7
  6
CONTINUOUS
 90
7
 70
0
 10
165.7509176209
 20
76.8727008958
 10
165.7467967107
 20
76.8732695651
 10
165.7424506396
 20
76.873911486
 10
165.7378794605
 20
76.8746228626
 10
165.7330814837
 20
76.8753956828
 10
165.7280593209
 20
76.8762299143
 10
165.7228198132
 20
76.8771335228
  0
LINE
  5
283
100
AcDbEntity
  8
0
100
AcDbLine
 62
7
  6
CONTINUOUS
 10
165.7228198132
 20
76.8771335228
 11
165.711693256
 21
76.8791308244
  0
LWPOLYLINE
  5
284
100
AcDbEntity
  8
0
100
AcDbPolyline
 62
7
  6
CONTINUOUS
 90
3
 70
0
 10
165.711693256
 20
76.8791308244
 10
165.6997320841
 20
76.881389605
 10
165.6934456946
 20
76.8826097731
  0
LWPOLYLINE
  5
285
100
AcDbEntity
  8
0
100
AcDbPolyline
 62
7
  6
CONTINUOUS
 90
3
 70
0
 10
165.6934456946
 20
76.8826097731
 10
165.6802918707
 20
76.8852465514
 10
165.6734301709
 20
76.8866526411
  0
LWPOLYLINE
  5
286
100
AcDbEntity
  8
0
100
AcDbPolyline
 62
7
  6
CONTINUOUS
 90
19
 70
0
 10
164.9607662374
 20
75.4241052167
 10
164.9738168017
 20
75.4207162977
 10
164.9871299535
 20
75.4180186405
 10
165.0006657511
 20
75.4160366903
 10
165.0144078946
 20
75.4147906547
 10
165.0282859793
 20
75.4143040562
 10
165.0421795191
 20
75.4145892656
 10
165.0560364247
 20
75.4156460913
 10
165.0698253466
 20
75.4174732272
 10
165.0834654965
 20
75.4200587828
 10
165.0969182193
 20
75.423391183
 10
165.1101536433
 20
75.4274599156
 10
165.1231148465
 20
75.4322437076
 10
165.1357842462
 20
75.4377325887
 10
165.1481264705
 20
75.4439099699
 10
165.1600702693
 20
75.4507354963
 10
165.1716011055
 20
75.4581943137
 10
165.1826982043
 20
75.4662698328
 10
165.1914083539
 20
75.473297896
  0
LWPOLYLINE
  5
287
100
AcDbEntity
  8
RACCORDO
100
AcDbPolyline
 62
7
  6
CONTINUOUS
 90
30
 70
0
 10
161.8833344096
 20
74.7346906116
 10
161.9000272081
 20
74.730129796
 10
161.9184412591
 20
74.7256888949
 10
161.9370013476
 20
74.7218251678
 10
161.9556939789
 20
74.7185424037
 10
161.9745149974
 20
74.7158429984
 10
161.9934472177
 20
74.7137315852
 10
162.0124716038
 20
74.7122122461
 10
162.0315817694
 20
74.7112877277
 10
162.0507578197
 20
74.7109613237
 10
162.0699834191
 20
74.7112353806
 10
162.0892582595
 20
74.7121126726
 10
162.108558072
 20
74.7135952069
 10
162.1278715672
 20
74.7156850321
 10
162.1472187647
 20
74.718388974
 10
162.166580711
 20
74.7217104288
 10
162.185941355
 20
74.7256525074
 10
162.205325781
 20
74.7302281413
 10
162.2247186319
 20
74.7354435633
 10
162.2441003611
 20
74.7413030381
 10
162.2634906969
 20
74.7478235194
 10
162.2828760518
 20
74.7550134409
 10
162.3022356014
 20
74.7628780696
 10
162.3215802068
 20
74.7714359516
 10
162.3408951135
 20
74.7806960213
 10
162.3601630574
 20
74.7906655506
 10
162.3793944938
 20
74.8013670859
 10
162.3985838784
 20
74.8128166685
 10
162.4177071462
 20
74.8250190397
 10
162.4292306714
 20
74.8327657236
  0
LWPOLYLINE
  5
288
100
AcDbEntity
  8
0
100
AcDbPolyline
 62
253
  6
CONTINUOUS
 90
34
 70
0
 10
164.9051037619
 20
75.556044272
 10
164.9154910682
 20
75.5532074722
 10
164.9261397785
 20
75.5506186344
 10
164.9370263135
 20
75.5482838829
 10
164.9481280726
 20
75.5462085123
 10
164.9594188452
 20
75.5443978618
 10
164.9708686242
 20
75.5428569286
 10
164.9824499605
 20
75.5415893434
 10
164.9941384629
 20
75.5405977129
 10
165.0059080512
 20
75.5398842572
 10
165.0177324084
 20
75.5394505916
 10
165.0295847953
 20
75.5392977168
 10
165.0414383151
 20
75.5394259856
 10
165.0532662025
 20
75.5398351024
 10
165.0650419613
 20
75.5405241443
 10
165.0767391824
 20
75.5414915665
 10
165.0883315878
 20
75.5427351997
 10
165.0997930719
 20
75.5442522475
 10
165.1110978354
 20
75.5460392975
 10
165.1222204465
 20
75.5480923309
 10
165.1331358926
 20
75.5504067322
 10
165.1438196186
 20
75.5529772966
 10
165.1542475953
 20
75.5557982439
 10
165.1643963655
 20
75.5588632302
 10
165.1742430942
 20
75.5621653603
 10
165.1837656319
 20
75.5656972069
 10
165.1929425614
 20
75.5694508273
 10
165.2017532386
 20
75.5734177781
 10
165.2101778501
 20
75.5775891394
 10
165.2181974424
 20
75.5819555271
 10
165.2257939634
 20
75.5865071122
 10
165.2329503248
 20
75.5912336535
 10
165.2396504371
 20
75.5961245222
 10
165.2458792325
 20
75.6011687172
  0
LINE
  5
289
100
AcDbEntity
  8
RACCORDO
100
AcDbLine
 62
7
  6
CONTINUOUS
 10
161.8833534898
 20
74.734685042
 11
124.5750501342
 21
85.5046645347
  0
LINE
  5
28A
100
AcDbEntity
  8
RACCORDO
100
AcDbLine
 62
253
  6
CONTINUOUS
 10
161.6576042693
 20
75.1825178694
 11
124.3601595247
 21
85.9493627511
  0
LWPOLYLINE
  5
28B
100
AcDbEntity
  8
RACCORDO
100
AcDbPolyline
 62
253
  6
CONTINUOUS
 90
33
 70
0
 10
124.5702138789
 20
85.5061548913
 10
124.5598613564
 20
85.5097959023
 10
124.5491410594
 20
85.5143586968
 10
124.5386435508
 20
85.5196349854
 10
124.5283768998
 20
85.5256207493
 10
124.5183484426
 20
85.5323115922
 10
124.5085658761
 20
85.5397024277
 10
124.4990366912
 20
85.5477876693
 10
124.4897676344
 20
85.5565613905
 10
124.4807657848
 20
85.5660169943
 10
124.4720380806
 20
85.5761473296
 10
124.4635907521
 20
85.5869448794
 10
124.4554302717
 20
85.5984015015
 10
124.4475629062
 20
85.6105085726
 10
124.4399942469
 20
85.6232571145
 10
124.4327300743
 20
85.6366375621
 10
124.4257759906
 20
85.6506398281
 10
124.4191369665
 20
85.6652534369
 10
124.4128180978
 20
85.6804673511
 10
124.4068242241
 20
85.6962701752
 10
124.4011595653
 20
85.7126502282
 10
124.3958284455
 20
85.7295952498
 10
124.3908349883
 20
85.7470924854
 10
124.3861827369
 20
85.7651288909
 10
124.3818752374
 20
85.7836909963
 10
124.3779158334
 20
85.8027648171
 10
124.3743073581
 20
85.8223359361
 10
124.3710525873
 20
85.8423894812
 10
124.3681540003
 20
85.8629105769
 10
124.3656135908
 20
85.883884275
 10
124.3634332533
 20
85.9052950189
 10
124.3616147593
 20
85.9271266272
 10
124.3601595247
 20
85.9493627511
  0
LINE
  5
28C
100
AcDbEntity
  8
RACCORDO
100
AcDbLine
 62
7
  6
CONTINUOUS
 10
138.6421654973
 20
127.9220592873
 11
137.7411953135
 21
126.6479387431
  0
LINE
  5
28D
100
AcDbEntity
  8
RACCORDO
100
AcDbLine
 62
253
  6
CONTINUOUS
 10
138.7851324731
 20
127.9594401342
 11
137.7411953135
 21
126.4831406897
  0
LWPOLYLINE
  5
28E
100
AcDbEntity
  8
RACCORDO
100
AcDbPolyline
 62
253
  6
CONTINUOUS
 90
16
 70
0
 10
139.2787572979
 20
127.0743455491
 10
139.2970791424
 20
127.1000095362
 10
139.3178440363
 20
127.124109926
 10
139.3408037398
 20
127.1465340877
 10
139.3656986192
 20
127.1672973587
 10
139.3922384731
 20
127.1862027024
 10
139.4201011175
 20
127.2028453752
 10
139.4489771346
 20
127.2171422726
 10
139.4785566213
 20
127.2290994294
 10
139.5085049743
 20
127.2384774421
 10
139.5384594216
 20
127.2452424409
 10
139.5681730283
 20
127.2494596267
 10
139.5974912425
 20
127.2510438935
 10
139.6261701346
 20
127.2499819695
 10
139.6538827359
 20
127.2463549342
 10
139.6803584683
 20
127.2402196364
  0
LWPOLYLINE
  5
28F
100
AcDbEntity
  8
RACCORDO
100
AcDbPolyline
 62
7
  6
CONTINUOUS
 90
5
 70
0
 10
138.6421448528
 20
127.92203005
 10
138.6454782756
 20
127.9264886704
 10
138.6504946305
 20
127.9323486628
 10
138.6561511259
 20
127.9379809868
 10
138.6602373059
 20
127.9415295992
  0
LINE
  5
290
100
AcDbEntity
  8
RACCORDO
100
AcDbLine
 62
253
  6
CONTINUOUS
 10
137.8572588807
 20
125.7690209845
 11
139.0834594487
 21
127.271433967
  0
LINE
  5
291
100
AcDbEntity
  8
RACCORDO
100
AcDbLine
 62
253
  6
CONTINUOUS
 10
138.1455005406
 20
125.6858127845
 11
139.2787572979
 21
127.0743455491
  0
LWPOLYLINE
  5
292
100
AcDbEntity
  8
RACCORDO
100
AcDbPolyline
 62
253
  6
CONTINUOUS
 90
16
 70
0
 10
139.0834594487
 20
127.271433967
 10
139.1146862776
 20
127.3057462958
 10
139.1491212706
 20
127.3374665477
 10
139.1867644279
 20
127.3665947227
 10
139.228122576
 20
127.3933571211
 10
139.2726888883
 20
127.4175274426
 10
139.3189428847
 20
127.438426787
 10
139.3669040968
 20
127.4559269986
 10
139.4165529931
 20
127.4701562329
 10
139.4663104988
 20
127.480820057
 10
139.5160644577
 20
127.4878163942
 10
139.5659270262
 20
127.4912473212
 10
139.6146555985
 20
127.4911246347
 10
139.6618359727
 20
127.4874522669
 10
139.7078823508
 20
127.4802262858
 10
139.7527947327
 20
127.4694466912
  0
LWPOLYLINE
  5
293
100
AcDbEntity
  8
RACCORDO
100
AcDbPolyline
 62
253
  6
CONTINUOUS
 90
16
 70
0
 10
141.5083305793
 20
126.571433967
 10
141.5395574082
 20
126.6057462958
 10
141.5739924012
 20
126.6374665477
 10
141.6116355585
 20
126.6665947227
 10
141.6529937066
 20
126.6933571211
 10
141.6975600189
 20
126.7175274426
 10
141.7438140153
 20
126.738426787
 10
141.7917752274
 20
126.7559269986
 10
141.8414241237
 20
126.7701562329
 10
141.8911816294
 20
126.780820057
 10
141.9409355883
 20
126.7878163942
 10
141.9907981568
 20
126.7912473212
 10
142.0395267291
 20
126.7911246347
 10
142.0867071033
 20
126.7874522669
 10
142.1327534814
 20
126.7802262858
 10
142.1776658633
 20
126.7694466912
  0
LINE
  5
294
100
AcDbEntity
  8
0
100
AcDbLine
 62
7
  6
CONTINUOUS
 10
140.9877278574
 20
125.5027631146
 11
140.3883096305
 21
124.9776114989
  0
LINE
  5
295
100
AcDbEntity
  8
0
100
AcDbLine
 62
7
  6
CONTINUOUS
 10
145.6746856279
 20
128.619153067
 11
141.9610337641
 21
125.3971881344
  0
LINE
  5
296
100
AcDbEntity
  8
0
100
AcDbLine
 62
7
  6
CONTINUOUS
 10
141.9610337641
 20
125.3971881344
 11
141.2034761815
 21
124.7422931851
  0
LINE
  5
297
100
AcDbEntity
  8
0
100
AcDbLine
 62
7
  6
CONTINUOUS
 10
144.8897640634
 20
128.8457404053
 11
141.6383096305
 21
126.0626624478
  0
LINE
  5
298
100
AcDbEntity
  8
0
100
AcDbLine
 62
7
  6
CONTINUOUS
 10
145.7487060668
 20
128.6909466153
 11
146.2082057943
 21
129.0842547762
  0
LWPOLYLINE
  5
299
100
AcDbEntity
  8
0
100
AcDbPolyline
 62
7
  6
CONTINUOUS
 90
7
 70
0
 10
144.8897640634
 20
128.8457404053
 10
144.8934505856
 20
128.8488482776
 10
144.8971307798
 20
128.8518574711
 10
144.9008046459
 20
128.8547679857
 10
144.9044721839
 20
128.8575798214
 10
144.9081333938
 20
128.8602929783
 10
144.9117882756
 20
128.8629074564
  0
LWPOLYLINE
  5
29A
100
AcDbEntity
  8
0
100
AcDbPolyline
 62
7
  6
CONTINUOUS
 90
18
 70
0
 10
146.2082057943
 20
129.0842547762
 10
146.2256202617
 20
129.0986326213
 10
146.2429705418
 20
129.1119140637
 10
146.2602566346
 20
129.1240991034
 10
146.2775014716
 20
129.1352008897
 10
146.2946821212
 20
129.1452062733
 10
146.3117297889
 20
129.1540758058
 10
146.3286384496
 20
129.1618031205
 10
146.3454141284
 20
129.1683945841
 10
146.3620061049
 20
129.1738298495
 10
146.3784211744
 20
129.1781065561
 10
146.3946525417
 20
129.1812270643
 10
146.4106291011
 20
129.1831781088
 10
146.4263411506
 20
129.1839550226
 10
146.4417983923
 20
129.1835624725
 10
146.4569588267
 20
129.182001194
 10
146.4718309387
 20
129.1792653278
 10
146.482650167
 20
129.1764869952
  0
LINE
  5
29B
100
AcDbEntity
  8
RACCORDO
100
AcDbLine
 62
7
  6
CONTINUOUS
 10
149.4218430607
 20
132.2023994599
 11
145.2263727843
 21
128.834301529
  0
LINE
  5
29C
100
AcDbEntity
  8
RACCORDO
100
AcDbLine
 62
253
  6
CONTINUOUS
 10
149.9931169976
 20
132.2866806042
 11
145.7565754222
 21
128.885610885
  0
LWPOLYLINE
  5
29D
100
AcDbEntity
  8
RACCORDO
100
AcDbPolyline
 62
253
  6
CONTINUOUS
 90
8
 70
0
 10
149.9931169976
 20
132.2866806042
 10
150.0313052904
 20
132.315780951
 10
150.0692911184
 20
132.3390592431
 10
150.1067931236
 20
132.3562837817
 10
150.1435527239
 20
132.3672694833
 10
150.1792625001
 20
132.3718562927
 10
150.2135770743
 20
132.3699541224
 10
150.2347758007
 20
132.3652966913
  0
LINE
  5
29E
100
AcDbEntity
  8
RACCORDO
100
AcDbLine
 62
253
  6
CONTINUOUS
 10
149.4218430607
 20
132.2023994599
 11
149.4454010178
 21
132.2202101423
  0
LINE
  5
29F
100
AcDbEntity
  8
0
100
AcDbLine
 62
7
  6
CONTINUOUS
 10
145.74685608
 20
128.6727375697
 11
145.739238589
 21
128.6670618434
  0
LWPOLYLINE
  5
2A0
100
AcDbEntity
  8
RACCORDO
100
AcDbPolyline
 62
7
  6
CONTINUOUS
 90
13
 70
0
 10
149.4218430607
 20
132.2023994599
 10
149.4817835726
 20
132.2465693478
 10
149.5457868894
 20
132.2859794151
 10
149.6133812946
 20
132.3201503583
 10
149.6838376943
 20
132.3485977653
 10
149.7567244625
 20
132.3710748307
 10
149.8319805865
 20
132.387425867
 10
149.9091425079
 20
132.3973501512
 10
149.9872472345
 20
132.4005728149
 10
150.0655353757
 20
132.3969881296
 10
150.1434391892
 20
132.3865662153
 10
150.2200128314
 20
132.3694206527
 10
150.2347758007
 20
132.3652966913
  0
LWPOLYLINE
  5
2A1
100
AcDbEntity
  8
RACCORDO
100
AcDbPolyline
 62
253
  6
CONTINUOUS
 90
5
 70
0
 10
145.7565754222
 20
128.885610885
 10
145.6991548964
 20
128.8433496194
 10
145.6362623064
 20
128.8037336301
 10
145.5678976521
 20
128.7667629173
 10
145.5266665349
 20
128.7476141901
  0
LINE
  5
2A2
100
AcDbEntity
  8
0
100
AcDbLine
 62
7
  6
CONTINUOUS
 10
145.739238589
 20
128.6670618434
 11
145.7296849902
 21
128.6600726764
  0
LINE
  5
2A3
100
AcDbEntity
  8
0
100
AcDbLine
 62
7
  6
CONTINUOUS
 10
145.7296849902
 20
128.6600726764
 11
145.7182685688
 21
128.6518383316
  0
LWPOLYLINE
  5
2A4
100
AcDbEntity
  8
0
100
AcDbPolyline
 62
7
  6
CONTINUOUS
 90
3
 70
0
 10
145.7182685688
 20
128.6518383316
 10
145.7050487752
 20
128.6424334786
 10
145.6977924678
 20
128.6373078838
  0
LINE
  5
2A5
100
AcDbEntity
  8
0
100
AcDbLine
 62
7
  6
CONTINUOUS
 10
149.8134129118
 20
128.2149845093
 11
149.9502261123
 21
128.2871288152
  0
LWPOLYLINE
  5
2A6
100
AcDbEntity
  8
0
100
AcDbPolyline
 62
7
  6
CONTINUOUS
 90
7
 70
0
 10
144.8636454627
 20
125.3917202598
 10
144.8881093222
 20
125.4031040043
 10
144.9138476809
 20
125.4118378562
 10
144.9405267197
 20
125.4177498154
 10
144.9678844391
 20
125.4207251313
 10
144.9955753499
 20
125.4206656254
 10
145.0230756912
 20
125.4175464437
  0
LINE
  5
2A7
100
AcDbEntity
  8
0
100
AcDbLine
 62
7
  6
CONTINUOUS
 10
165.6734301709
 20
76.8866526411
 11
165.6591718263
 21
76.8896546648
  0
LINE
  5
2A8
100
AcDbEntity
  8
0
100
AcDbLine
 62
7
  6
CONTINUOUS
 10
165.6591718263
 20
76.8896546648
 11
165.644231642
 21
76.8928863336
  0
LINE
  5
2A9
100
AcDbEntity
  8
0
100
AcDbLine
 62
7
  6
CONTINUOUS
 10
165.644231642
 20
76.8928863336
 11
165.6286622718
 21
76.8963433662
  0
LINE
  5
2AA
100
AcDbEntity
  8
0
100
AcDbLine
 62
7
  6
CONTINUOUS
 10
165.6286622718
 20
76.8963433662
 11
165.6125211194
 21
76.9000207962
  0
LINE
  5
2AB
100
AcDbEntity
  8
0
100
AcDbLine
 62
7
  6
CONTINUOUS
 10
165.6125211194
 20
76.9000207962
 11
165.595864782
 21
76.9038971955
  0
LINE
  5
2AC
100
AcDbEntity
  8
0
100
AcDbLine
 62
7
  6
CONTINUOUS
 10
165.595864782
 20
76.9038971955
 11
165.5787608406
 21
76.9079644585
  0
LINE
  5
2AD
100
AcDbEntity
  8
0
100
AcDbLine
 62
7
  6
CONTINUOUS
 10
165.5787608406
 20
76.9079644585
 11
165.5524235192
 21
76.9143936055
  0
LINE
  5
2AE
100
AcDbEntity
  8
0
100
AcDbLine
 62
7
  6
CONTINUOUS
 10
165.5524235192
 20
76.9143936055
 11
165.5255035888
 21
76.9211632309
  0
LINE
  5
2AF
100
AcDbEntity
  8
0
100
AcDbLine
 62
7
  6
CONTINUOUS
 10
165.5255035888
 20
76.9211632309
 11
165.4982937231
 21
76.9282084888
  0
LWPOLYLINE
  5
2B0
100
AcDbEntity
  8
0
100
AcDbPolyline
 62
253
  6
CONTINUOUS
 90
3
 70
0
 10
166.6069988691
 20
77.5413200318
 10
166.6048237956
 20
77.5418917942
 10
166.6001613446
 20
77.5427543888
  0
LINE
  5
2B1
100
AcDbEntity
  8
0
100
AcDbLine
 62
7
  6
CONTINUOUS
 10
165.4982937231
 20
76.9282084888
 11
165.4801515038
 21
76.9330252173
  0
LINE
  5
2B2
100
AcDbEntity
  8
0
100
AcDbLine
 62
7
  6
CONTINUOUS
 10
165.4801515038
 20
76.9330252173
 11
165.4621230183
 21
76.9379029919
  0
LWPOLYLINE
  5
2B3
100
AcDbEntity
  8
0
100
AcDbPolyline
 62
253
  6
CONTINUOUS
 90
34
 70
0
 10
164.9051037619
 20
75.8960182061
 10
164.9155087138
 20
75.8931768554
 10
164.9261713783
 20
75.890585345
 10
164.9370677761
 20
75.8882495029
 10
164.9481733892
 20
75.8861745844
 10
164.959463255
 20
75.8843652529
 10
164.970912024
 20
75.8828255725
 10
164.9824939778
 20
75.881559006
 10
164.9941830441
 20
75.8805684086
 10
165.0059528943
 20
75.8798560131
 10
165.0177770448
 20
75.879423422
 10
165.0296289175
 20
75.879271607
 10
165.0414818576
 20
75.8794009097
 10
165.0533092083
 20
75.8798110392
 10
165.0650843709
 20
75.8805010731
 10
165.0767808639
 20
75.8814694596
 10
165.0883723913
 20
75.8827140218
 10
165.0998328756
 20
75.8842319602
 10
165.1111365184
 20
75.8860198569
 10
165.1222578836
 20
75.888073686
 10
165.1331719781
 20
75.8903888293
 10
165.1438542813
 20
75.8929600846
 10
165.1542808461
 20
75.8957816911
 10
165.1644281436
 20
75.8988472851
 10
165.1742731581
 20
75.9021499034
 10
165.183793643
 20
75.905682056
 10
165.1929683439
 20
75.9094358292
 10
165.2017768257
 20
75.9134028513
 10
165.2101999483
 20
75.9175745482
 10
165.2182180387
 20
75.9219412248
 10
165.2258114183
 20
75.926492025
 10
165.2329627907
 20
75.9312162407
 10
165.2396569697
 20
75.9361034765
 10
165.2458792325
 20
75.9411426514
  0
LINE
  5
2B4
100
AcDbEntity
  8
0
100
AcDbLine
 62
7
  6
CONTINUOUS
 10
165.4621230183
 20
76.9379029919
 11
165.4443417944
 21
76.9428121696
  0
LINE
  5
2B5
100
AcDbEntity
  8
0
100
AcDbLine
 62
7
  6
CONTINUOUS
 10
165.4443417944
 20
76.9428121696
 11
165.426777997
 21
76.9477814695
  0
LINE
  5
2B6
100
AcDbEntity
  8
0
100
AcDbLine
 62
7
  6
CONTINUOUS
 10
163.7865377434
 20
75.7630757853
 11
164.9607662374
 21
75.4241052167
  0
LINE
  5
2B7
100
AcDbEntity
  8
0
100
AcDbLine
 62
253
  6
CONTINUOUS
 10
163.9054912432
 20
75.8446075503
 11
164.9051037619
 21
75.556044272
  0
LINE
  5
2B8
100
AcDbEntity
  8
0
100
AcDbLine
 62
253
  6
CONTINUOUS
 10
164.9051037619
 20
75.8960182061
 11
164.2545104118
 21
76.083828329
  0
LINE
  5
2B9
100
AcDbEntity
  8
0
100
AcDbLine
 62
253
  6
CONTINUOUS
 10
164.9676037619
 20
76.1376447938
 11
164.5197444869
 21
76.2669306303
  0
LINE
  5
2BA
100
AcDbEntity
  8
0
100
AcDbLine
 62
7
  6
CONTINUOUS
 10
165.426777997
 20
76.9477814695
 11
164.6596375242
 21
77.1692284745
  0
LINE
  5
2BB
100
AcDbEntity
  8
DRAFT
100
AcDbLine
 62
7
  6
CONTINUOUS
 10
129.9394016024
 20
91.1797405285
 11
129.9283481731
 21
91.2076820369
  0
LWPOLYLINE
  5
2BC
100
AcDbEntity
  8
DRAFT
100
AcDbPolyline
 62
7
  6
CONTINUOUS
 90
31
 70
0
 10
129.9283481731
 20
91.2076820369
 10
129.917961375
 20
91.2356779819
 10
129.9082413432
 20
91.2637284791
 10
129.8991818244
 20
91.2918566779
 10
129.8907893541
 20
91.3200396701
 10
129.8830832163
 20
91.3482084547
 10
129.8760671216
 20
91.3763537879
 10
129.8697375634
 20
91.4044850855
 10
129.8641029412
 20
91.4325612845
 10
129.8591629065
 20
91.4605888562
 10
129.8549179753
 20
91.488561469
 10
129.8513777879
 20
91.5164188063
 10
129.8485439544
 20
91.5441552248
 10
129.8464149608
 20
91.5717764449
 10
129.8449957009
 20
91.5992391437
 10
129.84428786
 20
91.6265563945
 10
129.8442898065
 20
91.653715164
 10
129.8450013843
 20
91.6806329042
 10
129.8464242146
 20
91.707295517
 10
129.8485566197
 20
91.7337170451
 10
129.8513934204
 20
91.759857087
 10
129.8549361187
 20
91.7857203691
 10
129.859183114
 20
91.8113020734
 10
129.8641245143
 20
91.8365474317
 10
129.8697597139
 20
91.8614500005
 10
129.8760891485
 20
91.8860160708
 10
129.8831044332
 20
91.9102099268
 10
129.8908091181
 20
91.9340390183
 10
129.8991994482
 20
91.9574957137
 10
129.9082560224
 20
91.9805216261
 10
129.9179722661
 20
92.0030971989
  0
LWPOLYLINE
  5
2BD
100
AcDbEntity
  8
0
100
AcDbPolyline
 62
253
  6
CONTINUOUS
 90
24
 70
0
 10
128.2949092578
 20
127.7640751715
 10
128.2950282301
 20
127.7547343302
 10
128.2953849205
 20
127.7456173357
 10
128.2959786501
 20
127.7367415428
 10
128.2968082886
 20
127.7281238472
 10
128.2978722569
 20
127.719780653
 10
128.2991685295
 20
127.711727842
 10
128.3006946389
 20
127.7039807432
 10
128.3024476802
 20
127.6965541036
 10
128.3044243162
 20
127.6894620603
 10
128.3066207844
 20
127.6827181134
 10
128.3090329036
 20
127.6763351003
 10
128.3116560823
 20
127.6703251715
 10
128.314485327
 20
127.6646997672
 10
128.3175152522
 20
127.6594695958
 10
128.3207400902
 20
127.654644613
 10
128.3241537024
 20
127.6502340037
 10
128.3277495907
 20
127.6462461635
 10
128.3315209101
 20
127.6426886836
 10
128.3354604818
 20
127.6395683359
 10
128.3395608066
 20
127.63689106
 10
128.3438140791
 20
127.6346619525
 10
128.3482122032
 20
127.6328852564
 10
128.3505717332
 20
127.6321361163
  0
LINE
  5
2BE
100
AcDbEntity
  8
0
100
AcDbLine
 62
253
  6
CONTINUOUS
 10
128.1699093005
 20
127.8722552984
 11
128.1699092578
 21
127.8723283453
  0
LINE
  5
2BF
100
AcDbEntity
  8
0
100
AcDbLine
 62
7
  6
CONTINUOUS
 10
127.724468086
 20
126.7539740019
 11
127.724468086
 21
126.2836699254
  0
LINE
  5
2C0
100
AcDbEntity
  8
0
100
AcDbLine
 62
7
  6
CONTINUOUS
 10
128.1699092578
 20
128.2123022811
 11
128.1699092578
 21
127.872328347
  0
LINE
  5
2C1
100
AcDbEntity
  8
0
100
AcDbLine
 62
253
  6
CONTINUOUS
 10
128.2949092578
 20
128.1040491056
 11
128.2949092578
 21
127.7640751715
  0
LINE
  5
2C2
100
AcDbEntity
  8
0
100
AcDbLine
 62
7
  6
CONTINUOUS
 10
128.6648708694
 20
127.5414057708
 11
128.6648708694
 21
126.9935691102
  0
LINE
  5
2C3
100
AcDbEntity
  8
0
100
AcDbLine
 62
253
  6
CONTINUOUS
 10
128.7898708694
 20
127.505321379
 11
128.7898708694
 21
126.8796296036
  0
LWPOLYLINE
  5
2C4
100
AcDbEntity
  8
0
100
AcDbPolyline
 62
253
  6
CONTINUOUS
 90
34
 70
0
 10
128.2949092578
 20
128.1040491056
 10
128.2950498326
 20
128.1144359238
 10
128.2954712415
 20
128.1250428784
 10
128.2961725381
 20
128.1358461131
 10
128.2971521469
 20
128.146821337
 10
128.2984078654
 20
128.1579438584
 10
128.2999368673
 20
128.1691886393
 10
128.301735712
 20
128.1805303814
 10
128.303800354
 20
128.1919435805
 10
128.3061261484
 20
128.2034025622
 10
128.3087078638
 20
128.2148815547
 10
128.3115396925
 20
128.2263547375
 10
128.3146152621
 20
128.237796296
 10
128.3179276534
 20
128.2491804943
 10
128.3214694155
 20
128.2604817294
 10
128.3252325802
 20
128.2716745795
 10
128.3292086844
 20
128.2827338763
 10
128.333388782
 20
128.2936347404
 10
128.3377634619
 20
128.3043526354
 10
128.3423228699
 20
128.3148634282
 10
128.3470567612
 20
128.3251435115
 10
128.3519545195
 20
128.3351698315
 10
128.3570051785
 20
128.3449199257
 10
128.3621973345
 20
128.3543717668
 10
128.3675191946
 20
128.3635038999
 10
128.3729587084
 20
128.3722956884
 10
128.3785037073
 20
128.3807275049
 10
128.3841418225
 20
128.3887805556
 10
128.3898612397
 20
128.3964378505
 10
128.395648252
 20
128.4036809245
 10
128.401487307
 20
128.410490635
 10
128.407364369
 20
128.4168513596
 10
128.4132670364
 20
128.4227504174
 10
128.4191820414
 20
128.4281751802
  0
LWPOLYLINE
  5
2C5
100
AcDbEntity
  8
0
100
AcDbPolyline
 62
253
  6
CONTINUOUS
 90
11
 70
0
 10
132.2330098159
 20
128.5702798253
 10
132.2322120204
 20
128.5643654998
 10
132.2308543951
 20
128.5584769326
 10
132.2289400195
 20
128.5526272839
 10
132.2264731767
 20
128.5468295884
 10
132.223459147
 20
128.5410964209
 10
132.2199048865
 20
128.5354411476
 10
132.2158193591
 20
128.5298777176
 10
132.2112124637
 20
128.5244189747
 10
132.2060946125
 20
128.5190766923
 10
132.200477637
 20
128.513862786
  0
LINE
  5
2C6
100
AcDbEntity
  8
RACCORDO
100
AcDbLine
 62
253
  6
CONTINUOUS
 10
140.8771513622
 20
126.7536397125
 11
140.6176842805
 21
126.3572916081
  0
LINE
  5
2C7
100
AcDbEntity
  8
RACCORDO
100
AcDbLine
 62
7
  6
CONTINUOUS
 10
140.7374272905
 20
126.7206271402
 11
140.5183447857
 21
126.3859684501
  0
LWPOLYLINE
  5
2C8
100
AcDbEntity
  8
RACCORDO
100
AcDbPolyline
 62
253
  6
CONTINUOUS
 90
10
 70
0
 10
139.7527947327
 20
127.4694466912
 10
139.7393307913
 20
127.449247455
 10
139.7267103102
 20
127.4265313603
 10
139.7151927454
 20
127.4017654117
 10
139.7050148787
 20
127.3754587559
 10
139.6963859499
 20
127.3481522134
 10
139.6894833554
 20
127.3204071611
 10
139.684449001
 20
127.2927939908
 10
139.6813863845
 20
127.265880383
 10
139.6803584683
 20
127.2402196364
  0
LWPOLYLINE
  5
2C9
100
AcDbEntity
  8
RACCORDO
100
AcDbPolyline
 62
253
  6
CONTINUOUS
 90
10
 70
0
 10
140.6816481001
 20
127.2013098203
 10
140.6681837721
 20
127.1811098924
 10
140.6555630623
 20
127.1583931654
 10
140.6440454191
 20
127.1336267368
 10
140.6338676094
 20
127.1073198444
 10
140.6252388281
 20
127.0800133336
 10
140.6183364122
 20
127.0522685304
 10
140.6133022245
 20
127.0246557926
 10
140.6102397266
 20
126.997742789
 10
140.6092118383
 20
126.9720827648
  0
LWPOLYLINE
  5
2CA
100
AcDbEntity
  8
RACCORDO
100
AcDbPolyline
 62
253
  6
CONTINUOUS
 90
16
 70
0
 10
141.7036284285
 20
126.3743455491
 10
141.721950273
 20
126.4000095362
 10
141.7427151669
 20
126.424109926
 10
141.7656748703
 20
126.4465340877
 10
141.7905697498
 20
126.4672973587
 10
141.8171096037
 20
126.4862027024
 10
141.8449722481
 20
126.5028453752
 10
141.8738482652
 20
126.5171422726
 10
141.9034277519
 20
126.5290994294
 10
141.9333761049
 20
126.5384774421
 10
141.9633305522
 20
126.5452424409
 10
141.9930441589
 20
126.5494596267
 10
142.0223623731
 20
126.5510438935
 10
142.0510412652
 20
126.5499819695
 10
142.0787538665
 20
126.5463549342
 10
142.1052295989
 20
126.5402196364
  0
LINE
  5
2CB
100
AcDbEntity
  8
RACCORDO
100
AcDbLine
 62
253
  6
CONTINUOUS
 10
141.1970555613
 20
126.1900415257
 11
141.5083305793
 21
126.571433967
  0
LINE
  5
2CC
100
AcDbEntity
  8
RACCORDO
100
AcDbLine
 62
253
  6
CONTINUOUS
 10
141.4852972212
 20
126.1068333257
 11
141.7036284285
 21
126.3743455491
  0
LWPOLYLINE
  5
2CD
100
AcDbEntity
  8
0
100
AcDbPolyline
 62
7
  6
CONTINUOUS
 90
8
 70
0
 10
143.3227574673
 20
124.0492409153
 10
143.3014207555
 20
124.0278516178
 10
143.2825393863
 20
124.0036394475
 10
143.266594473
 20
123.9769598212
 10
143.2539900251
 20
123.9482507137
 10
143.2450630774
 20
123.9181234876
 10
143.2399960735
 20
123.8872190513
 10
143.2387523506
 20
123.8619370818
  0
LINE
  5
2CE
100
AcDbEntity
  8
0
100
AcDbLine
 62
7
  6
CONTINUOUS
 10
141.9610337641
 20
124.0115474883
 11
141.2034761815
 21
123.2961304193
  0
LINE
  5
2CF
100
AcDbEntity
  8
0
100
AcDbLine
 62
7
  6
CONTINUOUS
 10
143.3227574673
 20
124.0492409153
 11
144.4374351728
 21
125.0390288585
  0
LINE
  5
2D0
100
AcDbEntity
  8
0
100
AcDbLine
 62
253
  6
CONTINUOUS
 10
143.4880240672
 20
124.0781751802
 11
144.6024075817
 21
125.0677018939
  0
LINE
  5
2D1
100
AcDbEntity
  8
0
100
AcDbLine
 62
7
  6
CONTINUOUS
 10
152.079114712
 20
131.3964114139
 11
149.2603759233
 21
128.9053594427
  0
LWPOLYLINE
  5
2D2
100
AcDbEntity
  8
0
100
AcDbPolyline
 62
253
  6
CONTINUOUS
 90
20
 70
0
 10
143.3227574673
 20
124.0492409153
 10
143.3241062857
 20
124.0504232955
 10
143.331035394
 20
124.0560451427
 10
143.338321764
 20
124.0612281189
 10
143.3459488906
 20
124.0659604835
 10
143.3538994966
 20
124.0702315166
 10
143.3621555721
 20
124.0740315435
 10
143.3706984153
 20
124.0773519561
 10
143.3795086746
 20
124.080185233
 10
143.388566393
 20
124.0825249562
 10
143.3978510525
 20
124.0843658258
 10
143.4073416215
 20
124.0857036716
 10
143.4170166016
 20
124.0865354633
 10
143.4268540768
 20
124.0868593166
 10
143.436831763
 20
124.0866744979
 10
143.4469270586
 20
124.0859814258
 10
143.4571170954
 20
124.0847816704
 10
143.4673787908
 20
124.0830779493
 10
143.4776888996
 20
124.0808741218
 10
143.4880240672
 20
124.0781751802
  0
LINE
  5
2D3
100
AcDbEntity
  8
0
100
AcDbLine
 62
7
  6
CONTINUOUS
 10
141.9610337641
 20
124.0115474883
 11
145.6977924678
 21
127.2535599188
  0
LINE
  5
2D4
100
AcDbEntity
  8
0
100
AcDbLine
 62
7
  6
CONTINUOUS
 10
144.4374358146
 20
125.0390294285
 11
144.4400734496
 21
125.0413136491
  0
LINE
  5
2D5
100
AcDbEntity
  8
DRAFT
100
AcDbLine
 62
7
  6
CONTINUOUS
 10
152.079114712
 20
130.9885601466
 11
149.2603759233
 21
128.5840351605
  0
LINE
  5
2D6
100
AcDbEntity
  8
0
100
AcDbLine
 62
7
  6
CONTINUOUS
 10
144.4400740753
 20
125.0413141775
 11
144.8198890051
 21
125.3620791191
  0
LINE
  5
2D7
100
AcDbEntity
  8
0
100
AcDbLine
 62
253
  6
CONTINUOUS
 10
144.6024075817
 20
125.0677018939
 11
144.9819209174
 21
125.3882121304
  0
LINE
  5
2D8
100
AcDbEntity
  8
RACCORDO
100
AcDbLine
 62
7
  6
CONTINUOUS
 10
151.1825387985
 20
131.9433241057
 11
148.7544808354
 21
129.9203467246
  0
LINE
  5
2D9
100
AcDbEntity
  8
0
100
AcDbLine
 62
253
  6
CONTINUOUS
 10
144.8198890051
 20
125.3620791191
 11
144.8255340727
 21
125.3666032917
  0
LWPOLYLINE
  5
2DA
100
AcDbEntity
  8
0
100
AcDbPolyline
 62
7
  6
CONTINUOUS
 90
19
 70
0
 10
144.4400734496
 20
125.0413136491
 10
144.4457167744
 20
125.045836352
 10
144.4530031955
 20
125.0510193645
 10
144.4606280615
 20
125.0557497032
 10
144.468574121
 20
125.0600166709
 10
144.4768233688
 20
125.0638105979
 10
144.4853570819
 20
125.0671228619
 10
144.4941559653
 20
125.0699459919
 10
144.5032000978
 20
125.0722736033
 10
144.5124689248
 20
125.0741003706
 10
144.5219415008
 20
125.0754222012
 10
144.5315963944
 20
125.0762361253
 10
144.5414116387
 20
125.0765402225
 10
144.5513650642
 20
125.0763338615
 10
144.561434166
 20
125.0756175474
 10
144.5715960127
 20
125.0743928038
 10
144.581827589
 20
125.0726624111
 10
144.5921058484
 20
125.0704304011
 10
144.6024075817
 20
125.0677018939
  0
LWPOLYLINE
  5
2DB
100
AcDbEntity
  8
0
100
AcDbPolyline
 62
7
  6
CONTINUOUS
 90
3
 70
0
 10
144.8198890051
 20
125.3620791191
 10
144.8408174587
 20
125.3779475062
 10
144.8636454627
 20
125.3917202598
  0
LWPOLYLINE
  5
2DC
100
AcDbEntity
  8
0
100
AcDbPolyline
 62
253
  6
CONTINUOUS
 90
18
 70
0
 10
144.8255340727
 20
125.3666032917
 10
144.8328204427
 20
125.3717862679
 10
144.8404429114
 20
125.3765145987
 10
144.8483842122
 20
125.3807775732
 10
144.8566263562
 20
125.384565535
 10
144.8651506732
 20
125.3878699035
 10
144.8739378536
 20
125.3906831935
 10
144.8829679925
 20
125.3929990323
 10
144.8922206347
 20
125.3948121739
 10
144.9016748208
 20
125.3961185113
 10
144.911309135
 20
125.3969150853
 10
144.9211017534
 20
125.3972000914
 10
144.9310304935
 20
125.3969728841
 10
144.9410728645
 20
125.396233978
 10
144.9512061182
 20
125.3949850469
 10
144.9614073005
 20
125.39322892
 10
144.9716533034
 20
125.3909695752
 10
144.9819209174
 20
125.3882121304
  0
LWPOLYLINE
  5
2DD
100
AcDbEntity
  8
RACCORDO
100
AcDbPolyline
 62
253
  6
CONTINUOUS
 90
36
 70
0
 10
149.8893840623
 20
128.1930535273
 10
149.9236128008
 20
128.2151909557
 10
150.0046344131
 20
128.2624308577
 10
150.0905918635
 20
128.3074668546
 10
150.1810798275
 20
128.3502721535
 10
150.273945336
 20
128.3901562961
 10
150.3692551686
 20
128.4269431718
 10
150.4669425457
 20
128.4608088911
 10
150.5646541594
 20
128.4915913262
 10
150.6621179121
 20
128.5191158347
 10
150.7596059015
 20
128.5435570589
 10
150.8555811121
 20
128.5652767985
 10
150.9498221263
 20
128.5842205452
 10
151.0425503618
 20
128.6004428073
 10
151.1328930564
 20
128.6144689089
 10
151.2206826171
 20
128.6262986723
 10
151.3060866368
 20
128.6359322752
 10
151.3887351321
 20
128.643895575
 10
151.4684867224
 20
128.6502126383
 10
151.5454827883
 20
128.6548593985
 10
151.6197774875
 20
128.6582895127
 10
151.6913177481
 20
128.6605380883
 10
151.760156642
 20
128.6615700179
 10
151.8265075426
 20
128.6617336373
 10
151.8903387656
 20
128.6610604257
 10
151.9516819953
 20
128.6595189039
 10
152.0108456583
 20
128.6573629698
 10
152.0678112313
 20
128.6546198667
 10
152.1225972377
 20
128.6512623513
 10
152.1755676741
 20
128.6474625918
 10
152.2267137665
 20
128.6432430673
 10
152.2760442889
 20
128.6385812986
 10
152.32394956
 20
128.6335820168
 10
152.370559686
 20
128.6282801323
 10
152.4157445607
 20
128.6226407347
 10
152.459504184
 20
128.6166638241
  0
LWPOLYLINE
  5
2DE
100
AcDbEntity
  8
RACCORDO
100
AcDbPolyline
 62
253
  6
CONTINUOUS
 90
4
 70
0
 10
149.8207207682
 20
128.2128749129
 10
149.8392131185
 20
128.2246128886
 10
149.9269643563
 20
128.2746975389
 10
149.9502261123
 20
128.2871288152
  0
LINE
  5
2DF
100
AcDbEntity
  8
0
100
AcDbLine
 62
7
  6
CONTINUOUS
 10
166.0428618408
 20
77.463838736
 11
165.4101421504
 21
77.6464891778
  0
LINE
  5
2E0
100
AcDbEntity
  8
0
100
AcDbLine
 62
253
  6
CONTINUOUS
 10
166.458268136
 20
77.5837154299
 11
166.6001613446
 21
77.5427543888
  0
LINE
  5
2E1
100
AcDbEntity
  8
0
100
AcDbLine
 62
7
  6
CONTINUOUS
 10
166.4587905174
 20
77.5841040976
 11
166.6069988691
 21
77.5413200318
  0
LINE
  5
2E2
100
AcDbEntity
  8
0
100
AcDbLine
 62
253
  6
CONTINUOUS
 10
166.6103964858
 20
77.5395108987
 11
166.6001613446
 21
77.5427543888
  0
LWPOLYLINE
  5
2E3
100
AcDbEntity
  8
0
100
AcDbPolyline
 62
7
  6
CONTINUOUS
 90
24
 70
0
 10
166.6069988691
 20
77.5413200318
 10
166.6204846097
 20
77.5370097679
 10
166.633575144
 20
77.5319968987
 10
166.6462304233
 20
77.526322728
 10
166.6583578672
 20
77.520062378
 10
166.6699872909
 20
77.513235896
 10
166.6812535399
 20
77.5057769678
 10
166.6921602125
 20
77.497673215
 10
166.7026216712
 20
77.4889790469
 10
166.7126216173
 20
77.4797024436
 10
166.7221136078
 20
77.4698801714
 10
166.731068689
 20
77.4595373938
 10
166.7394882108
 20
77.4486605638
 10
166.7473384268
 20
77.4372730217
 10
166.7545748662
 20
77.4254198926
 10
166.7611748543
 20
77.4131175817
 10
166.7671035803
 20
77.4004065017
 10
166.7723286432
 20
77.3873325505
 10
166.7768287354
 20
77.3739217512
 10
166.7805724656
 20
77.3602394516
 10
166.7835423423
 20
77.3463222115
 10
166.7857288483
 20
77.3321522043
 10
166.7871087112
 20
77.317741384
 10
166.7876528343
 20
77.303190546
  0
LINE
  5
2E4
100
AcDbEntity
  8
0
100
AcDbLine
 62
253
  6
CONTINUOUS
 10
166.6204682945
 20
77.5357293933
 11
166.6103964858
 21
77.5395108987
  0
LINE
  5
2E5
100
AcDbEntity
  8
DRAFT
100
AcDbLine
 62
7
  6
CONTINUOUS
 10
132.4075741261
 20
90.467240493
 11
132.3965206945
 21
90.4951820014
  0
LWPOLYLINE
  5
2E6
100
AcDbEntity
  8
DRAFT
100
AcDbPolyline
 62
7
  6
CONTINUOUS
 90
34
 70
0
 10
131.0219343007
 20
91.7344551192
 10
131.0328273914
 20
91.7064080205
 10
131.043062416
 20
91.6783118812
 10
131.0526395103
 20
91.6501668198
 10
131.0615651227
 20
91.6219499404
 10
131.0698330878
 20
91.5936843873
 10
131.0774245856
 20
91.5654393114
 10
131.0843361597
 20
91.5372241628
 10
131.0905714718
 20
91.5090296737
 10
131.096122321
 20
91.4808968682
 10
131.1009892299
 20
91.4528193803
 10
131.1051718455
 20
91.4248037281
 10
131.1086605965
 20
91.3969102141
 10
131.1114539989
 20
91.369144524
 10
131.1135536354
 20
91.3415010636
 10
131.1149544761
 20
91.3140231647
 10
131.1156548928
 20
91.2866977334
 10
131.1156565703
 20
91.2595379191
 10
131.1149593736
 20
91.2326263533
 10
131.1135616083
 20
91.205977024
 10
131.111464915
 20
91.1795759033
 10
131.1086740865
 20
91.153463534
 10
131.1051875132
 20
91.127635075
 10
131.1010067086
 20
91.1020952904
 10
131.0961410911
 20
91.0768990797
 10
131.0905910527
 20
91.0520527133
 10
131.0843560336
 20
91.0275497809
 10
131.0774439681
 20
91.0034261118
 10
131.069851121
 20
90.9796741188
 10
131.0615810241
 20
90.9563012176
 10
131.0526524545
 20
90.9333656906
 10
131.0430715635
 20
90.910886873
 10
131.0328319176
 20
90.8888451884
 10
131.0219333816
 20
90.8672405214
  0
LINE
  5
2E7
100
AcDbEntity
  8
0
100
AcDbLine
 62
7
  6
CONTINUOUS
 10
131.0387780584
 20
91.690279239
 11
131.0219343007
 21
91.7344551192
  0
LWPOLYLINE
  5
2E8
100
AcDbEntity
  8
DRAFT
100
AcDbPolyline
 62
7
  6
CONTINUOUS
 90
31
 70
0
 10
132.3965206945
 20
90.4951820014
 10
132.3861338943
 20
90.5231779465
 10
132.3764138605
 20
90.5512284439
 10
132.3673543398
 20
90.579356643
 10
132.3589618678
 20
90.6075396355
 10
132.3512557283
 20
90.6357084204
 10
132.3442396322
 20
90.663853754
 10
132.3379100727
 20
90.6919850521
 10
132.3322754493
 20
90.7200612515
 10
132.3273354135
 20
90.7480888236
 10
132.3230904814
 20
90.7760614369
 10
132.3195502932
 20
90.8039187746
 10
132.3167164591
 20
90.8316551936
 10
132.3145874651
 20
90.8592764142
 10
132.3131682048
 20
90.8867391133
 10
132.3124603637
 20
90.9140563645
 10
132.3124623102
 20
90.9412151344
 10
132.3131738882
 20
90.968132875
 10
132.3145967188
 20
90.994795488
 10
132.3167291244
 20
91.0212170163
 10
132.3195659257
 20
91.0473570583
 10
132.3231086248
 20
91.0732203404
 10
132.327355621
 20
91.0988020447
 10
132.3322970224
 20
91.1240474027
 10
132.3379322231
 20
91.1489499714
 10
132.3442616591
 20
91.1735160412
 10
132.3512769453
 20
91.1977098968
 10
132.3589816318
 20
91.2215389878
 10
132.3673719636
 20
91.2449956824
 10
132.3764285397
 20
91.2680215939
 10
132.3861447854
 20
91.2905971658
  0
LWPOLYLINE
  5
2E9
100
AcDbEntity
  8
0
100
AcDbPolyline
 62
253
  6
CONTINUOUS
 90
24
 70
0
 10
130.3506901509
 20
127.1706223455
 10
130.3508091541
 20
127.1612803069
 10
130.351165937
 20
127.1521621753
 10
130.3517598203
 20
127.1432853122
 10
130.3525896707
 20
127.1346666422
 10
130.3536539095
 20
127.1263225515
 10
130.3549505216
 20
127.1182688645
 10
130.3564770549
 20
127.1105208714
 10
130.3582306001
 20
127.1030933888
 10
130.3602077977
 20
127.0960006534
 10
130.3624048651
 20
127.0892562089
 10
130.3648176281
 20
127.0828728456
 10
130.367441509
 20
127.0768626721
 10
130.3702715347
 20
127.071237096
 10
130.3733022999
 20
127.0660068772
 10
130.3765279863
 20
127.0611820459
 10
130.3799424137
 20
127.0567718119
 10
130.3835391023
 20
127.0527845123
 10
130.3873112447
 20
127.0492276828
 10
130.3912521418
 20
127.0461077478
 10
130.3953538462
 20
127.0434311022
 10
130.3996070406
 20
127.0412035405
 10
130.4040029572
 20
127.0394290121
 10
130.4063520391
 20
127.0386834598
  0
LINE
  5
2EA
100
AcDbEntity
  8
0
100
AcDbLine
 62
253
  6
CONTINUOUS
 10
130.3506901509
 20
127.1706223455
 11
130.3506901509
 21
127.5105962796
  0
LINE
  5
2EB
100
AcDbEntity
  8
0
100
AcDbLine
 62
253
  6
CONTINUOUS
 10
130.6914656215
 20
127.2157467907
 11
130.6914656215
 21
127.5557207249
  0
LINE
  5
2EC
100
AcDbEntity
  8
0
100
AcDbLine
 62
253
  6
CONTINUOUS
 10
130.8557285394
 20
126.2832678627
 11
130.8557285394
 21
126.9711697468
  0
LINE
  5
2ED
100
AcDbEntity
  8
0
100
AcDbLine
 62
253
  6
CONTINUOUS
 10
131.1965040099
 20
126.3396729134
 11
131.1965040099
 21
127.1473050352
  0
LINE
  5
2EE
100
AcDbEntity
  8
0
100
AcDbLine
 62
7
  6
CONTINUOUS
 10
131.8285365398
 20
126.9365474883
 11
131.8285365398
 21
128.5386981493
  0
LINE
  5
2EF
100
AcDbEntity
  8
0
100
AcDbLine
 62
253
  6
CONTINUOUS
 10
132.200477637
 20
128.8613943028
 11
132.200477637
 21
128.513862786
  0
LINE
  5
2F0
100
AcDbEntity
  8
0
100
AcDbLine
 62
7
  6
CONTINUOUS
 10
132.2332477336
 20
128.9232634572
 11
132.2332477336
 21
128.5757319404
  0
LWPOLYLINE
  5
2F1
100
AcDbEntity
  8
0
100
AcDbPolyline
 62
253
  6
CONTINUOUS
 90
34
 70
0
 10
130.3506901509
 20
127.5105962796
 10
130.3508307257
 20
127.5209830978
 10
130.3512521347
 20
127.5315900523
 10
130.3519534313
 20
127.5423932871
 10
130.3529330401
 20
127.553368511
 10
130.3541887586
 20
127.5644910324
 10
130.3557177604
 20
127.5757358133
 10
130.3575166052
 20
127.5870775553
 10
130.3595812472
 20
127.5984907544
 10
130.3619070416
 20
127.6099497362
 10
130.364488757
 20
127.6214287287
 10
130.3673205857
 20
127.6329019114
 10
130.3703961553
 20
127.6443434699
 10
130.3737085466
 20
127.6557276683
 10
130.3772503087
 20
127.6670289034
 10
130.3810134734
 20
127.6782217535
 10
130.3849895775
 20
127.6892810502
 10
130.3891696751
 20
127.7001819144
 10
130.3935443551
 20
127.7108998094
 10
130.3981037631
 20
127.7214106022
 10
130.4028376544
 20
127.7316906855
 10
130.4077354127
 20
127.7417170055
 10
130.4127860717
 20
127.7514670997
 10
130.4179782277
 20
127.7609189408
 10
130.4233000878
 20
127.7700510738
 10
130.4287396016
 20
127.7788428624
 10
130.4342846004
 20
127.7872746788
 10
130.4399227156
 20
127.7953277296
 10
130.4456421329
 20
127.8029850245
 10
130.4514291452
 20
127.8102280985
 10
130.4572682002
 20
127.817037809
 10
130.4631452621
 20
127.8233985336
 10
130.4690479296
 20
127.8292975914
 10
130.4749629345
 20
127.8347223542
  0
LINE
  5
2F2
100
AcDbEntity
  8
0
100
AcDbLine
 62
253
  6
CONTINUOUS
 10
132.2332477336
 20
128.575731896
 11
132.2330098159
 21
128.5702798253
  0
LWPOLYLINE
  5
2F3
100
AcDbEntity
  8
0
100
AcDbPolyline
 62
253
  6
CONTINUOUS
 90
12
 70
0
 10
132.2332476678
 20
128.9231728121
 10
132.2330114564
 20
128.9178301626
 10
132.2322153637
 20
128.9119153391
 10
132.2308592948
 20
128.906026036
 10
132.2289462983
 20
128.9001754987
 10
132.2264806765
 20
128.8943768882
 10
132.2234679727
 20
128.8886432438
 10
132.2199149634
 20
128.8829874646
 10
132.2158296473
 20
128.8774222819
 10
132.2112212183
 20
128.8719602159
 10
132.2061000413
 20
128.8666135478
 10
132.200477637
 20
128.8613943028
  0
LINE
  5
2F4
100
AcDbEntity
  8
0
100
AcDbLine
 62
7
  6
CONTINUOUS
 10
132.2314086392
 20
128.545463724
 11
132.2332476949
 21
128.5758014905
  0
LWPOLYLINE
  5
2F5
100
AcDbEntity
  8
RACCORDO
100
AcDbPolyline
 62
253
  6
CONTINUOUS
 90
9
 70
0
 10
139.6580871737
 20
128.1986405628
 10
139.6600640352
 20
128.2046442546
 10
139.6620306216
 20
128.2098812307
 10
139.6639784361
 20
128.2143266625
 10
139.6658997749
 20
128.2179602947
 10
139.6677854691
 20
128.2207620702
 10
139.669625086
 20
128.2227155652
 10
139.6714115025
 20
128.2238131463
 10
139.6730165524
 20
128.224061099
  0
LWPOLYLINE
  5
2F6
100
AcDbEntity
  8
RACCORDO
100
AcDbPolyline
 62
253
  6
CONTINUOUS
 90
10
 70
0
 10
142.1776658633
 20
126.7694466912
 10
142.1642019219
 20
126.749247455
 10
142.1515814408
 20
126.7265313603
 10
142.140063876
 20
126.7017654117
 10
142.1298860093
 20
126.6754587559
 10
142.1212570805
 20
126.6481522134
 10
142.114354486
 20
126.6204071611
 10
142.1093201316
 20
126.5927939908
 10
142.1062575151
 20
126.565880383
 10
142.1052295989
 20
126.5402196364
  0
LWPOLYLINE
  5
2F7
100
AcDbEntity
  8
0
100
AcDbPolyline
 62
7
  6
CONTINUOUS
 90
7
 70
0
 10
145.7571774813
 20
128.6810488327
 10
145.7568651922
 20
128.6806604559
 10
145.7559587159
 20
128.6798397023
 10
145.7544814307
 20
128.6786250737
 10
145.7524597268
 20
128.677031626
 10
145.7499163103
 20
128.6750620737
 10
145.74685608
 20
128.6727375697
  0
LWPOLYLINE
  5
2F8
100
AcDbEntity
  8
0
100
AcDbPolyline
 62
7
  6
CONTINUOUS
 90
31
 70
0
 10
145.673245851
 20
127.667281043
 10
145.6834269097
 20
127.6791917289
 10
145.6929546
 20
127.6916459078
 10
145.701828922
 20
127.7046435797
 10
145.7100628699
 20
127.7182089292
 10
145.7176434494
 20
127.7323177716
 10
145.7245316781
 20
127.7468975526
 10
145.7307239895
 20
127.7619506981
 10
145.7362239499
 20
127.7774747822
 10
145.7410032763
 20
127.7933899729
 10
145.7450582565
 20
127.8096982848
 10
145.7483926027
 20
127.8263977032
 10
145.7509891683
 20
127.8434023521
 10
145.7528441526
 20
127.8607138037
 10
145.7539613564
 20
127.8783304858
 10
145.7543350343
 20
127.8961618053
 10
145.7539613564
 20
127.9142088679
 10
145.7528441526
 20
127.9324705679
 10
145.7509891683
 20
127.9508529952
 10
145.7483926027
 20
127.9693567719
 10
145.7450582565
 20
127.987981276
 10
145.7410032763
 20
128.0066307318
 10
145.7362239499
 20
128.0253052679
 10
145.7307239895
 20
128.0440047557
 10
145.7245316781
 20
128.0626330338
 10
145.7176434494
 20
128.0811897355
 10
145.7100628699
 20
128.0996752276
 10
145.701828922
 20
128.1179944491
 10
145.6929546
 20
128.1361157131
 10
145.6834269097
 20
128.1540707066
 10
145.673245851
 20
128.1718594295
  0
LWPOLYLINE
  5
2F9
100
AcDbEntity
  8
0
100
AcDbPolyline
 62
7
  6
CONTINUOUS
 90
6
 70
0
 10
149.2603759233
 20
128.9053594427
 10
149.1722039207
 20
128.8207111054
 10
149.0959883581
 20
128.7332084568
 10
149.0320964373
 20
128.6432730793
 10
148.9808359857
 20
128.551338276
 10
148.9455964805
 20
128.4655015345
  0
LINE
  5
2FA
100
AcDbEntity
  8
ASSI
100
AcDbLine
 62
7
  6
CONTINUOUS
 10
147.3020897594
 20
124.5226057042
 11
150.6460481076
 21
127.643185864
  0
LINE
  5
2FB
100
AcDbEntity
  8
RACCORDO
100
AcDbLine
 62
7
  6
CONTINUOUS
 10
146.967368586
 20
123.5316711029
 11
150.6460481076
 21
126.8499278695
  0
LINE
  5
2FC
100
AcDbEntity
  8
0
100
AcDbLine
 62
253
  6
CONTINUOUS
 10
146.6808758787
 20
124.4676997786
 11
147.0528169758
 21
124.7903959321
  0
LINE
  5
2FD
100
AcDbEntity
  8
0
100
AcDbLine
 62
253
  6
CONTINUOUS
 10
146.8973785657
 20
124.1886981493
 11
147.2693196628
 21
124.5113943028
  0
LINE
  5
2FE
100
AcDbEntity
  8
0
100
AcDbLine
 62
7
  6
CONTINUOUS
 10
150.1597390236
 20
128.1150087724
 11
150.1688609932
 21
128.1229086299
  0
LINE
  5
2FF
100
AcDbEntity
  8
RACCORDO
100
AcDbLine
 62
7
  6
CONTINUOUS
 10
152.459504184
 20
128.6166638241
 11
151.5321588764
 21
127.8135592296
  0
LINE
  5
300
100
AcDbEntity
  8
0
100
AcDbLine
 62
7
  6
CONTINUOUS
 10
153.1350832468
 20
128.0758994298
 11
152.4824332348
 21
127.5106879396
  0
LINE
  5
301
100
AcDbEntity
  8
RACCORDO
100
AcDbLine
 62
7
  6
CONTINUOUS
 10
153.498736486
 20
128.316665398
 11
152.5837943502
 21
127.5243022654
  0
LINE
  5
302
100
AcDbEntity
  8
0
100
AcDbLine
 62
253
  6
CONTINUOUS
 10
145.5438049604
 20
123.4847223542
 11
146.6808758787
 21
124.4676997786
  0
LINE
  5
303
100
AcDbEntity
  8
0
100
AcDbLine
 62
253
  6
CONTINUOUS
 10
145.7603076474
 20
123.2057207249
 11
146.8973785657
 21
124.1886981493
  0
LINE
  5
304
100
AcDbEntity
  8
DRAFT
100
AcDbLine
 62
7
  6
CONTINUOUS
 10
151.6656295546
 20
126.6447705502
 11
147.3956125249
 21
123.0150316138
  0
LINE
  5
305
100
AcDbEntity
  8
0
100
AcDbLine
 62
7
  6
CONTINUOUS
 10
149.9442653449
 20
128.0057472826
 11
146.4081215975
 21
125.0193693029
  0
LINE
  5
306
100
AcDbEntity
  8
0
100
AcDbLine
 62
7
  6
CONTINUOUS
 10
148.8568030089
 20
123.7663136491
 11
148.8624463337
 21
123.770836352
  0
LWPOLYLINE
  5
307
100
AcDbEntity
  8
RACCORDO
100
AcDbPolyline
 62
7
  6
CONTINUOUS
 90
10
 70
0
 10
153.4987160535
 20
128.316647703
 10
153.5067745707
 20
128.3230970067
 10
153.5147085934
 20
128.328409767
 10
153.5225181216
 20
128.332585984
 10
153.5302703163
 20
128.3356364835
 10
153.5378980166
 20
128.3375504396
 10
153.5451997394
 20
128.3382953749
 10
153.5521083238
 20
128.3378604638
 10
153.5586909307
 20
128.3362565319
 10
153.5629577464
 20
128.3345092517
  0
LWPOLYLINE
  5
308
100
AcDbEntity
  8
0
100
AcDbPolyline
 62
7
  6
CONTINUOUS
 90
18
 70
0
 10
148.8624463337
 20
123.770836352
 10
148.8697327548
 20
123.7760193645
 10
148.8773576208
 20
123.7807497032
 10
148.8853036803
 20
123.7850166709
 10
148.8935529281
 20
123.7888105979
 10
148.9020866412
 20
123.7921228619
 10
148.9108855246
 20
123.7949459919
 10
148.9199296571
 20
123.7972736033
 10
148.9291984841
 20
123.7991003706
 10
148.9386710601
 20
123.8004222012
 10
148.9483259537
 20
123.8012361253
 10
148.958141198
 20
123.8015402225
 10
148.9680946235
 20
123.8013338615
 10
148.9781637253
 20
123.8006175474
 10
148.988325572
 20
123.7993928038
 10
148.9985571483
 20
123.7976624111
 10
149.0088354077
 20
123.7954304011
 10
149.019137141
 20
123.7927018939
  0
LWPOLYLINE
  5
309
100
AcDbEntity
  8
0
100
AcDbPolyline
 62
253
  6
CONTINUOUS
 90
18
 70
0
 10
149.2422794614
 20
124.091615322
 10
149.2495675675
 20
124.0967979435
 10
149.2571917915
 20
124.1015257584
 10
149.2651348322
 20
124.1057880484
 10
149.27337871
 20
124.109575175
 10
149.2819047993
 20
124.1128785828
 10
149.2906938674
 20
124.1156908065
 10
149.2997259239
 20
124.1180054371
 10
149.3089803055
 20
124.1198171924
 10
149.3184359048
 20
124.1211219814
 10
149.3280714107
 20
124.1219169038
 10
149.3378651683
 20
124.1222001876
 10
149.3477964811
 20
124.1219711185
 10
149.3578413921
 20
124.1212301348
 10
149.3679727719
 20
124.1199795617
 10
149.3781661151
 20
124.1182231727
 10
149.3883997393
 20
124.1159654472
 10
149.3986504767
 20
124.1132121304
  0
LINE
  5
30A
100
AcDbEntity
  8
0
100
AcDbLine
 62
7
  6
CONTINUOUS
 10
136.1747845671
 20
89.3797405119
 11
135.0922527878
 21
89.692240519
  0
LINE
  5
30B
100
AcDbEntity
  8
0
100
AcDbLine
 62
7
  6
CONTINUOUS
 10
133.7066122633
 20
90.0922404839
 11
132.4075741261
 21
90.467240493
  0
LINE
  5
30C
100
AcDbEntity
  8
0
100
AcDbLine
 62
7
  6
CONTINUOUS
 10
131.0219333816
 20
90.8672405214
 11
129.9394016024
 21
91.1797405285
  0
LINE
  5
30D
100
AcDbEntity
  8
DRAFT
100
AcDbLine
 62
7
  6
CONTINUOUS
 10
129.9394016024
 20
91.1797405285
 11
131.0219333816
 21
90.8672405214
  0
LINE
  5
30E
100
AcDbEntity
  8
DRAFT
100
AcDbLine
 62
7
  6
CONTINUOUS
 10
132.4075741261
 20
90.467240493
 11
133.7066122633
 21
90.0922404839
  0
LINE
  5
30F
100
AcDbEntity
  8
DRAFT
100
AcDbLine
 62
7
  6
CONTINUOUS
 10
135.0922527878
 20
89.692240519
 11
136.1747845671
 21
89.3797405119
  0
LINE
  5
310
100
AcDbEntity
  8
0
100
AcDbLine
 62
7
  6
CONTINUOUS
 10
136.1747854861
 20
90.2469551097
 11
135.0922536867
 21
90.5594551226
  0
LINE
  5
311
100
AcDbEntity
  8
0
100
AcDbLine
 62
7
  6
CONTINUOUS
 10
133.7066131823
 20
90.9594550817
 11
132.407575025
 21
91.3344550966
  0
LINE
  5
312
100
AcDbEntity
  8
0
100
AcDbLine
 62
7
  6
CONTINUOUS
 10
131.0219343007
 20
91.7344551192
 11
129.9394025013
 21
92.0469551321
  0
LINE
  5
313
100
AcDbEntity
  8
DRAFT
100
AcDbLine
 62
7
  6
CONTINUOUS
 10
129.9394025013
 20
92.0469551321
 11
131.0219343007
 21
91.7344551192
  0
LINE
  5
314
100
AcDbEntity
  8
DRAFT
100
AcDbLine
 62
7
  6
CONTINUOUS
 10
132.407575025
 20
91.3344550966
 11
133.7066131823
 21
90.9594550817
  0
LINE
  5
315
100
AcDbEntity
  8
DRAFT
100
AcDbLine
 62
7
  6
CONTINUOUS
 10
135.0922536867
 20
90.5594551226
 11
136.1747854861
 21
90.2469551097
  0
LINE
  5
316
100
AcDbEntity
  8
RACCORDO
100
AcDbLine
 62
7
  6
CONTINUOUS
 10
166.4755449337
 20
82.2938015255
 11
164.8247862654
 21
82.7703345063
  0
LINE
  5
317
100
AcDbEntity
  8
DRAFT
100
AcDbLine
 62
7
  6
CONTINUOUS
 10
135.0922527878
 20
89.692240519
 11
135.0811993585
 21
89.7201820274
  0
LWPOLYLINE
  5
318
100
AcDbEntity
  8
DRAFT
100
AcDbPolyline
 62
7
  6
CONTINUOUS
 90
34
 70
0
 10
133.7066131823
 20
90.9594550817
 10
133.7175062707
 20
90.9314079831
 10
133.7277412933
 20
90.9033118438
 10
133.7373183855
 20
90.8751667827
 10
133.746243996
 20
90.8469499035
 10
133.7545119594
 20
90.8186843508
 10
133.7621034555
 20
90.7904392751
 10
133.7690150281
 20
90.7622241269
 10
133.7752503389
 20
90.7340296383
 10
133.7808011869
 20
90.7058968332
 10
133.7856680948
 20
90.6778193457
 10
133.7898507094
 20
90.649803694
 10
133.7933394597
 20
90.6219101805
 10
133.7961328615
 20
90.5941444909
 10
133.7982324975
 20
90.5665010309
 10
133.7996333379
 20
90.5390231324
 10
133.8003337545
 20
90.5116977015
 10
133.8003354319
 20
90.4845378875
 10
133.7996382354
 20
90.4576263221
 10
133.7982404704
 20
90.430976993
 10
133.7961437775
 20
90.4045758724
 10
133.7933529497
 20
90.3784635033
 10
133.7898663772
 20
90.3526350443
 10
133.7856855734
 20
90.3270952596
 10
133.780819957
 20
90.3018990488
 10
133.7752699198
 20
90.2770526821
 10
133.769034902
 20
90.2525497494
 10
133.7621228381
 20
90.2284260798
 10
133.7545299926
 20
90.2046740862
 10
133.7462598975
 20
90.1813011843
 10
133.7373313297
 20
90.1583656564
 10
133.7277504407
 20
90.1358868379
 10
133.7175107969
 20
90.1138451522
 10
133.7066122633
 20
90.0922404839
  0
LWPOLYLINE
  5
319
100
AcDbEntity
  8
DRAFT
100
AcDbPolyline
 62
7
  6
CONTINUOUS
 90
34
 70
0
 10
136.1747854861
 20
90.2469551097
 10
136.1856785768
 20
90.218908011
 10
136.1959136015
 20
90.1908118717
 10
136.2054906957
 20
90.1626668103
 10
136.2144163081
 20
90.1344499309
 10
136.2226842733
 20
90.1061843778
 10
136.230275771
 20
90.0779393019
 10
136.2371873451
 20
90.0497241533
 10
136.2434226572
 20
90.0215296642
 10
136.2489735064
 20
89.9933968587
 10
136.2538404154
 20
89.9653193708
 10
136.2580230309
 20
89.9373037186
 10
136.2615117819
 20
89.9094102046
 10
136.2643051843
 20
89.8816445145
 10
136.2664048208
 20
89.8540010541
 10
136.2678056615
 20
89.8265231552
 10
136.2685060782
 20
89.7991977239
 10
136.2685077557
 20
89.7720379096
 10
136.267810559
 20
89.7451263438
 10
136.2664127937
 20
89.7184770145
 10
136.2643161004
 20
89.6920758938
 10
136.2615252719
 20
89.6659635245
 10
136.2580386986
 20
89.6401350655
 10
136.253857894
 20
89.6145952809
 10
136.2489922765
 20
89.5893990702
 10
136.2434422381
 20
89.5645527038
 10
136.237207219
 20
89.5400497714
 10
136.2302951536
 20
89.5159261023
 10
136.2227023065
 20
89.4921741093
 10
136.2144322096
 20
89.4688012081
 10
136.2055036399
 20
89.4458656811
 10
136.1959227489
 20
89.4233868635
 10
136.185683103
 20
89.4013451789
 10
136.1747845671
 20
89.3797405119
  0
LINE
  5
31A
100
AcDbEntity
  8
0
100
AcDbLine
 62
7
  6
CONTINUOUS
 10
133.7234569365
 20
90.9152792016
 11
133.7066131823
 21
90.9594550817
  0
LINE
  5
31B
100
AcDbEntity
  8
0
100
AcDbLine
 62
7
  6
CONTINUOUS
 10
136.1916292438
 20
90.2027792295
 11
136.1747854861
 21
90.2469551097
  0
LWPOLYLINE
  5
31C
100
AcDbEntity
  8
DRAFT
100
AcDbPolyline
 62
7
  6
CONTINUOUS
 90
31
 70
0
 10
135.0811993585
 20
89.7201820274
 10
135.0708125604
 20
89.7481779724
 10
135.0610925286
 20
89.7762284696
 10
135.0520330098
 20
89.8043566684
 10
135.0436405395
 20
89.8325396606
 10
135.0359344017
 20
89.8607084452
 10
135.0289183071
 20
89.8888537784
 10
135.0225887489
 20
89.916985076
 10
135.0169541267
 20
89.945061275
 10
135.0120140919
 20
89.9730888467
 10
135.0077691608
 20
90.0010614595
 10
135.0042289733
 20
90.0289187968
 10
135.0013951399
 20
90.0566552153
 10
134.9992661462
 20
90.0842764354
 10
134.9978468863
 20
90.1117391342
 10
134.9971390454
 20
90.139056385
 10
134.9971409919
 20
90.1662151545
 10
134.9978525697
 20
90.1931328947
 10
134.9992754
 20
90.2197955075
 10
135.0014078051
 20
90.2462170356
 10
135.0042446058
 20
90.2723570775
 10
135.0077873042
 20
90.2982203596
 10
135.0120342995
 20
90.3238020639
 10
135.0169756998
 20
90.3490474222
 10
135.0226108993
 20
90.373949991
 10
135.028940334
 20
90.3985160613
 10
135.0359556186
 20
90.4227099173
 10
135.0436603036
 20
90.4465390088
 10
135.0520506336
 20
90.4699957042
 10
135.0611072078
 20
90.4930216166
 10
135.0708234515
 20
90.5155971894
  0
LINE
  5
31D
100
AcDbEntity
  8
0
100
AcDbLine
 62
253
  6
CONTINUOUS
 10
132.2002657885
 20
128.8717972743
 11
132.200477637
 21
128.8613943028
  0
LINE
  5
31E
100
AcDbEntity
  8
DRAFT
100
AcDbLine
 62
7
  6
CONTINUOUS
 10
133.4601064003
 20
124.647734711
 11
133.4601064003
 21
124.6885104468
  0
LINE
  5
31F
100
AcDbEntity
  8
0
100
AcDbLine
 62
7
  6
CONTINUOUS
 10
133.5109652531
 20
126.9629298127
 11
133.5109652531
 21
125.516767047
  0
LINE
  5
320
100
AcDbEntity
  8
RACCORDO
100
AcDbLine
 62
7
  6
CONTINUOUS
 10
134.1812695418
 20
124.439552844
 11
134.1812695418
 21
124.4803285799
  0
LINE
  5
321
100
AcDbEntity
  8
0
100
AcDbLine
 62
7
  6
CONTINUOUS
 10
134.326131804
 20
125.2814487331
 11
134.326131804
 21
126.7276114989
  0
LINE
  5
322
100
AcDbEntity
  8
0
100
AcDbLine
 62
7
  6
CONTINUOUS
 10
134.826131804
 20
126.9934622549
 11
134.826131804
 21
125.7598479032
  0
LWPOLYLINE
  5
323
100
AcDbEntity
  8
0
100
AcDbPolyline
 62
7
  6
CONTINUOUS
 90
31
 70
0
 10
134.826131804
 20
126.9934622549
 10
134.8262709131
 20
127.0026545961
 10
134.8266782701
 20
127.0120059101
 10
134.8273538751
 20
127.0215161969
 10
134.8283010151
 20
127.0312121181
 10
134.8295164031
 20
127.0410670121
 10
134.830990178
 20
127.0510008938
 10
134.8327244598
 20
127.0610144822
 10
134.8347171284
 20
127.0711070582
 10
134.8369519637
 20
127.0811964802
 10
134.8394309032
 20
127.0912825936
 10
134.8421520092
 20
127.1013655529
 10
134.8450932489
 20
127.1113636796
 10
134.8482564551
 20
127.121276424
 10
134.8516397949
 20
127.1311043357
 10
134.8552157363
 20
127.1407673848
 10
134.8589858616
 20
127.1502642167
 10
134.8629485884
 20
127.159596186
 10
134.8670716382
 20
127.1686873255
 10
134.8713562553
 20
127.1775355507
 10
134.8758011954
 20
127.1861429461
 10
134.8803704466
 20
127.1944397988
 10
134.8850650781
 20
127.2024236894
 10
134.8898840207
 20
127.2100970373
 10
134.894788055
 20
127.2173973874
 10
134.8997778382
 20
127.2243216436
 10
134.9048527131
 20
127.2308729019
 10
134.9099714889
 20
127.2369979949
 10
134.9151204354
 20
127.2426792001
 10
134.9203132827
 20
127.24793424
 10
134.9255500309
 20
127.2527631146
  0
LWPOLYLINE
  5
324
100
AcDbEntity
  8
0
100
AcDbPolyline
 62
7
  6
CONTINUOUS
 90
8
 70
0
 10
138.9103066615
 20
130.6575683829
 10
138.9103026251
 20
130.657548357
 10
138.9099244075
 20
130.6571139378
 10
138.908950123
 20
130.656244361
 10
138.9074029392
 20
130.6549795595
 10
138.9053092055
 20
130.653335008
 10
138.9026915084
 20
130.6513130822
 10
138.899553702
 20
130.6489338192
  0
LWPOLYLINE
  5
325
100
AcDbEntity
  8
0
100
AcDbPolyline
 62
253
  6
CONTINUOUS
 90
19
 70
0
 10
138.9124570724
 20
125.9263182062
 10
138.9154015946
 20
125.9363276256
 10
138.9185666615
 20
125.9462517928
 10
138.9219436941
 20
125.9560638307
 10
138.9255235312
 20
125.9657371188
 10
138.9292964476
 20
125.9752453631
 10
138.933252164
 20
125.9845626441
 10
138.9373799043
 20
125.9936635722
 10
138.9416684319
 20
126.0025233686
 10
138.9461060781
 20
126.0111179236
 10
138.9506807615
 20
126.019423835
 10
138.955380031
 20
126.0274184939
 10
138.9601910969
 20
126.035080139
 10
138.9651008609
 20
126.0423879096
 10
138.9700959635
 20
126.0493219193
 10
138.9751628052
 20
126.0558632882
 10
138.9802875793
 20
126.0619941924
 10
138.9854563313
 20
126.067697942
 10
138.9906549977
 20
126.0729590215
  0
LWPOLYLINE
  5
326
100
AcDbEntity
  8
0
100
AcDbPolyline
 62
7
  6
CONTINUOUS
 90
25
 70
0
 10
141.9610337641
 20
124.4723206803
 10
141.967865379
 20
124.4851644267
 10
141.9741202687
 20
124.4983768834
 10
141.979798433
 20
124.5119580502
 10
141.9849061829
 20
124.5259281067
 10
141.9894372075
 20
124.5402668734
 10
141.9933725744
 20
124.5549138118
 10
141.9967097899
 20
124.5698702028
 10
141.9994513476
 20
124.5851347654
 10
142.0015857961
 20
124.6006431187
 10
142.0031105956
 20
124.6163962778
 10
142.0040282859
 20
124.6323932276
 10
142.0043350343
 20
124.6485665411
 10
142.0040282859
 20
124.6649169559
 10
142.0031105956
 20
124.6814437344
 10
142.0015857961
 20
124.698077237
 10
141.9994513476
 20
124.7148179147
 10
141.9967097899
 20
124.7316653164
 10
141.9933725744
 20
124.7485484496
 10
141.9894372075
 20
124.7654674732
 10
141.9849061829
 20
124.7824222281
 10
141.979798433
 20
124.7993412454
 10
141.9741202687
 20
124.816200702
 10
141.967865379
 20
124.8330244208
 10
141.9610337641
 20
124.849812402
  0
LINE
  5
327
100
AcDbEntity
  8
RACCORDO
100
AcDbLine
 62
7
  6
CONTINUOUS
 10
150.6647958918
 20
126.8687644138
 11
150.6460481076
 21
126.8499278695
  0
LINE
  5
328
100
AcDbEntity
  8
0
100
AcDbLine
 62
7
  6
CONTINUOUS
 10
147.3014535443
 20
121.3689506037
 11
147.9185492495
 21
121.983347573
  0
LINE
  5
329
100
AcDbEntity
  8
0
100
AcDbLine
 62
253
  6
CONTINUOUS
 10
147.6427227641
 20
121.4372800454
 11
148.129907125
 21
121.9223338099
  0
LINE
  5
32A
100
AcDbEntity
  8
0
100
AcDbLine
 62
7
  6
CONTINUOUS
 10
146.8973785657
 20
122.5865474883
 11
146.2653460358
 21
121.9896729134
  0
LWPOLYLINE
  5
32B
100
AcDbEntity
  8
0
100
AcDbPolyline
 62
7
  6
CONTINUOUS
 90
17
 70
0
 10
147.7394870266
 20
122.7742409153
 10
147.7301422496
 20
122.7655054649
 10
147.7211748443
 20
122.7562143793
 10
147.7126280929
 20
122.7463865884
 10
147.7045403284
 20
122.7360400017
 10
147.6969570686
 20
122.7252074489
 10
147.6899267142
 20
122.7139372589
 10
147.6834920578
 20
122.7022847981
 10
147.6776712738
 20
122.6902721787
 10
147.67247389
 20
122.6778989691
 10
147.6679202723
 20
122.6651802309
 10
147.6640484943
 20
122.6521900366
 10
147.6608873571
 20
122.6390132729
 10
147.6584487833
 20
122.62571011
 10
147.6567355178
 20
122.6123175352
 10
147.6557488868
 20
122.5988759621
 10
147.6554808445
 20
122.5872880445
  0
LINE
  5
32C
100
AcDbEntity
  8
0
100
AcDbLine
 62
253
  6
CONTINUOUS
 10
147.3299650501
 20
122.4616705267
 11
146.5572902557
 21
121.7506174209
  0
LINE
  5
32D
100
AcDbEntity
  8
0
100
AcDbLine
 62
253
  6
CONTINUOUS
 10
147.76265991
 20
121.9035656116
 11
146.9899733485
 21
121.1925016772
  0
LINE
  5
32E
100
AcDbEntity
  8
0
100
AcDbLine
 62
7
  6
CONTINUOUS
 10
147.7394870266
 20
122.7742409153
 11
148.8541647321
 21
123.7640288585
  0
LINE
  5
32F
100
AcDbEntity
  8
0
100
AcDbLine
 62
253
  6
CONTINUOUS
 10
147.9047536265
 20
122.8031751802
 11
149.019137141
 21
123.7927018939
  0
LWPOLYLINE
  5
330
100
AcDbEntity
  8
0
100
AcDbPolyline
 62
253
  6
CONTINUOUS
 90
20
 70
0
 10
147.7394870266
 20
122.7742409153
 10
147.740835845
 20
122.7754232955
 10
147.7477649533
 20
122.7810451427
 10
147.7550513233
 20
122.7862281189
 10
147.7626784499
 20
122.7909604835
 10
147.7706290559
 20
122.7952315166
 10
147.7788851314
 20
122.7990315435
 10
147.7874279746
 20
122.8023519561
 10
147.7962382339
 20
122.805185233
 10
147.8052959523
 20
122.8075249562
 10
147.8145806118
 20
122.8093658258
 10
147.8240711808
 20
122.8107036716
 10
147.8337461609
 20
122.8115354633
 10
147.8435836361
 20
122.8118593166
 10
147.8535613223
 20
122.8116744979
 10
147.8636566179
 20
122.8109814258
 10
147.8738466547
 20
122.8097816704
 10
147.8841083501
 20
122.8080779493
 10
147.8944184589
 20
122.8058741218
 10
147.9047536265
 20
122.8031751802
  0
LINE
  5
331
100
AcDbEntity
  8
0
100
AcDbLine
 62
253
  6
CONTINUOUS
 10
147.8232169587
 20
122.8915928464
 11
147.3307746479
 21
122.4614368159
  0
LINE
  5
332
100
AcDbEntity
  8
0
100
AcDbLine
 62
253
  6
CONTINUOUS
 10
147.870980022
 20
121.9970796262
 11
147.7637818539
 21
121.9034403563
  0
LINE
  5
333
100
AcDbEntity
  8
RACCORDO
100
AcDbLine
 62
253
  6
CONTINUOUS
 10
158.4414525093
 20
129.3340228173
 11
151.6699041778
 21
123.4468059397
  0
LINE
  5
334
100
AcDbEntity
  8
0
100
AcDbLine
 62
253
  6
CONTINUOUS
 10
151.097605438
 20
123.1926997786
 11
151.4695465351
 21
123.5153959321
  0
LINE
  5
335
100
AcDbEntity
  8
0
100
AcDbLine
 62
7
  6
CONTINUOUS
 10
148.8541653739
 20
123.7640294285
 11
148.8568030089
 21
123.7663136491
  0
LINE
  5
336
100
AcDbEntity
  8
0
100
AcDbLine
 62
253
  6
CONTINUOUS
 10
149.9605345197
 20
122.2097223542
 11
151.097605438
 21
123.1926997786
  0
LINE
  5
337
100
AcDbEntity
  8
RACCORDO
100
AcDbLine
 62
7
  6
CONTINUOUS
 10
157.9276191133
 20
129.996187138
 11
152.5874877737
 21
125.4567947857
  0
LINE
  5
338
100
AcDbEntity
  8
0
100
AcDbLine
 62
7
  6
CONTINUOUS
 10
148.8568036346
 20
123.7663141775
 11
149.2366185644
 21
124.0870791191
  0
LINE
  5
339
100
AcDbEntity
  8
0
100
AcDbLine
 62
253
  6
CONTINUOUS
 10
149.019137141
 20
123.7927018939
 11
149.3986504767
 21
124.1132121304
  0
LINE
  5
33A
100
AcDbEntity
  8
RACCORDO
100
AcDbLine
 62
7
  6
CONTINUOUS
 10
156.9408765416
 20
130.2810351827
 11
154.5241570591
 21
128.2547846641
  0
LWPOLYLINE
  5
33B
100
AcDbEntity
  8
RACCORDO
100
AcDbPolyline
 62
7
  6
CONTINUOUS
 90
8
 70
0
 10
157.9276191133
 20
129.996187138
 10
157.9664642324
 20
130.0277030773
 10
158.0022290731
 20
130.0530139447
 10
158.0345960854
 20
130.0720569401
 10
158.063128175
 20
130.0848688713
 10
158.0876850427
 20
130.0914693437
 10
158.1084235735
 20
130.0918520694
 10
158.1153195348
 20
130.0903796653
  0
LWPOLYLINE
  5
33C
100
AcDbEntity
  8
0
100
AcDbPolyline
 62
7
  6
CONTINUOUS
 90
14
 70
0
 10
156.5388071151
 20
124.3602748627
 10
156.5481482112
 20
124.3663019103
 10
156.5582022798
 20
124.3715940774
 10
156.5689750933
 20
124.3761324537
 10
156.5804796587
 20
124.3799165505
 10
156.5927096965
 20
124.3829068656
 10
156.6056350703
 20
124.3850268305
 10
156.619252811
 20
124.3862468198
 10
156.633551597
 20
124.3865576137
 10
156.6484768412
 20
124.3859172441
 10
156.663978784
 20
124.3843073473
 10
156.6800690373
 20
124.3817139743
 10
156.6967822481
 20
124.3781012266
 10
156.7120791874
 20
124.3740421613
  0
LINE
  5
33D
100
AcDbEntity
  8
RACCORDO
100
AcDbLine
 62
253
  6
CONTINUOUS
 10
124.1975997204
 20
95.8984004662
 11
161.4508380268
 21
85.144316884
  0
LINE
  5
33E
100
AcDbEntity
  8
0
100
AcDbLine
 62
253
  6
CONTINUOUS
 10
136.8179902327
 20
125.1848479032
 11
136.8179902327
 21
126.4184622549
  0
LINE
  5
33F
100
AcDbEntity
  8
0
100
AcDbLine
 62
253
  6
CONTINUOUS
 10
137.0911953135
 20
125.2305277373
 11
137.0911953135
 21
126.4550647953
  0
LWPOLYLINE
  5
340
100
AcDbEntity
  8
0
100
AcDbPolyline
 62
253
  6
CONTINUOUS
 90
31
 70
0
 10
136.8179902327
 20
126.4184622549
 10
136.8181263227
 20
126.4276132958
 10
136.8185342233
 20
126.4369751652
 10
136.8192128262
 20
126.4465223833
 10
136.8201602873
 20
126.4562289753
 10
136.821374029
 20
126.4660685129
 10
136.8228507444
 20
126.4760141843
 10
136.8245864122
 20
126.4860389113
 10
136.8265763085
 20
126.4961154153
 10
136.8288150147
 20
126.5062162622
 10
136.8312964365
 20
126.5163139593
 10
136.8340138185
 20
126.5263810224
 10
136.8369597609
 20
126.5363900422
 10
136.8401262459
 20
126.5463137836
 10
136.8435046515
 20
126.5561252299
 10
136.8470857699
 20
126.5657976491
 10
136.8508598361
 20
126.5753046812
 10
136.8548165886
 20
126.5846204918
 10
136.8589452921
 20
126.5937198074
 10
136.8632347686
 20
126.6025779755
 10
136.8676732914
 20
126.6111707624
 10
136.8722486379
 20
126.6194745256
 10
136.8769482513
 20
126.6274665367
 10
136.8817594208
 20
126.635125239
 10
136.8866691841
 20
126.642430019
 10
136.8916652181
 20
126.6493623874
 10
136.8967329196
 20
126.6559019284
 10
136.9018554523
 20
126.6620273452
 10
136.9070177769
 20
126.6677216438
 10
136.9122068164
 20
126.6729713806
 10
136.9174084596
 20
126.6777631146
  0
LWPOLYLINE
  5
341
100
AcDbEntity
  8
DRAFT
100
AcDbPolyline
 62
7
  6
CONTINUOUS
 90
3
 70
0
 10
129.9179722661
 20
92.0030971989
 10
129.9283544708
 20
92.0252417405
 10
129.9394025013
 20
92.0469551321
  0
LWPOLYLINE
  5
342
100
AcDbEntity
  8
0
100
AcDbPolyline
 62
7
  6
CONTINUOUS
 90
22
 70
0
 10
129.9394025013
 20
92.0469551321
 10
129.9223069288
 20
92.0125460225
 10
129.9068819494
 20
91.9771464308
 10
129.8931280218
 20
91.9407567621
 10
129.881029019
 20
91.9033148062
 10
129.8706020449
 20
91.8648836339
 10
129.8618972282
 20
91.8256514203
 10
129.854922915
 20
91.7856143314
 10
129.8496713514
 20
91.7447767358
 10
129.8461681401
 20
91.7033387884
 10
129.8444218843
 20
91.6612934908
 10
129.8444241929
 20
91.61864805
 10
129.8461747733
 20
91.5756235809
 10
129.8496819346
 20
91.5322224689
 10
129.8549371565
 20
91.4884421706
 10
129.8619144991
 20
91.4444960584
 10
129.8706224371
 20
91.400381203
 10
129.8810519073
 20
91.3561000459
 10
129.8931502827
 20
91.311873683
 10
129.9068996224
 20
91.2677754725
 10
129.9223168829
 20
91.2237312183
 10
129.9394016024
 20
91.1797405285
  0
LWPOLYLINE
  5
343
100
AcDbEntity
  8
0
100
AcDbPolyline
 62
7
  6
CONTINUOUS
 90
43
 70
0
 10
146.2653460358
 20
122.7973050352
 10
146.2612251256
 20
122.7899432426
 10
146.2568790544
 20
122.7826258574
 10
146.2523078754
 20
122.7753614016
 10
146.2475098986
 20
122.7681590443
 10
146.2424877358
 20
122.761026905
 10
146.2372482281
 20
122.7539720808
 10
146.2317923992
 20
122.7470035013
 10
146.2261216708
 20
122.7401299866
 10
146.2202437576
 20
122.7333586329
 10
146.214160499
 20
122.7266985497
 10
146.2078741094
 20
122.7201587122
 10
146.2013931401
 20
122.7137461788
 10
146.1947202856
 20
122.7074701785
 10
146.1878585857
 20
122.7013397751
 10
146.1808173823
 20
122.6953619495
 10
146.1736002412
 20
122.6895459677
 10
146.1662110819
 20
122.683900935
 10
146.1586600568
 20
122.6784337698
 10
146.1509516454
 20
122.6731537051
 10
146.1430906866
 20
122.6680698097
 10
146.1350881718
 20
122.6631889382
 10
146.1269495343
 20
122.6585202042
 10
146.1186805814
 20
122.6540725547
 10
146.1102931968
 20
122.6498527694
 10
146.1017938134
 20
122.6458697413
 10
146.0931892555
 20
122.6421321898
 10
146.0844923681
 20
122.6386467831
 10
146.0757106329
 20
122.6354220713
 10
146.066851934
 20
122.6324664139
 10
146.0579301435
 20
122.6297862885
 10
146.0489538429
 20
122.6273897542
 10
146.0399320037
 20
122.6252846462
 10
146.0308795553
 20
122.6234771148
 10
146.0218062567
 20
122.6219745558
 10
146.0127221379
 20
122.620784075
 10
146.0036430473
 20
122.6199112902
 10
145.9945799186
 20
122.6193627277
 10
145.9855438411
 20
122.6191445612
 10
145.9765514331
 20
122.6192616618
 10
145.9676269366
 20
122.6197186465
 10
145.9587702093
 20
122.6205203324
 10
145.9534804123
 20
122.6211705134
  0
LINE
  5
344
100
AcDbEntity
  8
0
100
AcDbLine
 62
7
  6
CONTINUOUS
 10
151.314108125
 20
121.3115474883
 11
150.6820755951
 21
120.7146729134
  0
LINE
  5
345
100
AcDbEntity
  8
RACCORDO
100
AcDbLine
 62
253
  6
CONTINUOUS
 10
158.8565962978
 20
128.2119353638
 11
152.1880832989
 21
122.1967774105
  0
LINE
  5
346
100
AcDbEntity
  8
0
100
AcDbLine
 62
253
  6
CONTINUOUS
 10
151.314108125
 20
122.9136981493
 11
151.6860492221
 21
123.2363943028
  0
LINE
  5
347
100
AcDbEntity
  8
0
100
AcDbLine
 62
7
  6
CONTINUOUS
 10
156.7615654062
 20
126.0377622698
 11
151.8090697366
 21
121.7409762592
  0
LINE
  5
348
100
AcDbEntity
  8
0
100
AcDbLine
 62
253
  6
CONTINUOUS
 10
150.1770372067
 20
121.9307207249
 11
151.314108125
 21
122.9136981493
  0
LINE
  5
349
100
AcDbEntity
  8
0
100
AcDbLine
 62
7
  6
CONTINUOUS
 10
156.3613012941
 20
125.7919445598
 11
151.6966624632
 21
121.773425444
  0
LINE
  5
34A
100
AcDbEntity
  8
0
100
AcDbLine
 62
7
  6
CONTINUOUS
 10
156.5181594807
 20
124.3442880315
 11
153.7389792556
 21
121.9971881344
  0
LINE
  5
34B
100
AcDbEntity
  8
0
100
AcDbLine
 62
7
  6
CONTINUOUS
 10
157.3566775584
 20
124.1477468307
 11
157.3290916628
 21
124.1275498505
  0
LWPOLYLINE
  5
34C
100
AcDbEntity
  8
RACCORDO
100
AcDbPolyline
 62
7
  6
CONTINUOUS
 90
14
 70
0
 10
169.2881804035
 20
86.4292753067
 10
169.2863986262
 20
86.4297797215
 10
169.2788413311
 20
86.4316829217
 10
169.2713289601
 20
86.4331776831
 10
169.263908002
 20
86.4342298366
 10
169.2565760003
 20
86.4348198853
 10
169.2493422393
 20
86.4349260583
 10
169.2422709548
 20
86.4345056329
 10
169.2353618042
 20
86.4335370202
 10
169.2286274694
 20
86.4319986173
 10
169.222152935
 20
86.4298452974
 10
169.2159732167
 20
86.4270489171
 10
169.2100735512
 20
86.4235996291
 10
169.2044663145
 20
86.4194810268
  0
LINE
  5
34D
100
AcDbEntity
  8
RACCORDO
100
AcDbLine
 62
7
  6
CONTINUOUS
 10
169.7599430305
 20
85.4159968606
 11
170.1456996604
 21
85.3046385136
  0
LINE
  5
34E
100
AcDbEntity
  8
RACCORDO
100
AcDbLine
 62
253
  6
CONTINUOUS
 10
168.2342380607
 20
86.4397541774
 11
168.9730358598
 21
86.2264816233
  0
LINE
  5
34F
100
AcDbEntity
  8
RACCORDO
100
AcDbLine
 62
7
  6
CONTINUOUS
 10
168.2342380607
 20
86.4737146382
 11
169.0032870312
 21
86.2517093231
  0
LINE
  5
350
100
AcDbEntity
  8
RACCORDO
100
AcDbLine
 62
253
  6
CONTINUOUS
 10
169.2044663145
 20
86.4194810268
 11
169.7340141697
 21
86.2666137284
  0
LINE
  5
351
100
AcDbEntity
  8
RACCORDO
100
AcDbLine
 62
7
  6
CONTINUOUS
 10
169.2882257589
 20
86.4292622187
 11
169.7594494574
 21
86.2932316541
  0
LWPOLYLINE
  5
352
100
AcDbEntity
  8
0
100
AcDbPolyline
 62
7
  6
CONTINUOUS
 90
28
 70
0
 10
170.1456996604
 20
85.3046385136
 10
170.1627861477
 20
85.2994741072
 10
170.1793975514
 20
85.2939927048
 10
170.1955338717
 20
85.2881943066
 10
170.2112191707
 20
85.2820687204
 10
170.2264293862
 20
85.2756261382
 10
170.2410923315
 20
85.2688971363
 10
170.255205405
 20
85.261880353
 10
170.2687712082
 20
85.25457715
 10
170.2817253586
 20
85.2470221878
 10
170.2940649488
 20
85.2392142695
 10
170.3057928861
 20
85.2311545921
 10
170.3168535105
 20
85.2228814062
 10
170.3272436499
 20
85.214393697
 10
170.3369664764
 20
85.2056924792
 10
170.3459758461
 20
85.1968190485
 10
170.3542683674
 20
85.1877725862
 10
170.3618474319
 20
85.1785539109
 10
170.3686770696
 20
85.1692067739
 10
170.3747537184
 20
85.1597305646
 10
170.3800809404
 20
85.1501258936
 10
170.384633453
 20
85.1404383441
 10
170.3884075737
 20
85.1306675222
 10
170.3914069851
 20
85.1208138218
 10
170.393617452
 20
85.110924008
 10
170.3950352243
 20
85.1009979091
 10
170.3956640522
 20
85.0910356969
 10
170.3956984199
 20
85.0881253897
  0
LINE
  5
353
100
AcDbEntity
  8
0
100
AcDbLine
 62
7
  6
CONTINUOUS
 10
137.7411953135
 20
127.0144544359
 11
137.7411953135
 21
125.8025256503
  0
LINE
  5
354
100
AcDbEntity
  8
0
100
AcDbLine
 62
253
  6
CONTINUOUS
 10
138.626131804
 20
127.8993849987
 11
138.626131804
 21
129.037665114
  0
LINE
  5
355
100
AcDbEntity
  8
0
100
AcDbLine
 62
7
  6
CONTINUOUS
 10
138.7964512018
 20
125.9050647953
 11
138.7964512018
 21
124.6760018724
  0
LINE
  5
356
100
AcDbEntity
  8
0
100
AcDbLine
 62
253
  6
CONTINUOUS
 10
138.8496104491
 20
129.2289513534
 11
138.8496104491
 21
130.6129074564
  0
LINE
  5
357
100
AcDbEntity
  8
0
100
AcDbLine
 62
253
  6
CONTINUOUS
 10
138.8964512018
 20
125.8184622549
 11
138.8964512018
 21
124.5848479032
  0
LINE
  5
358
100
AcDbEntity
  8
0
100
AcDbLine
 62
7
  6
CONTINUOUS
 10
138.9103066632
 20
129.341072081
 11
138.9103066632
 21
130.6574963342
  0
LINE
  5
359
100
AcDbEntity
  8
RACCORDO
100
AcDbLine
 62
253
  6
CONTINUOUS
 10
139.2787572979
 20
127.0743455491
 11
139.2787572979
 21
126.4129875231
  0
LINE
  5
35A
100
AcDbEntity
  8
0
100
AcDbLine
 62
7
  6
CONTINUOUS
 10
139.4921572078
 20
129.2833017417
 11
139.4921572078
 21
128.7172198891
  0
LINE
  5
35B
100
AcDbEntity
  8
RACCORDO
100
AcDbLine
 62
253
  6
CONTINUOUS
 10
139.6803584683
 20
127.2402196364
 11
139.6803584683
 21
126.6278742631
  0
LWPOLYLINE
  5
35C
100
AcDbEntity
  8
0
100
AcDbPolyline
 62
253
  6
CONTINUOUS
 90
12
 70
0
 10
138.8964512018
 20
125.8184622549
 10
138.8965866245
 20
125.8275905619
 10
138.8969928459
 20
125.8369342854
 10
138.8976692435
 20
125.8464684386
 10
138.8986146701
 20
125.8561693661
 10
138.8998269216
 20
125.8660090872
 10
138.9013022183
 20
125.875955129
 10
138.9030361599
 20
125.8859783424
 10
138.9050243047
 20
125.8960534916
 10
138.9072613084
 20
125.9061534423
 10
138.9097411545
 20
125.9162509075
 10
138.9124570724
 20
125.9263182062
  0
LWPOLYLINE
  5
35D
100
AcDbEntity
  8
0
100
AcDbPolyline
 62
7
  6
CONTINUOUS
 90
8
 70
0
 10
138.7964512018
 20
125.9050647953
 10
138.7978814235
 20
125.9289377645
 10
138.8021670153
 20
125.9525366482
 10
138.8092727288
 20
125.9755220109
 10
138.8192220532
 20
125.9977460204
 10
138.8318602575
 20
126.01868618
 10
138.8467193268
 20
126.0376557663
 10
138.8647426697
 20
126.0555734401
  0
LWPOLYLINE
  5
35E
100
AcDbEntity
  8
0
100
AcDbPolyline
 62
7
  6
CONTINUOUS
 90
4
 70
0
 10
147.2730129091
 20
124.1087150104
 10
147.2856597439
 20
124.1365972864
 10
147.2947603125
 20
124.1656407086
 10
147.300250665
 20
124.195463724
  0
LWPOLYLINE
  5
35F
100
AcDbEntity
  8
DRAFT
100
AcDbPolyline
 62
7
  6
CONTINUOUS
 90
3
 70
0
 10
132.3861447854
 20
91.2905971658
 10
132.3965269923
 20
91.3127417063
 10
132.407575025
 20
91.3344550966
  0
LWPOLYLINE
  5
360
100
AcDbEntity
  8
0
100
AcDbPolyline
 62
7
  6
CONTINUOUS
 90
21
 70
0
 10
131.0219333816
 20
90.8672405214
 10
131.0387945556
 20
90.901478035
 10
131.0540035385
 20
90.9367195833
 10
131.0675607856
 20
90.9729655528
 10
131.0794827601
 20
91.010278907
 10
131.0897539687
 20
91.0485975076
 10
131.0983267549
 20
91.0877339336
 10
131.1051933954
 20
91.1276923001
 10
131.1103621974
 20
91.168468976
 10
131.1138091737
 20
91.2098645923
 10
131.1155260303
 20
91.2518861335
 10
131.1155212653
 20
91.294526767
 10
131.1137956783
 20
91.3375660489
 10
131.1103409697
 20
91.3810009478
 10
131.1051652212
 20
91.4248342816
 10
131.0982934044
 20
91.4688540355
 10
131.0897165594
 20
91.513063012
 10
131.0794430555
 20
91.5574578755
 10
131.0675234802
 20
91.6018170785
 10
131.0539742975
 20
91.6460664227
 10
131.0387780584
 20
91.690279239
  0
LWPOLYLINE
  5
361
100
AcDbEntity
  8
0
100
AcDbPolyline
 62
7
  6
CONTINUOUS
 90
22
 70
0
 10
132.407575025
 20
91.3344550966
 10
132.3904794491
 20
91.3000459889
 10
132.3750544664
 20
91.2646463987
 10
132.361300536
 20
91.2282567313
 10
132.3492015307
 20
91.1908147764
 10
132.3387745543
 20
91.1523836047
 10
132.3300697358
 20
91.1131513914
 10
132.3230954211
 20
91.0731143027
 10
132.3178438564
 20
91.032276707
 10
132.3143406443
 20
90.9908387593
 10
132.3125943881
 20
90.9487934613
 10
132.3125966968
 20
90.90614802
 10
132.3143472775
 20
90.8631235503
 10
132.3178544395
 20
90.8197224375
 10
132.3231096626
 20
90.7759421385
 10
132.3300870067
 20
90.7319960255
 10
132.3387949465
 20
90.6878811695
 10
132.349224419
 20
90.6436000117
 10
132.3613227969
 20
90.5993736483
 10
132.3750721394
 20
90.5552754373
 10
132.3904894031
 20
90.511231183
 10
132.4075741261
 20
90.467240493
  0
LINE
  5
362
100
AcDbEntity
  8
0
100
AcDbLine
 62
253
  6
CONTINUOUS
 10
146.8973785657
 20
123.4616532968
 11
147.2693196628
 21
124.163862786
  0
LINE
  5
363
100
AcDbEntity
  8
0
100
AcDbLine
 62
7
  6
CONTINUOUS
 10
146.901071812
 20
123.4065055212
 11
147.2730129091
 21
124.1087150104
  0
LINE
  5
364
100
AcDbEntity
  8
0
100
AcDbLine
 62
7
  6
CONTINUOUS
 10
153.7389792556
 20
121.9971881344
 11
152.9965368382
 21
121.3379298127
  0
LINE
  5
365
100
AcDbEntity
  8
0
100
AcDbLine
 62
7
  6
CONTINUOUS
 10
153.8117033892
 20
121.1026114989
 11
154.4111216161
 21
121.6277631146
  0
LINE
  5
366
100
AcDbEntity
  8
0
100
AcDbLine
 62
253
  6
CONTINUOUS
 10
156.4029800448
 20
121.0527631146
 11
156.5535618179
 21
121.1846881344
  0
LINE
  5
367
100
AcDbEntity
  8
0
100
AcDbLine
 62
7
  6
CONTINUOUS
 10
157.313157822
 20
124.1147917783
 11
155.0617033892
 21
122.1876624478
  0
LINE
  5
368
100
AcDbEntity
  8
0
100
AcDbLine
 62
7
  6
CONTINUOUS
 10
156.2722676747
 20
121.8382026398
 11
157.3322646576
 21
122.7455056019
  0
LINE
  5
369
100
AcDbEntity
  8
0
100
AcDbLine
 62
7
  6
CONTINUOUS
 10
156.7052803766
 20
121.7132026398
 11
160.4976249568
 21
124.9592547762
  0
LINE
  5
36A
100
AcDbEntity
  8
0
100
AcDbLine
 62
253
  6
CONTINUOUS
 10
156.5535618179
 20
121.1846881344
 11
157.0535618179
 21
121.6126624478
  0
LWPOLYLINE
  5
36B
100
AcDbEntity
  8
0
100
AcDbPolyline
 62
7
  6
CONTINUOUS
 90
6
 70
0
 10
157.313157822
 20
124.1147917783
 10
157.3163537725
 20
124.1174916209
 10
157.3195451318
 20
124.1201173494
 10
157.3227318999
 20
124.1226689638
 10
157.325914077
 20
124.1251464642
 10
157.3290916628
 20
124.1275498505
  0
LWPOLYLINE
  5
36C
100
AcDbEntity
  8
0
100
AcDbPolyline
 62
7
  6
CONTINUOUS
 90
30
 70
0
 10
141.5091445059
 20
130.1487375786
 10
141.5088396446
 20
130.1786398857
 10
141.5079335052
 20
130.2079163522
 10
141.5064260878
 20
130.2365669779
 10
141.5043136519
 20
130.2646282806
 10
141.501599938
 20
130.2920637427
 10
141.4982961675
 20
130.3187638111
 10
141.4944016419
 20
130.3447174524
 10
141.4899170598
 20
130.3699357002
 10
141.4848557384
 20
130.3943421018
 10
141.4792129569
 20
130.4179443862
 10
141.4729934362
 20
130.4407348245
 10
141.466224656
 20
130.4626137774
 10
141.4589087164
 20
130.4835662376
 10
141.4510435174
 20
130.5036072124
 10
141.4426502385
 20
130.5226820838
 10
141.4337213039
 20
130.540799064
 10
141.4242642895
 20
130.5579499409
 10
141.4143231025
 20
130.5740554604
 10
141.4039031642
 20
130.5891010951
 10
141.3929990533
 20
130.6031013724
 10
141.3816384138
 20
130.6160206205
 10
141.3698111231
 20
130.6278638906
 10
141.3575273038
 20
130.6386261316
 10
141.344844967
 20
130.648256518
 10
141.3317720313
 20
130.6567442946
 10
141.3183005783
 20
130.6641002165
 10
141.3044648635
 20
130.6703057234
 10
141.2902538206
 20
130.6753607331
 10
141.2864977443
 20
130.6764869952
  0
LINE
  5
36D
100
AcDbEntity
  8
RACCORDO
100
AcDbLine
 62
7
  6
CONTINUOUS
 10
140.7592115922
 20
126.7804050871
 11
140.7592117983
 21
126.7802049096
  0
LINE
  5
36E
100
AcDbEntity
  8
0
100
AcDbLine
 62
253
  6
CONTINUOUS
 10
139.9921572078
 20
128.1361633115
 11
139.9921572078
 21
128.650232591
  0
LINE
  5
36F
100
AcDbEntity
  8
0
100
AcDbLine
 62
7
  6
CONTINUOUS
 10
140.3883096305
 20
124.9776114989
 11
140.3883096305
 21
123.5314487331
  0
LINE
  5
370
100
AcDbEntity
  8
RACCORDO
100
AcDbLine
 62
253
  6
CONTINUOUS
 10
140.6092118357
 20
126.9720827655
 11
140.6092118357
 21
126.5247721194
  0
LINE
  5
371
100
AcDbEntity
  8
0
100
AcDbLine
 62
7
  6
CONTINUOUS
 10
141.2034761815
 20
123.2961304193
 11
141.2034761815
 21
124.7422931851
  0
LINE
  5
372
100
AcDbEntity
  8
DRAFT
100
AcDbLine
 62
7
  6
CONTINUOUS
 10
141.2543350343
 20
122.4385104468
 11
141.2543350343
 21
122.397734711
  0
LINE
  5
373
100
AcDbEntity
  8
0
100
AcDbLine
 62
7
  6
CONTINUOUS
 10
141.5091445059
 20
130.1487375786
 11
141.5091445059
 21
129.684559265
  0
LINE
  5
374
100
AcDbEntity
  8
RACCORDO
100
AcDbLine
 62
253
  6
CONTINUOUS
 10
141.7036284285
 20
126.3743455491
 11
141.7036284285
 21
126.1185719833
  0
LINE
  5
375
100
AcDbEntity
  8
0
100
AcDbLine
 62
7
  6
CONTINUOUS
 10
141.9610337641
 20
124.0115474883
 11
141.9610337641
 21
125.3971881344
  0
LINE
  5
376
100
AcDbEntity
  8
RACCORDO
100
AcDbLine
 62
253
  6
CONTINUOUS
 10
142.1052295989
 20
126.5402196364
 11
142.1052295989
 21
126.4623219537
  0
LWPOLYLINE
  5
377
100
AcDbEntity
  8
RACCORDO
100
AcDbPolyline
 62
7
  6
CONTINUOUS
 90
7
 70
0
 10
140.7592066181
 20
126.7804458723
 10
140.7590702245
 20
126.7761451039
 10
140.7578237981
 20
126.7669051276
 10
140.7549951221
 20
126.7561299657
 10
140.7503063397
 20
126.7439817655
 10
140.7436024432
 20
126.7307458685
 10
140.73742821
 20
126.7206265464
  0
LWPOLYLINE
  5
378
100
AcDbEntity
  8
0
100
AcDbPolyline
 62
253
  6
CONTINUOUS
 90
32
 70
0
 10
145.7603076474
 20
122.8657467907
 10
145.7570690086
 20
122.8543608219
 10
145.7533506446
 20
122.8431402556
 10
145.7491606194
 20
122.8321105036
 10
145.744507708
 20
122.8212957814
 10
145.7394023978
 20
122.810721471
 10
145.7338571986
 20
122.8004138758
 10
145.7278851279
 20
122.7903970616
 10
145.7214992337
 20
122.7806927911
 10
145.7147137885
 20
122.7713227816
 10
145.7075439853
 20
122.7623080842
 10
145.7000060736
 20
122.7536691971
 10
145.692117209
 20
122.7454258053
 10
145.6838952612
 20
122.7375965732
 10
145.6753587322
 20
122.7301991111
 10
145.666526872
 20
122.7232501023
 10
145.6574196013
 20
122.7167652267
 10
145.6480574889
 20
122.7107591361
 10
145.6384616873
 20
122.7052454027
 10
145.6286538647
 20
122.7002364761
 10
145.6186561532
 20
122.6957436589
 10
145.6084911206
 20
122.6917770925
 10
145.5981817123
 20
122.6883457308
 10
145.5877511999
 20
122.6854573195
 10
145.5772231287
 20
122.6831183789
 10
145.5666212514
 20
122.6813341868
 10
145.5559695122
 20
122.6801087738
 10
145.5452919929
 20
122.6794449074
 10
145.5346128212
 20
122.6793440797
 10
145.5239560777
 20
122.6798065103
 10
145.5133457798
 20
122.6808311539
 10
145.5109595747
 20
122.681140016
  0
LWPOLYLINE
  5
379
100
AcDbEntity
  8
DRAFT
100
AcDbPolyline
 62
7
  6
CONTINUOUS
 90
3
 70
0
 10
135.0708234515
 20
90.5155971894
 10
135.0812056563
 20
90.537741731
 10
135.0922536867
 20
90.5594551226
  0
LWPOLYLINE
  5
37A
100
AcDbEntity
  8
0
100
AcDbPolyline
 62
7
  6
CONTINUOUS
 90
21
 70
0
 10
133.7066122633
 20
90.0922404839
 10
133.7234734337
 20
90.1264779994
 10
133.7386824134
 20
90.1617195493
 10
133.7522396576
 20
90.19796552
 10
133.7641616296
 20
90.2352788752
 10
133.7744328359
 20
90.2735974763
 10
133.7830056203
 20
90.3127339027
 10
133.7898722594
 20
90.3526922694
 10
133.7950410602
 20
90.3934689452
 10
133.7984880358
 20
90.4348645612
 10
133.800204892
 20
90.4768861021
 10
133.800200127
 20
90.519526735
 10
133.7984745404
 20
90.5625660162
 10
133.7950198325
 20
90.6060009144
 10
133.7898440852
 20
90.6498342475
 10
133.7829722699
 20
90.6938540006
 10
133.7743954267
 20
90.7380629765
 10
133.7641219251
 20
90.7824578393
 10
133.7522023523
 20
90.8268170418
 10
133.7386531724
 20
90.8710663856
 10
133.7234569365
 20
90.9152792016
  0
LWPOLYLINE
  5
37B
100
AcDbEntity
  8
0
100
AcDbPolyline
 62
7
  6
CONTINUOUS
 90
22
 70
0
 10
135.0922536867
 20
90.5594551226
 10
135.0751581142
 20
90.525046013
 10
135.0597331348
 20
90.4896464213
 10
135.0459792072
 20
90.4532567526
 10
135.0338802045
 20
90.4158147967
 10
135.0234532303
 20
90.3773836244
 10
135.0147484136
 20
90.3381514108
 10
135.0077741004
 20
90.2981143219
 10
135.0025225369
 20
90.2572767263
 10
134.9990193255
 20
90.2158387789
 10
134.9972730697
 20
90.1737934813
 10
134.9972753784
 20
90.1311480405
 10
134.9990259587
 20
90.0881235714
 10
135.00253312
 20
90.0447224594
 10
135.0077883419
 20
90.0009421611
 10
135.0147656845
 20
89.9569960489
 10
135.0234736225
 20
89.9128811935
 10
135.0339030927
 20
89.8686000364
 10
135.0460014681
 20
89.8243736735
 10
135.0597508078
 20
89.780275463
 10
135.0751680683
 20
89.7362312088
 10
135.0922527878
 20
89.692240519
  0
LINE
  5
37C
100
AcDbEntity
  8
0
100
AcDbLine
 62
253
  6
CONTINUOUS
 10
151.314108125
 20
122.1866532968
 11
151.6860492221
 21
122.888862786
  0
LINE
  5
37D
100
AcDbEntity
  8
0
100
AcDbLine
 62
7
  6
CONTINUOUS
 10
151.314108125
 20
122.1245328241
 11
151.6897424684
 21
122.8337150104
  0
LINE
  5
37E
100
AcDbEntity
  8
0
100
AcDbLine
 62
7
  6
CONTINUOUS
 10
153.8117033892
 20
119.6564487331
 11
154.3117033892
 21
120.1348479032
  0
LINE
  5
37F
100
AcDbEntity
  8
0
100
AcDbLine
 62
7
  6
CONTINUOUS
 10
156.7267668986
 20
119.7490474883
 11
156.5767668986
 21
119.6055277373
  0
LINE
  5
380
100
AcDbEntity
  8
0
100
AcDbLine
 62
253
  6
CONTINUOUS
 10
156.5767668986
 20
120.8300647953
 11
156.7267668986
 21
120.9614801224
  0
LINE
  5
381
100
AcDbEntity
  8
0
100
AcDbLine
 62
7
  6
CONTINUOUS
 10
158.5006061574
 20
120.5622445819
 11
158.3492976515
 21
120.4296777573
  0
LINE
  5
382
100
AcDbEntity
  8
0
100
AcDbLine
 62
253
  6
CONTINUOUS
 10
158.632022787
 20
120.5846881344
 11
158.4814410138
 21
120.4527631146
  0
LINE
  5
383
100
AcDbEntity
  8
0
100
AcDbLine
 62
7
  6
CONTINUOUS
 10
159.7583512523
 20
123.7682587696
 11
157.1735008958
 21
121.529712696
  0
LINE
  5
384
100
AcDbEntity
  8
0
100
AcDbLine
 62
7
  6
CONTINUOUS
 10
158.5015863687
 20
120.5630934286
 11
158.5006069417
 21
120.562245269
  0
LINE
  5
385
100
AcDbEntity
  8
0
100
AcDbLine
 62
7
  6
CONTINUOUS
 10
157.2267668986
 20
120.1775256503
 11
156.7267668986
 21
119.7490474883
  0
LINE
  5
386
100
AcDbEntity
  8
0
100
AcDbLine
 62
253
  6
CONTINUOUS
 10
156.7267668986
 20
120.9614801224
 11
157.2267668986
 21
121.3894544359
  0
LINE
  5
387
100
AcDbEntity
  8
0
100
AcDbLine
 62
7
  6
CONTINUOUS
 10
159.0015875225
 20
120.9910687297
 11
158.5015871965
 21
120.5630941372
  0
LINE
  5
388
100
AcDbEntity
  8
0
100
AcDbLine
 62
253
  6
CONTINUOUS
 10
159.132022787
 20
121.0126624478
 11
158.632022787
 21
120.5846881344
  0
LINE
  5
389
100
AcDbEntity
  8
0
100
AcDbLine
 62
7
  6
CONTINUOUS
 10
164.2145991912
 20
122.1690096088
 11
164.1905696524
 21
122.1514012824
  0
LWPOLYLINE
  5
38A
100
AcDbEntity
  8
0
100
AcDbPolyline
 62
7
  6
CONTINUOUS
 90
14
 70
0
 10
163.3944424841
 20
122.3798791227
 10
163.4037388749
 20
122.386044527
 10
163.4137564013
 20
122.3914709907
 10
163.4245011948
 20
122.3961393292
 10
163.4359870478
 20
122.4000493463
 10
163.4482075762
 20
122.4031606181
 10
163.461131349
 20
122.4053945466
 10
163.4747557186
 20
122.4067207976
 10
163.4890689545
 20
122.4071303551
 10
163.5040133749
 20
122.4065808719
 10
163.5195392071
 20
122.4050530446
 10
163.5356570756
 20
122.4025337859
 10
163.5523963187
 20
122.3989900221
 10
163.5690487421
 20
122.3946068473
  0
LWPOLYLINE
  5
38B
100
AcDbEntity
  8
RACCORDO
100
AcDbPolyline
 62
7
  6
CONTINUOUS
 90
4
 70
0
 10
169.7595255718
 20
86.2932152702
 10
169.7596446729
 20
86.2931653553
 10
169.7599291925
 20
86.2928000163
 10
169.7599429663
 20
86.2926671112
  0
LWPOLYLINE
  5
38C
100
AcDbEntity
  8
0
100
AcDbPolyline
 62
253
  6
CONTINUOUS
 90
22
 70
0
 10
143.3637512836
 20
123.4140751715
 10
143.3638702868
 20
123.4047331329
 10
143.3642270697
 20
123.3956150014
 10
143.364820953
 20
123.3867381382
 10
143.3656508034
 20
123.3781194682
 10
143.3667150422
 20
123.3697753776
 10
143.3680116543
 20
123.3617216905
 10
143.3695381875
 20
123.3539736974
 10
143.3712917327
 20
123.3465462148
 10
143.3732689304
 20
123.3394534794
 10
143.3754659978
 20
123.3327090349
 10
143.3778787608
 20
123.3263256717
 10
143.3805026417
 20
123.3203154982
 10
143.3833326674
 20
123.314689922
 10
143.3863634326
 20
123.3094597032
 10
143.389589119
 20
123.3046348719
 10
143.3930035464
 20
123.3002246379
 10
143.396600235
 20
123.2962373383
 10
143.4003723774
 20
123.2926805088
 10
143.4043132745
 20
123.2895605738
 10
143.4084149789
 20
123.2868839282
 10
143.4126681733
 20
123.2846563666
  0
LINE
  5
38D
100
AcDbEntity
  8
0
100
AcDbLine
 62
253
  6
CONTINUOUS
 10
143.2387518342
 20
123.5220660168
 11
143.2387512836
 21
123.5223283914
  0
LINE
  5
38E
100
AcDbEntity
  8
0
100
AcDbLine
 62
7
  6
CONTINUOUS
 10
143.2387512836
 20
123.8623022811
 11
143.2387512836
 21
123.522328347
  0
LINE
  5
38F
100
AcDbEntity
  8
0
100
AcDbLine
 62
253
  6
CONTINUOUS
 10
143.3637512836
 20
123.7540491056
 11
143.3637512836
 21
123.4140751715
  0
LINE
  5
390
100
AcDbEntity
  8
0
100
AcDbLine
 62
7
  6
CONTINUOUS
 10
143.7337128952
 20
123.1914057708
 11
143.7337128952
 21
122.6435691102
  0
LINE
  5
391
100
AcDbEntity
  8
0
100
AcDbLine
 62
253
  6
CONTINUOUS
 10
143.8587128952
 20
123.155321379
 11
143.8587128952
 21
122.5296296036
  0
LWPOLYLINE
  5
392
100
AcDbEntity
  8
0
100
AcDbPolyline
 62
253
  6
CONTINUOUS
 90
34
 70
0
 10
143.3637512836
 20
123.7540491056
 10
143.3638918584
 20
123.7644359238
 10
143.3643132674
 20
123.7750428784
 10
143.365014564
 20
123.7858461131
 10
143.3659941728
 20
123.796821337
 10
143.3672498913
 20
123.8079438584
 10
143.3687788931
 20
123.8191886393
 10
143.3705777378
 20
123.8305303814
 10
143.3726423798
 20
123.8419435805
 10
143.3749681742
 20
123.8534025622
 10
143.3775498897
 20
123.8648815547
 10
143.3803817184
 20
123.8763547375
 10
143.383457288
 20
123.887796296
 10
143.3867696792
 20
123.8991804943
 10
143.3903114414
 20
123.9104817294
 10
143.3940746061
 20
123.9216745795
 10
143.3980507102
 20
123.9327338763
 10
143.4022308078
 20
123.9436347404
 10
143.4066054878
 20
123.9543526354
 10
143.4111648958
 20
123.9648634282
 10
143.4158987871
 20
123.9751435115
 10
143.4207965453
 20
123.9851698315
 10
143.4258472043
 20
123.9949199257
 10
143.4310393604
 20
124.0043717668
 10
143.4363612204
 20
124.0135038999
 10
143.4418007343
 20
124.0222956884
 10
143.4473457331
 20
124.0307275049
 10
143.4529838483
 20
124.0387805556
 10
143.4587032656
 20
124.0464378505
 10
143.4644902779
 20
124.0536809245
 10
143.4703293329
 20
124.060490635
 10
143.4762063948
 20
124.0668513596
 10
143.4821090623
 20
124.0727504174
 10
143.4880240672
 20
124.0781751802
  0
LWPOLYLINE
  5
393
100
AcDbEntity
  8
0
100
AcDbPolyline
 62
253
  6
CONTINUOUS
 90
11
 70
0
 10
147.3018518417
 20
124.2202798253
 10
147.3010540462
 20
124.2143654998
 10
147.2996964209
 20
124.2084769326
 10
147.2977820454
 20
124.2026272839
 10
147.2953152025
 20
124.1968295884
 10
147.2923011728
 20
124.1910964209
 10
147.2887469124
 20
124.1854411476
 10
147.2846613849
 20
124.1798777176
 10
147.2800544896
 20
124.1744189747
 10
147.2749366383
 20
124.1690766923
 10
147.2693196628
 20
124.163862786
  0
LWPOLYLINE
  5
394
100
AcDbEntity
  8
0
100
AcDbPolyline
 62
7
  6
CONTINUOUS
 90
21
 70
0
 10
136.1747845671
 20
89.3797405119
 10
136.191645741
 20
89.4139780255
 10
136.2068547239
 20
89.4492195738
 10
136.220411971
 20
89.4854655433
 10
136.2323339455
 20
89.5227788975
 10
136.2426051541
 20
89.5610974981
 10
136.2511779403
 20
89.6002339241
 10
136.2580445808
 20
89.6401922906
 10
136.2632133828
 20
89.6809689665
 10
136.2666603592
 20
89.7223645828
 10
136.2683772157
 20
89.764386124
 10
136.2683724508
 20
89.8070267575
 10
136.2666468637
 20
89.8500660394
 10
136.2631921551
 20
89.8935009383
 10
136.2580164066
 20
89.9373342721
 10
136.2511445898
 20
89.981354026
 10
136.2425677449
 20
90.0255630025
 10
136.232294241
 20
90.069957866
 10
136.2203746656
 20
90.114317069
 10
136.2068254829
 20
90.1585664132
 10
136.1916292438
 20
90.2027792295
  0
LWPOLYLINE
  5
395
100
AcDbEntity
  8
0
100
AcDbPolyline
 62
7
  6
CONTINUOUS
 90
4
 70
0
 10
151.6897424684
 20
122.8337150104
 10
151.6954495111
 20
122.8451916417
 10
151.7005930945
 20
122.8570253982
 10
151.7051472909
 20
122.8691899908
  0
LINE
  5
396
100
AcDbEntity
  8
0
100
AcDbLine
 62
7
  6
CONTINUOUS
 10
160.4732994425
 20
119.8777631146
 11
159.8738812157
 21
119.3526114989
  0
LINE
  5
397
100
AcDbEntity
  8
0
100
AcDbLine
 62
7
  6
CONTINUOUS
 10
164.1703339899
 20
122.1352955251
 11
161.4466053493
 21
119.7721881344
  0
LINE
  5
398
100
AcDbEntity
  8
0
100
AcDbLine
 62
7
  6
CONTINUOUS
 10
161.4466053493
 20
119.7721881344
 11
160.6890477667
 21
119.1172931851
  0
LINE
  5
399
100
AcDbEntity
  8
0
100
AcDbLine
 62
7
  6
CONTINUOUS
 10
163.3753356485
 20
122.3647917783
 11
161.1238812157
 21
120.4376624478
  0
LINE
  5
39A
100
AcDbEntity
  8
0
100
AcDbLine
 62
7
  6
CONTINUOUS
 10
165.6937773795
 20
123.4592547762
 11
164.2277866833
 21
122.2044420526
  0
LWPOLYLINE
  5
39B
100
AcDbEntity
  8
0
100
AcDbPolyline
 62
7
  6
CONTINUOUS
 90
7
 70
0
 10
163.3753356485
 20
122.3647917783
 10
163.378531599
 20
122.3674916209
 10
163.3817229583
 20
122.3701173494
 10
163.3849097264
 20
122.3726689638
 10
163.3880919034
 20
122.3751464642
 10
163.3912694893
 20
122.3775498505
 10
163.3944424841
 20
122.3798791227
  0
LWPOLYLINE
  5
39C
100
AcDbEntity
  8
0
100
AcDbPolyline
 62
7
  6
CONTINUOUS
 90
18
 70
0
 10
165.6937773795
 20
123.4592547762
 10
165.7111918469
 20
123.4736326213
 10
165.728542127
 20
123.4869140637
 10
165.7458282197
 20
123.4990991034
 10
165.7630730567
 20
123.5102008897
 10
165.7802537064
 20
123.5202062733
 10
165.797301374
 20
123.5290758058
 10
165.8142100348
 20
123.5368031205
 10
165.8309857135
 20
123.5433945841
 10
165.8475776901
 20
123.5488298495
 10
165.8639927595
 20
123.5531065561
 10
165.8802241268
 20
123.5562270643
 10
165.8962006862
 20
123.5581781088
 10
165.9119127358
 20
123.5589550226
 10
165.9273699775
 20
123.5585624725
 10
165.9425304119
 20
123.557001194
 10
165.9574025238
 20
123.5542653278
 10
165.9682217521
 20
123.5514869952
  0
LWPOLYLINE
  5
39D
100
AcDbEntity
  8
0
100
AcDbPolyline
 62
253
  6
CONTINUOUS
 90
18
 70
0
 10
164.3111716697
 20
119.7416502476
 10
164.3183920279
 20
119.7467862679
 10
164.3260144966
 20
119.7515145987
 10
164.3339557973
 20
119.7557775732
 10
164.3421979414
 20
119.759565535
 10
164.3507222583
 20
119.7628699035
 10
164.3595094387
 20
119.7656831935
 10
164.3685395777
 20
119.7679990323
 10
164.3777922199
 20
119.7698121739
 10
164.387246406
 20
119.7711185113
 10
164.3968807201
 20
119.7719150853
 10
164.4066733385
 20
119.7722000914
 10
164.4166020786
 20
119.7719728841
 10
164.4266444496
 20
119.771233978
 10
164.4367777033
 20
119.7699850469
 10
164.4469788856
 20
119.76822892
 10
164.4572248885
 20
119.7659695752
 10
164.4674925026
 20
119.7632121304
  0
LWPOLYLINE
  5
39E
100
AcDbEntity
  8
0
100
AcDbPolyline
 62
7
  6
CONTINUOUS
 90
18
 70
0
 10
163.9312883595
 20
119.420836352
 10
163.9385747807
 20
119.4260193645
 10
163.9461996467
 20
119.4307497032
 10
163.9541457062
 20
119.4350166709
 10
163.962394954
 20
119.4388105979
 10
163.9709286671
 20
119.4421228619
 10
163.9797275505
 20
119.4449459919
 10
163.9887716829
 20
119.4472736033
 10
163.99804051
 20
119.4491003706
 10
164.0075130859
 20
119.4504222012
 10
164.0171679795
 20
119.4512361253
 10
164.0269832239
 20
119.4515402225
 10
164.0369366493
 20
119.4513338615
 10
164.0470057511
 20
119.4506175474
 10
164.0571675978
 20
119.4493928038
 10
164.0673991742
 20
119.4476624111
 10
164.0776774335
 20
119.4454304011
 10
164.0879791668
 20
119.4427018939
  0
LWPOLYLINE
  5
39F
100
AcDbEntity
  8
0
100
AcDbPolyline
 62
253
  6
CONTINUOUS
 90
12
 70
0
 10
132.200477637
 20
128.513862786
 10
132.2031708676
 20
128.507606705
 10
132.2053677447
 20
128.5015043786
 10
132.20706331
 20
128.4955695794
 10
132.2082537368
 20
128.4898157019
 10
132.2089363384
 20
128.4842557323
 10
132.2091095741
 20
128.4789022191
 10
132.208773053
 20
128.4737672448
 10
132.2079275345
 20
128.4688623989
 10
132.206574927
 20
128.4641987512
 10
132.2047182833
 20
128.4597868273
 10
132.2041708833
 20
128.4587150104
  0
LWPOLYLINE
  5
3A0
100
AcDbEntity
  8
0
100
AcDbPolyline
 62
253
  6
CONTINUOUS
 90
24
 70
0
 10
145.4195321768
 20
122.8206223455
 10
145.4196508521
 20
122.8112930358
 10
145.4200068144
 20
122.8021839282
 10
145.4205996294
 20
122.7933125681
 10
145.4214285188
 20
122.7846951147
 10
145.4224920912
 20
122.7763492619
 10
145.4237880788
 20
122.7682938847
 10
145.4253138207
 20
122.7605452144
 10
145.4270665504
 20
122.7531170415
 10
145.4290429544
 20
122.7460234298
 10
145.4312392966
 20
122.7392778415
 10
145.4336513864
 20
122.7328931941
 10
145.4362746002
 20
122.7268817385
 10
145.4391039205
 20
122.7212549562
 10
145.4421339762
 20
122.7160235143
 10
145.4453590196
 20
122.711197338
 10
145.4487729354
 20
122.7067855944
 10
145.4523692049
 20
122.7027967224
 10
145.4561409338
 20
122.6992383652
 10
145.4600809077
 20
122.6961173078
 10
145.4641816464
 20
122.6934394552
 10
145.4684353743
 20
122.6912098784
 10
145.4728340046
 20
122.689432818
 10
145.4751946524
 20
122.6886832902
  0
LINE
  5
3A1
100
AcDbEntity
  8
0
100
AcDbLine
 62
253
  6
CONTINUOUS
 10
145.4195321768
 20
122.8206223455
 11
145.4195321768
 21
123.1605962796
  0
LINE
  5
3A2
100
AcDbEntity
  8
0
100
AcDbLine
 62
253
  6
CONTINUOUS
 10
145.6977924678
 20
127.2535599188
 11
145.6977924678
 21
127.6987316344
  0
LINE
  5
3A3
100
AcDbEntity
  8
0
100
AcDbLine
 62
253
  6
CONTINUOUS
 10
145.6977924678
 20
128.1262368423
 11
145.6977924678
 21
128.6373078838
  0
LINE
  5
3A4
100
AcDbEntity
  8
0
100
AcDbLine
 62
7
  6
CONTINUOUS
 10
145.7571774813
 20
127.3645504288
 11
145.7571774813
 21
128.6810424538
  0
LINE
  5
3A5
100
AcDbEntity
  8
0
100
AcDbLine
 62
253
  6
CONTINUOUS
 10
145.7603076474
 20
122.8657467907
 11
145.7603076474
 21
123.2057207249
  0
LINE
  5
3A6
100
AcDbEntity
  8
0
100
AcDbLine
 62
253
  6
CONTINUOUS
 10
145.9245705652
 20
121.9332678627
 11
145.9245705652
 21
122.6211696437
  0
LINE
  5
3A7
100
AcDbEntity
  8
0
100
AcDbLine
 62
253
  6
CONTINUOUS
 10
146.2653460358
 20
121.9896729134
 11
146.2653460358
 21
122.7973050352
  0
LINE
  5
3A8
100
AcDbEntity
  8
0
100
AcDbLine
 62
7
  6
CONTINUOUS
 10
146.8973785657
 20
122.5865474883
 11
146.8973785657
 21
124.1886981493
  0
LINE
  5
3A9
100
AcDbEntity
  8
0
100
AcDbLine
 62
7
  6
CONTINUOUS
 10
146.9899733485
 20
121.1925016772
 11
146.9899733485
 21
120.7419985486
  0
LINE
  5
3AA
100
AcDbEntity
  8
DRAFT
100
AcDbLine
 62
7
  6
CONTINUOUS
 10
147.2100396712
 20
121.1289740019
 11
147.2100396712
 21
120.6784708733
  0
LINE
  5
3AB
100
AcDbEntity
  8
0
100
AcDbLine
 62
253
  6
CONTINUOUS
 10
147.2693196628
 20
124.5113943028
 11
147.2693196628
 21
124.163862786
  0
LINE
  5
3AC
100
AcDbEntity
  8
0
100
AcDbLine
 62
7
  6
CONTINUOUS
 10
147.3020897594
 20
124.5732634572
 11
147.3020897594
 21
124.2257319404
  0
LWPOLYLINE
  5
3AD
100
AcDbEntity
  8
0
100
AcDbPolyline
 62
253
  6
CONTINUOUS
 90
34
 70
0
 10
145.4195321768
 20
123.1605962796
 10
145.4196727128
 20
123.1709816482
 10
145.4200940047
 20
123.1815870799
 10
145.4207951053
 20
123.1923887278
 10
145.421774438
 20
123.2033623033
 10
145.4230298009
 20
123.2144831317
 10
145.424558371
 20
123.2257262068
 10
145.4263567113
 20
123.2370662479
 10
145.428420778
 20
123.2484777559
 10
145.4307459301
 20
123.2599350712
 10
145.4333269391
 20
123.2714124311
 10
145.4361580015
 20
123.2828840281
 10
145.4392327515
 20
123.2943240672
 10
145.4425442752
 20
123.3057068247
 10
145.4460851264
 20
123.3170067057
 10
145.4498473432
 20
123.3281983014
 10
145.4538224661
 20
123.3392564467
 10
145.4580015566
 20
123.3501562766
 10
145.4623752177
 20
123.360873282
 10
145.466933615
 20
123.3713833648
 10
145.4716664986
 20
123.3816628924
 10
145.4765632261
 20
123.3916887504
 10
145.481612787
 20
123.4014383949
 10
145.4868038268
 20
123.4108899032
 10
145.4921246733
 20
123.4200220228
 10
145.4975633619
 20
123.4288142194
 10
145.5031076636
 20
123.4372467232
 10
145.5087451113
 20
123.4453005729
 10
145.514463029
 20
123.452957659
 10
145.5202485594
 20
123.4602007638
 10
145.5260886934
 20
123.4670136007
 10
145.531970299
 20
123.4733808506
 10
145.5378801509
 20
123.4792881961
 10
145.5438049604
 20
123.4847223542
  0
LINE
  5
3AE
100
AcDbEntity
  8
0
100
AcDbLine
 62
253
  6
CONTINUOUS
 10
147.3020897594
 20
124.225731896
 11
147.3018518417
 21
124.2202798253
  0
LWPOLYLINE
  5
3AF
100
AcDbEntity
  8
0
100
AcDbPolyline
 62
253
  6
CONTINUOUS
 90
12
 70
0
 10
147.3020896937
 20
124.5731728121
 10
147.3018534822
 20
124.5678301626
 10
147.3010573896
 20
124.5619153391
 10
147.2997013206
 20
124.556026036
 10
147.2977883241
 20
124.5501754987
 10
147.2953227023
 20
124.5443768882
 10
147.2923099985
 20
124.5386432438
 10
147.2887569893
 20
124.5329874646
 10
147.2846716732
 20
124.5274222819
 10
147.2800632441
 20
124.5219602159
 10
147.2749420672
 20
124.5166135478
 10
147.2693196628
 20
124.5113943028
  0
LINE
  5
3B0
100
AcDbEntity
  8
0
100
AcDbLine
 62
7
  6
CONTINUOUS
 10
147.300250665
 20
124.195463724
 11
147.3020897207
 21
124.2258014905
  0
LWPOLYLINE
  5
3B1
100
AcDbEntity
  8
0
100
AcDbPolyline
 62
253
  6
CONTINUOUS
 90
32
 70
0
 10
150.1770372067
 20
121.5907467907
 10
150.1737955209
 20
121.5793509213
 10
150.1700741589
 20
121.5681232496
 10
150.1658815197
 20
121.5570891156
 10
150.1612270656
 20
121.5462734228
 10
150.1561213017
 20
121.5357005816
 10
150.1505757511
 20
121.5253944543
 10
150.1446029301
 20
121.5153783011
 10
150.1382163188
 20
121.505674728
 10
150.1314303315
 20
121.4963056353
 10
150.1242602837
 20
121.4872921686
 10
150.1167223578
 20
121.4786546706
 10
150.1088335664
 20
121.4704126357
 10
150.1006117142
 20
121.4625846658
 10
150.0920753572
 20
121.455188428
 10
150.0832437617
 20
121.4482406152
 10
150.07413686
 20
121.4417569083
 10
150.0647752057
 20
121.4357519405
 10
150.0551799277
 20
121.4302392648
 10
150.0453726818
 20
121.4252313229
 10
150.0353756025
 20
121.4207394175
 10
150.0252112526
 20
121.4167736865
 10
150.0149025725
 20
121.4133430803
 10
150.0044728281
 20
121.4104553416
 10
149.9939455588
 20
121.4081169879
 10
149.9833445241
 20
121.4063332967
 10
149.9726936498
 20
121.4051082936
 10
149.9620169744
 20
121.4044447435
 10
149.9513385944
 20
121.404344144
 10
149.9406826104
 20
121.404806722
 10
149.9300730723
 20
121.4058314335
 10
149.927689134
 20
121.406140016
  0
LWPOLYLINE
  5
3B2
100
AcDbEntity
  8
0
100
AcDbPolyline
 62
7
  6
CONTINUOUS
 90
8
 70
0
 10
151.7051472909
 20
122.8691899908
 10
151.7090973223
 20
122.8816922354
 10
151.7124057699
 20
122.8944679128
 10
151.7150322303
 20
122.9073821749
 10
151.7169703327
 20
122.9203827358
 10
151.7182221596
 20
122.9334628069
 10
151.7187845015
 20
122.9465597219
 10
151.7188193187
 20
122.9507340077
  0
LWPOLYLINE
  5
3B3
100
AcDbEntity
  8
0
100
AcDbPolyline
 62
7
  6
CONTINUOUS
 90
11
 70
0
 10
157.3937425579
 20
124.1771903904
 10
157.3935910403
 20
124.1768774037
 10
157.392649108
 20
124.175854507
 10
157.3908669674
 20
124.1742292931
 10
157.3882613416
 20
124.172022334
 10
157.3848439025
 20
124.1692402923
 10
157.3806400251
 20
124.1659095671
 10
157.3756885298
 20
124.1620787494
 10
157.3700214981
 20
124.1577513779
 10
157.3636683945
 20
124.1529496473
 10
157.3566775584
 20
124.1477468307
  0
LINE
  5
3B4
100
AcDbEntity
  8
0
100
AcDbLine
 62
7
  6
CONTINUOUS
 10
161.4466053493
 20
118.3865474883
 11
160.6890477667
 21
117.6711304193
  0
LWPOLYLINE
  5
3B5
100
AcDbEntity
  8
0
100
AcDbPolyline
 62
7
  6
CONTINUOUS
 90
17
 70
0
 10
162.8083290525
 20
118.4242409153
 10
162.7989842754
 20
118.4155054649
 10
162.7900168701
 20
118.4062143793
 10
162.7814701188
 20
118.3963865884
 10
162.7733823542
 20
118.3860400017
 10
162.7657990944
 20
118.3752074489
 10
162.7587687401
 20
118.3639372589
 10
162.7523340837
 20
118.3522847981
 10
162.7465132996
 20
118.3402721787
 10
162.7413159158
 20
118.3278989691
 10
162.7367622982
 20
118.3151802309
 10
162.7328905202
 20
118.3021900366
 10
162.7297293829
 20
118.2890132729
 10
162.7272908092
 20
118.27571011
 10
162.7255775436
 20
118.2623175352
 10
162.7245909127
 20
118.2488759621
 10
162.7243228704
 20
118.2372880445
  0
LINE
  5
3B6
100
AcDbEntity
  8
0
100
AcDbLine
 62
7
  6
CONTINUOUS
 10
162.8083290525
 20
118.4242409153
 11
163.923006758
 21
119.4140288585
  0
LINE
  5
3B7
100
AcDbEntity
  8
0
100
AcDbLine
 62
253
  6
CONTINUOUS
 10
162.9735956524
 20
118.4531751802
 11
164.0879791668
 21
119.4427018939
  0
LWPOLYLINE
  5
3B8
100
AcDbEntity
  8
0
100
AcDbPolyline
 62
253
  6
CONTINUOUS
 90
20
 70
0
 10
162.8083290525
 20
118.4242409153
 10
162.8096778709
 20
118.4254232955
 10
162.8166069791
 20
118.4310451427
 10
162.8238933491
 20
118.4362281189
 10
162.8315204757
 20
118.4409604835
 10
162.8394710817
 20
118.4452315166
 10
162.8477271573
 20
118.4490315435
 10
162.8562700004
 20
118.4523519561
 10
162.8650802598
 20
118.455185233
 10
162.8741379781
 20
118.4575249562
 10
162.8834226377
 20
118.4593658258
 10
162.8929132066
 20
118.4607036716
 10
162.9025881867
 20
118.4615354633
 10
162.9124256619
 20
118.4618593166
 10
162.9224033481
 20
118.4616744979
 10
162.9324986437
 20
118.4609814258
 10
162.9426886806
 20
118.4597816704
 10
162.9529503759
 20
118.4580779493
 10
162.9632604847
 20
118.4558741218
 10
162.9735956524
 20
118.4531751802
  0
LINE
  5
3B9
100
AcDbEntity
  8
0
100
AcDbLine
 62
7
  6
CONTINUOUS
 10
161.4466053493
 20
118.3865474883
 11
164.1905696524
 21
120.767211343
  0
LINE
  5
3BA
100
AcDbEntity
  8
0
100
AcDbLine
 62
7
  6
CONTINUOUS
 10
163.9230073997
 20
119.4140294285
 11
163.9256450348
 21
119.4163136491
  0
LINE
  5
3BB
100
AcDbEntity
  8
0
100
AcDbLine
 62
7
  6
CONTINUOUS
 10
163.9256456604
 20
119.4163141775
 11
164.3054605902
 21
119.7370791191
  0
LINE
  5
3BC
100
AcDbEntity
  8
0
100
AcDbLine
 62
253
  6
CONTINUOUS
 10
164.0879791668
 20
119.4427018939
 11
164.4674925026
 21
119.7632121304
  0
LINE
  5
3BD
100
AcDbEntity
  8
0
100
AcDbLine
 62
7
  6
CONTINUOUS
 10
169.4298369301
 20
122.3807472826
 11
165.8936931827
 21
119.3943693029
  0
LINE
  5
3BE
100
AcDbEntity
  8
0
100
AcDbLine
 62
7
  6
CONTINUOUS
 10
163.9256450348
 20
119.4163136491
 11
163.9312883595
 21
119.420836352
  0
LWPOLYLINE
  5
3BF
100
AcDbEntity
  8
0
100
AcDbPolyline
 62
7
  6
CONTINUOUS
 90
19
 70
0
 10
164.3054605902
 20
119.7370791191
 10
164.3157361972
 20
119.7453036798
 10
164.3264898277
 20
119.7530163468
 10
164.3376901846
 20
119.7601815429
 10
164.3492906106
 20
119.766759742
 10
164.3612649006
 20
119.7727284334
 10
164.3736109539
 20
119.7780759279
 10
164.3862936731
 20
119.7827742255
 10
164.3992633043
 20
119.7867941798
 10
164.4124961691
 20
119.7901183061
 10
164.4259480369
 20
119.792725053
 10
164.43956332
 20
119.7945953546
 10
164.4533018592
 20
119.7957168646
 10
164.4671164719
 20
119.7960794085
 10
164.4809450791
 20
119.7956771979
 10
164.4947302615
 20
119.7945106523
 10
164.5083931438
 20
119.7925895365
 10
164.5219090442
 20
119.7899221564
 10
164.5361052455
 20
119.7862711834
  0
LWPOLYLINE
  5
3C0
100
AcDbEntity
  8
RACCORDO
100
AcDbPolyline
 62
253
  6
CONTINUOUS
 90
45
 70
0
 10
163.435521467
 20
112.7101960928
 10
163.4264806253
 20
112.7060771256
 10
163.4169480015
 20
112.7021162479
 10
163.40693483
 20
112.6983181279
 10
163.3964529115
 20
112.6946872416
 10
163.3855145991
 20
112.6912278681
 10
163.3741327839
 20
112.6879440844
 10
163.3623208795
 20
112.6848397605
 10
163.3500928065
 20
112.6819185548
 10
163.3374629759
 20
112.67918391
 10
163.3244462723
 20
112.6766390491
 10
163.3110580359
 20
112.6742869711
 10
163.2973140452
 20
112.672130448
 10
163.2832304977
 20
112.6701720214
 10
163.268823991
 20
112.6684139992
 10
163.2541115037
 20
112.6668584534
 10
163.2391103745
 20
112.6655072172
 10
163.2238382827
 20
112.6643618829
 10
163.2083132266
 20
112.6634238005
 10
163.1925535028
 20
112.6626940755
 10
163.1765776845
 20
112.6621735679
 10
163.1604045995
 20
112.661862891
 10
163.1440533081
 20
112.6617624111
 10
163.1275430805
 20
112.6618722466
 10
163.1108933745
 20
112.662192268
 10
163.0941238119
 20
112.6627220981
 10
163.0772541561
 20
112.6634611126
 10
163.0603042882
 20
112.6644084405
 10
163.0432941839
 20
112.6655629653
 10
163.0262438901
 20
112.6669233265
 10
163.0091735009
 20
112.6684879208
 10
162.9921031339
 20
112.6702549043
 10
162.9750529069
 20
112.6722221946
 10
162.9580429141
 20
112.6743874732
 10
162.9410932018
 20
112.6767481883
 10
162.9242237458
 20
112.6793015577
 10
162.907454427
 20
112.6820445723
 10
162.8908050084
 20
112.6849739993
 10
162.8742951115
 20
112.6880863864
 10
162.8579441937
 20
112.6913780655
 10
162.8417715248
 20
112.6948451574
 10
162.8257961646
 20
112.698483576
 10
162.8100369404
 20
112.7022890333
 10
162.7945124247
 20
112.7062570446
 10
162.7792409135
 20
112.7103829335
  0
LINE
  5
3C1
100
AcDbEntity
  8
DRAFT
100
AcDbLine
 62
7
  6
CONTINUOUS
 10
165.6521835998
 20
95.9846715411
 11
165.2181059912
 21
96.1099789532
  0
LINE
  5
3C2
100
AcDbEntity
  8
0
100
AcDbLine
 62
253
  6
CONTINUOUS
 10
147.2691078143
 20
124.5217972743
 11
147.2693196628
 21
124.5113943028
  0
LWPOLYLINE
  5
3C3
100
AcDbEntity
  8
0
100
AcDbPolyline
 62
7
  6
CONTINUOUS
 90
11
 70
0
 10
147.7637818539
 20
121.9034403563
 10
147.7634820255
 20
121.9196342316
 10
147.7625812168
 20
121.9360085631
 10
147.761077338
 20
121.9525412877
 10
147.7589671584
 20
121.9692232839
 10
147.7562513312
 20
121.9860184168
 10
147.7529392377
 20
122.0028630185
 10
147.7490390502
 20
122.0197234914
 10
147.7445554769
 20
122.0365858963
 10
147.739499429
 20
122.0534156233
 10
147.7361228736
 20
122.0634953095
  0
LWPOLYLINE
  5
3C4
100
AcDbEntity
  8
0
100
AcDbPolyline
 62
253
  6
CONTINUOUS
 90
23
 70
0
 10
147.7804808429
 20
122.1390751715
 10
147.7805998152
 20
122.1297343302
 10
147.7809565057
 20
122.1206173357
 10
147.7815502353
 20
122.1117415428
 10
147.7823798738
 20
122.1031238472
 10
147.783443842
 20
122.094780653
 10
147.7847401146
 20
122.086727842
 10
147.7862662241
 20
122.0789807432
 10
147.7880192653
 20
122.0715541036
 10
147.7899959014
 20
122.0644620603
 10
147.7921923695
 20
122.0577181134
 10
147.7946044888
 20
122.0513351003
 10
147.7972276674
 20
122.0453251715
 10
147.8000569122
 20
122.0396997672
 10
147.8030868374
 20
122.0344695958
 10
147.8063116754
 20
122.029644613
 10
147.8097252875
 20
122.0252340037
 10
147.8133211758
 20
122.0212461635
 10
147.8170924953
 20
122.0176886836
 10
147.821032067
 20
122.0145683359
 10
147.8251323917
 20
122.01189106
 10
147.8293856643
 20
122.0096619525
 10
147.8337837884
 20
122.0078852564
  0
LINE
  5
3C5
100
AcDbEntity
  8
0
100
AcDbLine
 62
7
  6
CONTINUOUS
 10
147.6554808429
 20
122.5873022811
 11
147.6554808429
 21
122.247328347
  0
LINE
  5
3C6
100
AcDbEntity
  8
0
100
AcDbLine
 62
7
  6
CONTINUOUS
 10
147.7637818539
 20
121.9034403563
 11
147.7637818539
 21
121.8292570195
  0
LINE
  5
3C7
100
AcDbEntity
  8
0
100
AcDbLine
 62
253
  6
CONTINUOUS
 10
147.7804808429
 20
122.4790491056
 11
147.7804808429
 21
122.1390751715
  0
LINE
  5
3C8
100
AcDbEntity
  8
0
100
AcDbLine
 62
7
  6
CONTINUOUS
 10
148.1504424545
 20
121.9164057708
 11
148.1504424545
 21
121.3685691102
  0
LINE
  5
3C9
100
AcDbEntity
  8
0
100
AcDbLine
 62
253
  6
CONTINUOUS
 10
148.2754424545
 20
121.880321379
 11
148.2754424545
 21
121.2546296036
  0
LINE
  5
3CA
100
AcDbEntity
  8
0
100
AcDbLine
 62
253
  6
CONTINUOUS
 10
149.2603759233
 20
128.9053594427
 11
149.2603759233
 21
128.5840351605
  0
LINE
  5
3CB
100
AcDbEntity
  8
DRAFT
100
AcDbLine
 62
7
  6
CONTINUOUS
 10
149.7400137357
 20
128.5601774711
 11
149.7400137357
 21
128.993190173
  0
LWPOLYLINE
  5
3CC
100
AcDbEntity
  8
0
100
AcDbPolyline
 62
253
  6
CONTINUOUS
 90
34
 70
0
 10
147.7804808429
 20
122.4790491056
 10
147.7806214177
 20
122.4894359238
 10
147.7810428267
 20
122.5000428784
 10
147.7817441233
 20
122.5108461131
 10
147.7827237321
 20
122.521821337
 10
147.7839794506
 20
122.5329438584
 10
147.7855084524
 20
122.5441886393
 10
147.7873072971
 20
122.5555303814
 10
147.7893719391
 20
122.5669435805
 10
147.7916977335
 20
122.5784025622
 10
147.794279449
 20
122.5898815547
 10
147.7971112777
 20
122.6013547375
 10
147.8001868473
 20
122.612796296
 10
147.8034992385
 20
122.6241804943
 10
147.8070410007
 20
122.6354817294
 10
147.8108041654
 20
122.6466745795
 10
147.8147802695
 20
122.6577338763
 10
147.8189603671
 20
122.6686347404
 10
147.8233350471
 20
122.6793526354
 10
147.8278944551
 20
122.6898634282
 10
147.8326283464
 20
122.7001435115
 10
147.8375261046
 20
122.7101698315
 10
147.8425767636
 20
122.7199199257
 10
147.8477689197
 20
122.7293717668
 10
147.8530907797
 20
122.7385038999
 10
147.8585302936
 20
122.7472956884
 10
147.8640752924
 20
122.7557275049
 10
147.8697134076
 20
122.7637805556
 10
147.8754328249
 20
122.7714378505
 10
147.8812198372
 20
122.7786809245
 10
147.8870588922
 20
122.785490635
 10
147.8929359541
 20
122.7918513596
 10
147.8988386216
 20
122.7977504174
 10
147.9047536265
 20
122.8031751802
  0
LWPOLYLINE
  5
3CD
100
AcDbEntity
  8
0
100
AcDbPolyline
 62
253
  6
CONTINUOUS
 90
34
 70
0
 10
149.8362617361
 20
121.8855962796
 10
149.8364023109
 20
121.8959830978
 10
149.8368237199
 20
121.9065900523
 10
149.8375250165
 20
121.9173932871
 10
149.8385046253
 20
121.928368511
 10
149.8397603437
 20
121.9394910324
 10
149.8412893456
 20
121.9507358133
 10
149.8430881903
 20
121.9620775553
 10
149.8451528323
 20
121.9734907544
 10
149.8474786267
 20
121.9849497362
 10
149.8500603421
 20
121.9964287287
 10
149.8528921708
 20
122.0079019114
 10
149.8559677404
 20
122.0193434699
 10
149.8592801317
 20
122.0307276683
 10
149.8628218939
 20
122.0420289034
 10
149.8665850586
 20
122.0532217535
 10
149.8705611627
 20
122.0642810502
 10
149.8747412603
 20
122.0751819144
 10
149.8791159403
 20
122.0858998094
 10
149.8836753482
 20
122.0964106022
 10
149.8884092395
 20
122.1066906855
 10
149.8933069978
 20
122.1167170055
 10
149.8983576568
 20
122.1264670997
 10
149.9035498128
 20
122.1359189408
 10
149.9088716729
 20
122.1450510738
 10
149.9143111867
 20
122.1538428624
 10
149.9198561856
 20
122.1622746788
 10
149.9254943008
 20
122.1703277296
 10
149.931213718
 20
122.1779850245
 10
149.9370007303
 20
122.1852280985
 10
149.9428397854
 20
122.192037809
 10
149.9487168473
 20
122.1983985336
 10
149.9546195147
 20
122.2042975914
 10
149.9605345197
 20
122.2097223542
  0
LWPOLYLINE
  5
3CE
100
AcDbEntity
  8
0
100
AcDbPolyline
 62
7
  6
CONTINUOUS
 90
28
 70
0
 10
164.168894213
 20
121.1880316539
 10
164.1787994588
 20
121.2010024136
 10
164.1879864178
 20
121.2145331904
 10
164.1964550899
 20
121.2286239842
 10
164.2042191524
 20
121.2433037465
 10
164.211264928
 20
121.2585435258
 10
164.2175513848
 20
121.2742564679
 10
164.2230736398
 20
121.2904443693
 10
164.227836576
 20
121.3071054335
 10
164.2318138097
 20
121.3241474164
 10
164.2350009825
 20
121.3415724345
 10
164.2374024527
 20
121.3593783714
 10
164.2390049117
 20
121.3774666329
 10
164.239803923
 20
121.3958388011
 10
164.239803923
 20
121.4144932938
 10
164.2390049117
 20
121.4333267714
 10
164.2374024527
 20
121.452340213
 10
164.2350009825
 20
121.4715326394
 10
164.2318138097
 20
121.4907977727
 10
164.227836576
 20
121.5101360124
 10
164.2230736398
 20
121.5295469591
 10
164.2175513848
 20
121.5489231359
 10
164.211264928
 20
121.5682655655
 10
164.2042191524
 20
121.5875732253
 10
164.1964550899
 20
121.6067355712
 10
164.1879864178
 20
121.6257157551
 10
164.1787994588
 20
121.6445506251
 10
164.168894213
 20
121.6632401812
  0
LINE
  5
3CF
100
AcDbEntity
  8
0
100
AcDbLine
 62
7
  6
CONTINUOUS
 10
170.333009514
 20
121.7586598089
 11
166.6950012104
 21
118.3636723864
  0
LINE
  5
3D0
100
AcDbEntity
  8
0
100
AcDbLine
 62
7
  6
CONTINUOUS
 10
170.333009514
 20
121.1667916358
 11
166.3829501508
 21
117.6037437721
  0
LINE
  5
3D1
100
AcDbEntity
  8
RACCORDO
100
AcDbLine
 62
7
  6
CONTINUOUS
 10
169.7340141697
 20
120.5512871052
 11
166.3829501508
 21
117.5383643201
  0
LINE
  5
3D2
100
AcDbEntity
  8
0
100
AcDbLine
 62
253
  6
CONTINUOUS
 10
166.1664474639
 20
118.8426997786
 11
166.538388561
 21
119.1653959321
  0
LINE
  5
3D3
100
AcDbEntity
  8
0
100
AcDbLine
 62
253
  6
CONTINUOUS
 10
166.3829501508
 20
118.5636981493
 11
166.754891248
 21
118.8863943028
  0
LINE
  5
3D4
100
AcDbEntity
  8
0
100
AcDbLine
 62
253
  6
CONTINUOUS
 10
165.0293765455
 20
117.8597223542
 11
166.1664474639
 21
118.8426997786
  0
LINE
  5
3D5
100
AcDbEntity
  8
0
100
AcDbLine
 62
253
  6
CONTINUOUS
 10
165.2458792325
 20
117.5807207249
 11
166.3829501508
 21
118.5636981493
  0
LWPOLYLINE
  5
3D6
100
AcDbEntity
  8
RACCORDO
100
AcDbPolyline
 62
253
  6
CONTINUOUS
 90
52
 70
0
 10
163.2781493943
 20
113.8396899152
 10
163.2641563084
 20
113.8282261857
 10
163.2501647477
 20
113.8161140871
 10
163.236184959
 20
113.8033627798
 10
163.2222270367
 20
113.7899820489
 10
163.2083013465
 20
113.7759818641
 10
163.1944185196
 20
113.7613723357
 10
163.180588597
 20
113.7461643179
 10
163.1668218389
 20
113.7303693851
 10
163.1531291488
 20
113.7139993846
 10
163.139520607
 20
113.6970666974
 10
163.1260061302
 20
113.6795840275
 10
163.1125962822
 20
113.6615643538
 10
163.0993009152
 20
113.6430212736
 10
163.0861297382
 20
113.6239687109
 10
163.0730929761
 20
113.6044207136
 10
163.0602001475
 20
113.5843919113
 10
163.0474607339
 20
113.5638974278
 10
163.0348847468
 20
113.5429525896
 10
163.0224814296
 20
113.5215731792
 10
163.0102598389
 20
113.4997752372
 10
162.9982295146
 20
113.4775749703
 10
162.9863992723
 20
113.4549890416
 10
162.9747777792
 20
113.4320344445
 10
162.9633741312
 20
113.4087283131
 10
162.952196718
 20
113.3850882045
 10
162.9412536925
 20
113.3611318335
 10
162.9305535496
 20
113.3368769424
 10
162.9201041237
 20
113.3123416892
 10
162.9099130833
 20
113.2875445496
 10
162.8999884007
 20
113.2625040523
 10
162.8903373726
 20
113.2372390148
 10
162.8809670492
 20
113.2117683839
 10
162.8718847321
 20
113.1861111336
 10
162.8630970808
 20
113.1602864733
 10
162.8546105369
 20
113.1343138271
 10
162.8464317483
 20
113.1082126774
 10
162.8385667496
 20
113.0820026914
 10
162.8310212602
 20
113.0557034493
 10
162.8238011126
 20
113.029334422
 10
162.816911607
 20
113.0029153271
 10
162.8103577961
 20
112.9764660364
 10
162.8041447829
 20
112.9500063042
 10
162.798277127
 20
112.9235558881
 10
162.7927591374
 20
112.8971347016
 10
162.7875951532
 20
112.870762719
 10
162.7827890201
 20
112.8444599489
 10
162.7783441885
 20
112.8182458605
 10
162.7742640234
 20
112.7921395419
 10
162.7705515729
 20
112.7661603764
 10
162.7672095434
 20
112.7403280213
 10
162.7642404043
 20
112.7146618375
  0
LWPOLYLINE
  5
3D7
100
AcDbEntity
  8
RACCORDO
100
AcDbPolyline
 62
253
  6
CONTINUOUS
 90
52
 70
0
 10
163.697934208
 20
113.2711344718
 10
163.6907771027
 20
113.2654422015
 10
163.6836305953
 20
113.2594344792
 10
163.6764946858
 20
113.2531113049
 10
163.669363806
 20
113.2464672891
 10
163.6622435241
 20
113.2395078212
 10
163.6551505451
 20
113.2322490702
 10
163.6480851497
 20
113.2246905262
 10
163.6410470572
 20
113.216832699
 10
163.6340521308
 20
113.2086932868
 10
163.6271004902
 20
113.2002716743
 10
163.6201920156
 20
113.1915684769
 10
163.6133422114
 20
113.1826032384
 10
163.6065512212
 20
113.1733753907
 10
163.5998189014
 20
113.163885502
 10
163.5931603249
 20
113.1541548205
 10
163.5865756357
 20
113.1441827732
 10
163.5800646897
 20
113.1339699331
 10
163.573642128
 20
113.1235392671
 10
163.5673081606
 20
113.1128903021
 10
163.5610625773
 20
113.1020235111
 10
163.5549193892
 20
113.0909632807
 10
163.5488788219
 20
113.0797091671
 10
163.5429406497
 20
113.068261614
 10
163.5371182068
 20
113.0566463389
 10
163.5314117645
 20
113.0448629902
 10
163.5258210515
 20
113.0329119194
 10
163.5203585873
 20
113.0208198979
 10
163.5150246477
 20
113.008586583
 10
163.5098189569
 20
112.9962123174
 10
163.5047532073
 20
112.9837249009
 10
163.4998277185
 20
112.9711240905
 10
163.495042171
 20
112.9584101292
 10
163.4904072986
 20
112.9456115454
 10
163.4859234344
 20
112.9327281305
 10
163.4815902452
 20
112.9197600931
 10
163.4774174656
 20
112.9067365878
 10
163.4734054692
 20
112.8936575342
 10
163.4695538824
 20
112.8805230127
 10
163.4658713189
 20
112.8673624181
 10
163.4623581488
 20
112.8541756656
 10
163.4590140022
 20
112.8409628399
 10
163.4558463827
 20
112.8277535905
 10
163.4528556825
 20
112.8145478875
 10
163.4500415095
 20
112.8013457608
 10
163.4474101921
 20
112.7881769489
 10
163.4449621153
 20
112.7750412566
 10
163.4426968941
 20
112.7619388793
 10
163.4406197014
 20
112.7489001417
 10
163.4387322615
 20
112.7359351523
 10
163.43703285
 20
112.7230338026
 10
163.435521467
 20
112.7101960928
  0
LINE
  5
3D8
100
AcDbEntity
  8
RACCORDO
100
AcDbLine
 62
253
  6
CONTINUOUS
 10
165.3515467357
 20
115.4414688797
 11
163.2781493943
 21
113.8396899152
  0
LINE
  5
3D9
100
AcDbEntity
  8
RACCORDO
100
AcDbLine
 62
253
  6
CONTINUOUS
 10
165.7713315494
 20
114.8729134363
 11
163.697934208
 21
113.2711344718
  0
LWPOLYLINE
  5
3DA
100
AcDbEntity
  8
0
100
AcDbPolyline
 62
253
  6
CONTINUOUS
 90
24
 70
0
 10
149.8362617361
 20
121.5456223455
 10
149.8363807393
 20
121.5362803069
 10
149.8367375221
 20
121.5271621753
 10
149.8373314055
 20
121.5182853122
 10
149.8381612559
 20
121.5096666422
 10
149.8392254947
 20
121.5013225515
 10
149.8405221068
 20
121.4932688645
 10
149.84204864
 20
121.4855208714
 10
149.8438021852
 20
121.4780933888
 10
149.8457793829
 20
121.4710006534
 10
149.8479764503
 20
121.4642562089
 10
149.8503892133
 20
121.4578728456
 10
149.8530130942
 20
121.4518626721
 10
149.8558431199
 20
121.446237096
 10
149.858873885
 20
121.4410068772
 10
149.8620995714
 20
121.4361820459
 10
149.8655139988
 20
121.4317718119
 10
149.8691106874
 20
121.4277845123
 10
149.8728828299
 20
121.4242276828
 10
149.876823727
 20
121.4211077478
 10
149.8809254314
 20
121.4184311022
 10
149.8851786258
 20
121.4162035405
 10
149.8895745424
 20
121.4144290121
 10
149.8919236248
 20
121.4136834596
  0
LINE
  5
3DB
100
AcDbEntity
  8
0
100
AcDbLine
 62
253
  6
CONTINUOUS
 10
149.8362617361
 20
121.5456223455
 11
149.8362617361
 21
121.8855962796
  0
LINE
  5
3DC
100
AcDbEntity
  8
RACCORDO
100
AcDbLine
 62
253
  6
CONTINUOUS
 10
150.1730381713
 20
128.39130151
 11
150.1730381713
 21
128.8321341997
  0
LINE
  5
3DD
100
AcDbEntity
  8
0
100
AcDbLine
 62
253
  6
CONTINUOUS
 10
150.1770372067
 20
121.5907467907
 11
150.1770372067
 21
121.9307207249
  0
LINE
  5
3DE
100
AcDbEntity
  8
RACCORDO
100
AcDbLine
 62
253
  6
CONTINUOUS
 10
150.3093512976
 20
128.444242975
 11
150.3093512976
 21
128.8934688716
  0
LINE
  5
3DF
100
AcDbEntity
  8
0
100
AcDbLine
 62
253
  6
CONTINUOUS
 10
150.3413001245
 20
120.6582678627
 11
150.3413001245
 21
121.3500883119
  0
LINE
  5
3E0
100
AcDbEntity
  8
ASSI
100
AcDbLine
 62
253
  6
CONTINUOUS
 10
150.6460481076
 20
126.8499278695
 11
150.6460481076
 21
127.643185864
  0
LINE
  5
3E1
100
AcDbEntity
  8
0
100
AcDbLine
 62
253
  6
CONTINUOUS
 10
150.6820755951
 20
120.7146729134
 11
150.6820755951
 21
121.5223050352
  0
LINE
  5
3E2
100
AcDbEntity
  8
ASSI
100
AcDbLine
 62
7
  6
CONTINUOUS
 10
150.708738254
 20
127.8244280554
 11
150.708738254
 21
126.9711302746
  0
LINE
  5
3E3
100
AcDbEntity
  8
0
100
AcDbLine
 62
7
  6
CONTINUOUS
 10
151.0347175769
 20
127.872957364
 11
151.0347175769
 21
127.4955789761
  0
LINE
  5
3E4
100
AcDbEntity
  8
0
100
AcDbLine
 62
7
  6
CONTINUOUS
 10
151.314108125
 20
121.3115474883
 11
151.314108125
 21
122.9136981493
  0
LINE
  5
3E5
100
AcDbEntity
  8
0
100
AcDbLine
 62
7
  6
CONTINUOUS
 10
151.5321588764
 20
127.8135592296
 11
151.5321588764
 21
127.4661825009
  0
LINE
  5
3E6
100
AcDbEntity
  8
0
100
AcDbLine
 62
253
  6
CONTINUOUS
 10
151.6860492221
 20
123.2363943028
 11
151.6860492221
 21
122.888862786
  0
LINE
  5
3E7
100
AcDbEntity
  8
0
100
AcDbLine
 62
7
  6
CONTINUOUS
 10
151.7188193187
 20
123.2982634572
 11
151.7188193187
 21
122.9507319404
  0
LINE
  5
3E8
100
AcDbEntity
  8
0
100
AcDbLine
 62
7
  6
CONTINUOUS
 10
152.079114712
 20
131.3964114139
 11
152.079114712
 21
130.9885601466
  0
LWPOLYLINE
  5
3E9
100
AcDbEntity
  8
RACCORDO
100
AcDbPolyline
 62
7
  6
CONTINUOUS
 90
7
 70
0
 10
150.7087368503
 20
126.971107994
 10
150.7087163675
 20
126.9687911489
 10
150.7066207295
 20
126.9482515742
 10
150.7011348652
 20
126.9277341392
 10
150.6923277712
 20
126.907606305
 10
150.6802224464
 20
126.8879905589
 10
150.6647958918
 20
126.8687644138
  0
LWPOLYLINE
  5
3EA
100
AcDbEntity
  8
0
100
AcDbPolyline
 62
253
  6
CONTINUOUS
 90
12
 70
0
 10
151.7188193187
 20
123.2982634649
 10
151.7185830415
 20
123.2928301626
 10
151.7177869489
 20
123.2869153391
 10
151.7164308799
 20
123.281026036
 10
151.7145178834
 20
123.2751754987
 10
151.7120522616
 20
123.2693768882
 10
151.7090395578
 20
123.2636432438
 10
151.7054865486
 20
123.2579874646
 10
151.7014012325
 20
123.2524222819
 10
151.6967928034
 20
123.2469602159
 10
151.6916716265
 20
123.2416135478
 10
151.6860492221
 20
123.2363943028
  0
LWPOLYLINE
  5
3EB
100
AcDbEntity
  8
0
100
AcDbPolyline
 62
253
  6
CONTINUOUS
 90
12
 70
0
 10
151.7188193187
 20
122.950731896
 10
151.718581401
 20
122.9452798253
 10
151.7177836055
 20
122.9393654998
 10
151.7164259802
 20
122.9334769326
 10
151.7145116047
 20
122.9276272839
 10
151.7120447618
 20
122.9218295884
 10
151.7090307321
 20
122.9160964209
 10
151.7054764717
 20
122.9104411476
 10
151.7013909442
 20
122.9048777176
 10
151.6967840489
 20
122.8994189747
 10
151.6916661976
 20
122.8940766923
 10
151.6860492221
 20
122.888862786
  0
LINE
  5
3EC
100
AcDbEntity
  8
0
100
AcDbLine
 62
7
  6
CONTINUOUS
 10
166.3829501508
 20
116.9615474883
 11
165.7509176209
 21
116.3646729134
  0
LINE
  5
3ED
100
AcDbEntity
  8
0
100
AcDbLine
 62
253
  6
CONTINUOUS
 10
166.8155366353
 20
116.8366705267
 11
166.0428618408
 21
116.1256174209
  0
LINE
  5
3EE
100
AcDbEntity
  8
0
100
AcDbLine
 62
253
  6
CONTINUOUS
 10
167.2482197281
 20
116.278554783
 11
166.4755449337
 21
115.5675016772
  0
LINE
  5
3EF
100
AcDbEntity
  8
0
100
AcDbLine
 62
253
  6
CONTINUOUS
 10
167.3087885439
 20
117.2665928464
 11
166.8163462331
 21
116.8364368159
  0
LINE
  5
3F0
100
AcDbEntity
  8
0
100
AcDbLine
 62
253
  6
CONTINUOUS
 10
167.7417957499
 20
116.7085963868
 11
167.2493534391
 21
116.2784403563
  0
LINE
  5
3F1
100
AcDbEntity
  8
RACCORDO
100
AcDbLine
 62
253
  6
CONTINUOUS
 10
124.6947913047
 20
112.760913384
 11
161.9480296111
 21
102.0068298018
  0
LWPOLYLINE
  5
3F2
100
AcDbEntity
  8
0
100
AcDbPolyline
 62
253
  6
CONTINUOUS
 90
16
 70
0
 10
132.140947799
 20
129.0283445414
 10
132.1478786093
 20
129.018716015
 10
132.1544364038
 20
129.0088711971
 10
132.1606063253
 20
128.9988323884
 10
132.1663743898
 20
128.9886223374
 10
132.1717275267
 20
128.9782641762
 10
132.1766536038
 20
128.9677813757
 10
132.1811414541
 20
128.9571976961
 10
132.1851809072
 20
128.9465371199
 10
132.18876281
 20
128.9358238008
 10
132.1918790445
 20
128.9250820169
 10
132.19452255
 20
128.9143361027
 10
132.1966873347
 20
128.9036104121
 10
132.1983684903
 20
128.8929292666
 10
132.1995622088
 20
128.8823168741
 10
132.2002657885
 20
128.8717972743
  0
LWPOLYLINE
  5
3F3
100
AcDbEntity
  8
0
100
AcDbPolyline
 62
253
  6
CONTINUOUS
 90
34
 70
0
 10
165.2458792325
 20
75.9411426514
 10
165.2426375467
 20
75.9475570578
 10
165.2389161848
 20
75.9540994651
 10
165.2347235455
 20
75.9607551074
 10
165.2300690915
 20
75.9675089634
 10
165.2249633275
 20
75.97434579
 10
165.219417777
 20
75.9812501569
 10
165.2134449559
 20
75.9882064814
 10
165.2070583446
 20
75.9951990633
 10
165.2002723573
 20
76.002212121
 10
165.1931023095
 20
76.0092298263
 10
165.1855643836
 20
76.0162363407
 10
165.1776755923
 20
76.0232158508
 10
165.16945374
 20
76.0301526045
 10
165.1609173831
 20
76.0370309457
 10
165.1520857876
 20
76.0438353505
 10
165.1429788858
 20
76.0505504618
 10
165.1336172316
 20
76.0571611239
 10
165.1240219535
 20
76.063652417
 10
165.1142147077
 20
76.0700096907
 10
165.1042176284
 20
76.0762185968
 10
165.0940532785
 20
76.0822651223
 10
165.0837445983
 20
76.0881356206
 10
165.0733148539
 20
76.0938168422
 10
165.0627875847
 20
76.099295965
 10
165.0521865499
 20
76.104560623
 10
165.0415356757
 20
76.109598934
 10
165.0308590002
 20
76.114399527
 10
165.0201806203
 20
76.1189515673
 10
165.0095246363
 20
76.1232447811
 10
164.9989150981
 20
76.127269479
 10
164.988375951
 20
76.1310165775
 10
164.977930981
 20
76.1344776196
 10
164.9676037619
 20
76.1376447938
  0
LWPOLYLINE
  5
3F4
100
AcDbEntity
  8
RACCORDO
100
AcDbPolyline
 62
7
  6
CONTINUOUS
 90
13
 70
0
 10
153.1350832468
 20
128.2116389251
 10
153.134823317
 20
128.2239398757
 10
153.1340369917
 20
128.2356455484
 10
153.1327242708
 20
128.2467559434
 10
153.1308734495
 20
128.2573422145
 10
153.1284962326
 20
128.2673332077
 10
153.1256277347
 20
128.2765154611
 10
153.1222531238
 20
128.2848631558
 10
153.1183872318
 20
128.2924021107
 10
153.1141096692
 20
128.2989963202
 10
153.1094469729
 20
128.3046004494
 10
153.1043726059
 20
128.3092598332
 10
153.0988865684
 20
128.3129744718
  0
LINE
  5
3F5
100
AcDbEntity
  8
0
100
AcDbLine
 62
7
  6
CONTINUOUS
 10
152.9965368382
 20
121.3379298127
 11
152.9965368382
 21
119.891767047
  0
LINE
  5
3F6
100
AcDbEntity
  8
RACCORDO
100
AcDbLine
 62
7
  6
CONTINUOUS
 10
153.1350832468
 20
128.2116389251
 11
153.1350832468
 21
128.0758994298
  0
LINE
  5
3F7
100
AcDbEntity
  8
0
100
AcDbLine
 62
7
  6
CONTINUOUS
 10
153.8117033892
 20
119.6564487331
 11
153.8117033892
 21
121.1026114989
  0
LINE
  5
3F8
100
AcDbEntity
  8
0
100
AcDbLine
 62
7
  6
CONTINUOUS
 10
154.3117033892
 20
121.3684622549
 11
154.3117033892
 21
120.1348479032
  0
LWPOLYLINE
  5
3F9
100
AcDbEntity
  8
0
100
AcDbPolyline
 62
7
  6
CONTINUOUS
 90
31
 70
0
 10
154.3117033892
 20
121.3684622549
 10
154.3118424982
 20
121.3776545961
 10
154.3122498553
 20
121.3870059101
 10
154.3129254603
 20
121.3965161969
 10
154.3138726003
 20
121.4062121181
 10
154.3150879882
 20
121.4160670121
 10
154.3165617632
 20
121.4260008938
 10
154.3182960449
 20
121.4360144822
 10
154.3202887136
 20
121.4461070582
 10
154.3225235489
 20
121.4561964802
 10
154.3250024883
 20
121.4662825936
 10
154.3277235944
 20
121.4763655529
 10
154.330664834
 20
121.4863636796
 10
154.3338280403
 20
121.496276424
 10
154.3372113801
 20
121.5061043357
 10
154.3407873215
 20
121.5157673848
 10
154.3445574467
 20
121.5252642167
 10
154.3485201735
 20
121.534596186
 10
154.3526432233
 20
121.5436873255
 10
154.3569278405
 20
121.5525355507
 10
154.3613727806
 20
121.5611429461
 10
154.3659420318
 20
121.5694397988
 10
154.3706366633
 20
121.5774236894
 10
154.3754556059
 20
121.5850970373
 10
154.3803596402
 20
121.5923973874
 10
154.3853494234
 20
121.5993216436
 10
154.3904242983
 20
121.6058729019
 10
154.3955430741
 20
121.6119979949
 10
154.4006920205
 20
121.6176792001
 10
154.4058848678
 20
121.62293424
 10
154.4111216161
 20
121.6277631146
  0
LWPOLYLINE
  5
3FA
100
AcDbEntity
  8
0
100
AcDbPolyline
 62
7
  6
CONTINUOUS
 90
25
 70
0
 10
161.4466053493
 20
118.8473206803
 10
161.4534369642
 20
118.8601644267
 10
161.4596918538
 20
118.8733768834
 10
161.4653700182
 20
118.8869580502
 10
161.4704777681
 20
118.9009281067
 10
161.4750087927
 20
118.9152668734
 10
161.4789441596
 20
118.9299138118
 10
161.482281375
 20
118.9448702028
 10
161.4850229328
 20
118.9601347654
 10
161.4871573812
 20
118.9756431187
 10
161.4886821808
 20
118.9913962778
 10
161.489599871
 20
119.0073932276
 10
161.4899066195
 20
119.0235665411
 10
161.489599871
 20
119.0399169559
 10
161.4886821808
 20
119.0564437344
 10
161.4871573812
 20
119.073077237
 10
161.4850229328
 20
119.0898179147
 10
161.482281375
 20
119.1066653164
 10
161.4789441596
 20
119.1235484496
 10
161.4750087927
 20
119.1404674732
 10
161.4704777681
 20
119.1574222281
 10
161.4653700182
 20
119.1743412454
 10
161.4596918538
 20
119.191200702
 10
161.4534369642
 20
119.2080244208
 10
161.4466053493
 20
119.224812402
  0
LINE
  5
3FB
100
AcDbEntity
  8
0
100
AcDbLine
 62
7
  6
CONTINUOUS
 10
167.7417957499
 20
113.7763135513
 11
168.2342380607
 21
114.2190656593
  0
LWPOLYLINE
  5
3FC
100
AcDbEntity
  8
0
100
AcDbPolyline
 62
253
  6
CONTINUOUS
 90
4
 70
0
 10
132.1180784296
 20
129.0557168633
 10
132.1260307885
 20
129.0468659667
 10
132.1336596822
 20
129.037734956
 10
132.140947799
 20
129.0283445414
  0
LINE
  5
3FD
100
AcDbEntity
  8
0
100
AcDbLine
 62
253
  6
CONTINUOUS
 10
156.3035618179
 20
119.5598479032
 11
156.3035618179
 21
120.7934622549
  0
LINE
  5
3FE
100
AcDbEntity
  8
0
100
AcDbLine
 62
253
  6
CONTINUOUS
 10
156.5767668986
 20
119.6055277373
 11
156.5767668986
 21
120.8300647953
  0
LINE
  5
3FF
100
AcDbEntity
  8
0
100
AcDbLine
 62
7
  6
CONTINUOUS
 10
157.2267668986
 20
121.3894544359
 11
157.2267668986
 21
120.1775256503
  0
LWPOLYLINE
  5
400
100
AcDbEntity
  8
0
100
AcDbPolyline
 62
253
  6
CONTINUOUS
 90
31
 70
0
 10
156.3035618179
 20
120.7934622549
 10
156.3036979078
 20
120.8026132958
 10
156.3041058085
 20
120.8119751652
 10
156.3047844114
 20
120.8215223833
 10
156.3057318725
 20
120.8312289753
 10
156.3069456141
 20
120.8410685129
 10
156.3084223296
 20
120.8510141843
 10
156.3101579973
 20
120.8610389113
 10
156.3121478936
 20
120.8711154153
 10
156.3143865999
 20
120.8812162622
 10
156.3168680216
 20
120.8913139593
 10
156.3195854037
 20
120.9013810224
 10
156.322531346
 20
120.9113900422
 10
156.325697831
 20
120.9213137836
 10
156.3290762366
 20
120.9311252299
 10
156.3326573551
 20
120.9407976491
 10
156.3364314213
 20
120.9503046812
 10
156.3403881738
 20
120.9596204918
 10
156.3445168772
 20
120.9687198074
 10
156.3488063538
 20
120.9775779755
 10
156.3532448766
 20
120.9861707624
 10
156.357820223
 20
120.9944745256
 10
156.3625198364
 20
121.0024665367
 10
156.367331006
 20
121.010125239
 10
156.3722407693
 20
121.017430019
 10
156.3772368033
 20
121.0243623874
 10
156.3823045047
 20
121.0309019284
 10
156.3874270375
 20
121.0370273452
 10
156.392589362
 20
121.0427216438
 10
156.3977784015
 20
121.0479713806
 10
156.4029800448
 20
121.0527631146
  0
LWPOLYLINE
  5
401
100
AcDbEntity
  8
RACCORDO
100
AcDbPolyline
 62
253
  6
CONTINUOUS
 90
7
 70
0
 10
158.9694385613
 20
128.4300996929
 10
158.9669312865
 20
128.39653331
 10
158.957805324
 20
128.3579808761
 10
158.9420676712
 20
128.3199651881
 10
158.919835456
 20
128.2827691788
 10
158.8912741421
 20
128.2466696802
 10
158.8565962978
 20
128.2119353638
  0
LWPOLYLINE
  5
402
100
AcDbEntity
  8
0
100
AcDbPolyline
 62
7
  6
CONTINUOUS
 90
11
 70
0
 10
164.2507194688
 20
122.1977509616
 10
164.2506062946
 20
122.197494224
 10
164.2497386667
 20
122.1965266237
 10
164.248037516
 20
122.1949603552
 10
164.2455198721
 20
122.1928171465
 10
164.242197656
 20
122.190104149
 10
164.2380963101
 20
122.1868468071
 10
164.2332534479
 20
122.1830927782
 10
164.2277005763
 20
122.1788458495
 10
164.2214668975
 20
122.1741276831
 10
164.2145991912
 20
122.1690096088
  0
LWPOLYLINE
  5
403
100
AcDbEntity
  8
0
100
AcDbPolyline
 62
7
  6
CONTINUOUS
 90
43
 70
0
 10
165.7509176209
 20
117.1723050352
 10
165.7467967107
 20
117.1649432426
 10
165.7424506396
 20
117.1576258574
 10
165.7378794605
 20
117.1503614016
 10
165.7330814837
 20
117.1431590443
 10
165.7280593209
 20
117.136026905
 10
165.7228198132
 20
117.1289720808
 10
165.7173639843
 20
117.1220035013
 10
165.711693256
 20
117.1151299866
 10
165.7058153428
 20
117.1083586329
 10
165.6997320841
 20
117.1016985497
 10
165.6934456946
 20
117.0951587122
 10
165.6869647252
 20
117.0887461788
 10
165.6802918707
 20
117.0824701785
 10
165.6734301709
 20
117.0763397751
 10
165.6663889674
 20
117.0703619495
 10
165.6591718263
 20
117.0645459677
 10
165.6517826671
 20
117.058900935
 10
165.644231642
 20
117.0534337698
 10
165.6365232305
 20
117.0481537051
 10
165.6286622718
 20
117.0430698097
 10
165.620659757
 20
117.0381889382
 10
165.6125211194
 20
117.0335202042
 10
165.6042521665
 20
117.0290725547
 10
165.595864782
 20
117.0248527694
 10
165.5873653986
 20
117.0208697413
 10
165.5787608406
 20
117.0171321898
 10
165.5700639532
 20
117.0136467831
 10
165.5612822181
 20
117.0104220713
 10
165.5524235192
 20
117.0074664139
 10
165.5435017286
 20
117.0047862885
 10
165.5345254281
 20
117.0023897542
 10
165.5255035888
 20
117.0002846462
 10
165.5164511404
 20
116.9984771148
 10
165.5073778419
 20
116.9969745558
 10
165.4982937231
 20
116.995784075
 10
165.4892146325
 20
116.9949112902
 10
165.4801515038
 20
116.9943627277
 10
165.4711154263
 20
116.9941445612
 10
165.4621230183
 20
116.9942616618
 10
165.4531985217
 20
116.9947186465
 10
165.4443417944
 20
116.9955203324
 10
165.4390519974
 20
116.9961705134
  0
LWPOLYLINE
  5
404
100
AcDbEntity
  8
RACCORDO
100
AcDbPolyline
 62
253
  6
CONTINUOUS
 90
46
 70
0
 10
162.6237223826
 20
102.061887461
 10
162.6145275643
 20
102.0557270464
 10
162.6048413267
 20
102.0497270681
 10
162.5946750812
 20
102.0438945945
 10
162.5840408044
 20
102.0382364969
 10
162.5729510244
 20
102.0327594408
 10
162.5614188059
 20
102.0274698788
 10
162.5494577348
 20
102.0223740424
 10
162.5370819022
 20
102.0174779348
 10
162.524305888
 20
102.0127873243
 10
162.5111447433
 20
102.0083077365
 10
162.4976139731
 20
102.004044449
 10
162.4837295177
 20
102.0000024842
 10
162.4695077343
 20
101.9961866039
 10
162.4549653772
 20
101.9926013035
 10
162.4401195786
 20
101.9892508068
 10
162.4249878281
 20
101.9861390609
 10
162.4095879521
 20
101.9832697319
 10
162.3939380931
 20
101.9806461999
 10
162.3780566878
 20
101.9782715557
 10
162.3619624459
 20
101.9761485968
 10
162.3456743278
 20
101.9742798243
 10
162.3292115222
 20
101.9726674398
 10
162.3125934237
 20
101.9713133427
 10
162.2958396098
 20
101.9702191284
 10
162.2789698179
 20
101.9693860858
 10
162.262003922
 20
101.9688151964
 10
162.2449619095
 20
101.9685071327
 10
162.2278638572
 20
101.9684622577
 10
162.210729908
 20
101.9686806242
 10
162.1935802472
 20
101.9691619749
 10
162.1764350786
 20
101.9699057429
 10
162.1593146005
 20
101.9709110518
 10
162.1422389824
 20
101.9721767174
 10
162.1252283407
 20
101.9737012486
 10
162.1083027155
 20
101.9754828493
 10
162.0914820465
 20
101.9775194206
 10
162.0747861499
 20
101.9798085634
 10
162.0582346949
 20
101.9823475809
 10
162.0418471804
 20
101.9851334817
 10
162.0256429123
 20
101.988162984
 10
162.0096409807
 20
101.9914325187
 10
161.9938602371
 20
101.994938234
 10
161.9783192727
 20
101.998676
 10
161.9630363958
 20
102.0026414131
 10
161.9480296111
 20
102.0068298018
  0
LWPOLYLINE
  5
405
100
AcDbEntity
  8
0
100
AcDbPolyline
 62
7
  6
CONTINUOUS
 90
7
 70
0
 10
143.3072906694
 20
123.3503633075
 10
143.2858227002
 20
123.3763146851
 10
143.2678905481
 20
123.4051936574
 10
143.2539282809
 20
123.4365486447
 10
143.2443441025
 20
123.4697448505
 10
143.2394081508
 20
123.5042175188
 10
143.2387518342
 20
123.5220660168
  0
LWPOLYLINE
  5
406
100
AcDbEntity
  8
0
100
AcDbPolyline
 62
253
  6
CONTINUOUS
 90
12
 70
0
 10
147.2693196628
 20
124.163862786
 10
147.2720128934
 20
124.157606705
 10
147.2742097705
 20
124.1515043786
 10
147.2759053359
 20
124.1455695794
 10
147.2770957627
 20
124.1398157019
 10
147.2777783643
 20
124.1342557323
 10
147.2779516
 20
124.1289022191
 10
147.2776150788
 20
124.1237672448
 10
147.2767695604
 20
124.1188623989
 10
147.2754169529
 20
124.1141987512
 10
147.2735603091
 20
124.1097868273
 10
147.2730129091
 20
124.1087150104
  0
LWPOLYLINE
  5
407
100
AcDbEntity
  8
RACCORDO
100
AcDbPolyline
 62
253
  6
CONTINUOUS
 90
34
 70
0
 10
161.6576042693
 20
75.1825178694
 10
161.6591601446
 20
75.1602526931
 10
161.6610957978
 20
75.1383872638
 10
161.6634098129
 20
75.1169379305
 10
161.6661005409
 20
75.0959208392
 10
161.6691659648
 20
75.0753515818
 10
161.6726037238
 20
75.0552452126
 10
161.6764113784
 20
75.0356165955
 10
161.680586113
 20
75.0164806141
 10
161.685124606
 20
74.9978518265
 10
161.690023547
 20
74.9797442079
 10
161.6952793569
 20
74.9621712376
 10
161.7008879061
 20
74.9451461291
 10
161.7068451048
 20
74.9286816271
 10
161.7131465952
 20
74.9127900017
 10
161.7197874683
 20
74.8974831328
 10
161.7267629174
 20
74.8827724065
 10
161.7340678137
 20
74.8686688696
 10
161.7416963989
 20
74.8551832251
 10
161.7496431012
 20
74.8423255517
 10
161.7579021097
 20
74.830105423
 10
161.7664669548
 20
74.8185320708
 10
161.7753313986
 20
74.8076141101
 10
161.7844889398
 20
74.7973596917
 10
161.7939323831
 20
74.7877766107
 10
161.8036548157
 20
74.7788720113
 10
161.813649133
 20
74.7706524975
 10
161.8239075471
 20
74.7631242966
 10
161.8344225922
 20
74.7562929879
 10
161.8451865462
 20
74.7501636649
 10
161.8561909564
 20
74.7447410465
 10
161.867427775
 20
74.740029145
 10
161.8788887802
 20
74.7360314377
 10
161.8833324775
 20
74.7346911087
  0
LINE
  5
408
100
AcDbEntity
  8
0
100
AcDbLine
 62
253
  6
CONTINUOUS
 10
157.3322646576
 20
124.1298791227
 11
157.3322646576
 21
122.7455056019
  0
LINE
  5
409
100
AcDbEntity
  8
0
100
AcDbLine
 62
7
  6
CONTINUOUS
 10
157.3937425804
 20
124.1767433754
 11
157.3937425804
 21
122.8590714736
  0
LINE
  5
40A
100
AcDbEntity
  8
0
100
AcDbLine
 62
7
  6
CONTINUOUS
 10
158.282022787
 20
120.2800647953
 11
158.282022787
 21
119.0510018724
  0
LINE
  5
40B
100
AcDbEntity
  8
0
100
AcDbLine
 62
253
  6
CONTINUOUS
 10
158.382022787
 20
120.1934622549
 11
158.382022787
 21
118.9598479032
  0
LINE
  5
40C
100
AcDbEntity
  8
RACCORDO
100
AcDbLine
 62
253
  6
CONTINUOUS
 10
158.8565962978
 20
128.2119353638
 11
158.8565962978
 21
125.6044423282
  0
LINE
  5
40D
100
AcDbEntity
  8
RACCORDO
100
AcDbLine
 62
7
  6
CONTINUOUS
 10
158.9694385613
 20
128.4300996929
 11
158.9694385613
 21
125.5718675726
  0
LWPOLYLINE
  5
40E
100
AcDbEntity
  8
0
100
AcDbPolyline
 62
253
  6
CONTINUOUS
 90
31
 70
0
 10
158.382022787
 20
120.1934622549
 10
158.3821582097
 20
120.2025905619
 10
158.3825644311
 20
120.2119342854
 10
158.3832408286
 20
120.2214684386
 10
158.3841862553
 20
120.2311693661
 10
158.3853985068
 20
120.2410090872
 10
158.3868738035
 20
120.250955129
 10
158.388607745
 20
120.2609783424
 10
158.3905958898
 20
120.2710534916
 10
158.3928328935
 20
120.2811534423
 10
158.3953127397
 20
120.2912509075
 10
158.3980286575
 20
120.3013182062
 10
158.4009731797
 20
120.3113276256
 10
158.4041382467
 20
120.3212517928
 10
158.4075152793
 20
120.3310638307
 10
158.4110951163
 20
120.3407371188
 10
158.4148680327
 20
120.3502453631
 10
158.4188237492
 20
120.3595626441
 10
158.4229514895
 20
120.3686635722
 10
158.427240017
 20
120.3775233686
 10
158.4316776632
 20
120.3861179236
 10
158.4362523466
 20
120.394423835
 10
158.4409516162
 20
120.4024184939
 10
158.4457626821
 20
120.410080139
 10
158.4506724461
 20
120.4173879096
 10
158.4556675486
 20
120.4243219193
 10
158.4607343904
 20
120.4308632882
 10
158.4658591644
 20
120.4369941924
 10
158.4710279164
 20
120.442697942
 10
158.4762265829
 20
120.4479590215
 10
158.4814410138
 20
120.4527631146
  0
LWPOLYLINE
  5
40F
100
AcDbEntity
  8
0
100
AcDbPolyline
 62
7
  6
CONTINUOUS
 90
15
 70
0
 10
158.282022787
 20
120.2800647953
 10
158.2823636429
 20
120.2917362533
 10
158.2834009435
 20
120.3035032509
 10
158.285154142
 20
120.3153172653
 10
158.2876481801
 20
120.3271658773
 10
158.2908893501
 20
120.3389546017
 10
158.2948443139
 20
120.3505220109
 10
158.2994924408
 20
120.3618124103
 10
158.3048237642
 20
120.3728037101
 10
158.3107932588
 20
120.3834110516
 10
158.3173815122
 20
120.3936132455
 10
158.3245669759
 20
120.4033841675
 10
158.332290912
 20
120.4126557663
 10
158.3405419473
 20
120.4214266428
 10
158.3492976515
 20
120.4296777573
  0
LWPOLYLINE
  5
410
100
AcDbEntity
  8
0
100
AcDbPolyline
 62
7
  6
CONTINUOUS
 90
4
 70
0
 10
166.7585844943
 20
118.4837150104
 10
166.764291537
 20
118.4951916417
 10
166.7694351203
 20
118.5070253982
 10
166.7739893168
 20
118.5191899908
  0
LINE
  5
411
100
AcDbEntity
  8
0
100
AcDbLine
 62
253
  6
CONTINUOUS
 10
166.3829501508
 20
117.8366532968
 11
166.754891248
 21
118.538862786
  0
LINE
  5
412
100
AcDbEntity
  8
0
100
AcDbLine
 62
7
  6
CONTINUOUS
 10
166.3829501508
 20
117.7745328241
 11
166.7585844943
 21
118.4837150104
  0
LINE
  5
413
100
AcDbEntity
  8
0
100
AcDbLine
 62
7
  6
CONTINUOUS
 10
138.910285754
 20
130.6575947685
 11
138.9103066615
 21
130.6575683829
  0
LWPOLYLINE
  5
414
100
AcDbEntity
  8
0
100
AcDbPolyline
 62
253
  6
CONTINUOUS
 90
16
 70
0
 10
147.2097898249
 20
124.6783445414
 10
147.2167206351
 20
124.668716015
 10
147.2232784297
 20
124.6588711971
 10
147.2294483511
 20
124.6488323884
 10
147.2352164156
 20
124.6386223374
 10
147.2405695525
 20
124.6282641762
 10
147.2454956296
 20
124.6177813757
 10
147.24998348
 20
124.6071976961
 10
147.2540229331
 20
124.5965371199
 10
147.2576048359
 20
124.5858238008
 10
147.2607210703
 20
124.5750820169
 10
147.2633645759
 20
124.5643361027
 10
147.2655293606
 20
124.5536104121
 10
147.2672105161
 20
124.5429292666
 10
147.2684042347
 20
124.5323168741
 10
147.2691078143
 20
124.5217972743
  0
LWPOLYLINE
  5
415
100
AcDbEntity
  8
0
100
AcDbPolyline
 62
7
  6
CONTINUOUS
 90
24
 70
0
 10
147.6571791205
 20
122.2186743405
 10
147.6481768591
 20
122.2313445388
 10
147.6369665195
 20
122.2462177717
 10
147.6253293942
 20
122.2607881768
 10
147.6132818258
 20
122.2750353074
 10
147.6008188659
 20
122.2889627839
 10
147.5879389812
 20
122.3025667683
 10
147.5746743589
 20
122.3158078045
 10
147.5610719625
 20
122.3286374451
 10
147.5471548871
 20
122.3410353643
 10
147.5329399842
 20
122.3529878461
 10
147.518469124
 20
122.3644619462
 10
147.5037879279
 20
122.3754272302
 10
147.4888955496
 20
122.3858899536
 10
147.4737633548
 20
122.3958705728
 10
147.4583906181
 20
122.4053657406
 10
147.4428185305
 20
122.4143462456
 10
147.4270800876
 20
122.4227909948
 10
147.4111883874
 20
122.4306914946
 10
147.395174281
 20
122.4380308795
 10
147.3790989482
 20
122.4447819883
 10
147.3629984324
 20
122.4509338117
 10
147.3468827672
 20
122.4564868703
 10
147.3307746479
 20
122.4614368159
  0
LWPOLYLINE
  5
416
100
AcDbEntity
  8
0
100
AcDbPolyline
 62
253
  6
CONTINUOUS
 90
12
 70
0
 10
151.6860492221
 20
122.888862786
 10
151.6887424527
 20
122.882606705
 10
151.6909393298
 20
122.8765043786
 10
151.6926348952
 20
122.8705695794
 10
151.693825322
 20
122.8648157019
 10
151.6945079236
 20
122.8592557323
 10
151.6946811593
 20
122.8539022191
 10
151.6943446381
 20
122.8487672448
 10
151.6934991197
 20
122.8438623989
 10
151.6921465122
 20
122.8391987512
 10
151.6902898684
 20
122.8347868273
 10
151.6897424684
 20
122.8337150104
  0
LWPOLYLINE
  5
417
100
AcDbEntity
  8
RACCORDO
100
AcDbPolyline
 62
253
  6
CONTINUOUS
 90
52
 70
0
 10
162.3327683267
 20
75.3097459213
 10
162.3335723109
 20
75.2985975165
 10
162.3345687689
 20
75.2876625398
 10
162.3357577007
 20
75.2769409911
 10
162.3371403043
 20
75.2664247836
 10
162.3387153816
 20
75.2561220042
 10
162.3404793388
 20
75.2460569136
 10
162.3424325823
 20
75.2362303927
 10
162.3445747057
 20
75.2266415607
 10
162.3469008958
 20
75.2173120357
 10
162.3494115637
 20
75.2082424349
 10
162.3521062983
 20
75.1994321413
 10
162.3549790534
 20
75.1909009217
 10
162.3580302203
 20
75.1826494141
 10
162.3612594077
 20
75.1746769806
 10
162.3646593946
 20
75.1670014739
 10
162.3682305758
 20
75.1596235348
 10
162.3719725566
 20
75.1525425225
 10
162.3758769315
 20
75.145774367
 10
162.3799440603
 20
75.1393197833
 10
162.3841735832
 20
75.1331780565
 10
162.3885560166
 20
75.1273629718
 10
162.3930917081
 20
75.1218752585
 10
162.3977803099
 20
75.1167141874
 10
162.4026112949
 20
75.1118913559
 10
162.4075849723
 20
75.1074075314
 10
162.4127010329
 20
75.1032619467
 10
162.4179480216
 20
75.0994638969
 10
162.4233262442
 20
75.0960141532
 10
162.4288353949
 20
75.0929119445
 10
162.4344631013
 20
75.090164253
 10
162.4402096259
 20
75.0877718789
 10
162.4460747062
 20
75.085734022
 10
162.4520451829
 20
75.0840552643
 10
162.4581213029
 20
75.0827364133
 10
162.4643028194
 20
75.0817766614
 10
162.4705758322
 20
75.0811781682
 10
162.4769405259
 20
75.0809417461
 10
162.483396716
 20
75.0810665827
 10
162.489929949
 20
75.0815524004
 10
162.4965404103
 20
75.0824000072
 10
162.5032279144
 20
75.083608595
 10
162.5099774515
 20
75.0851754626
 10
162.5167891823
 20
75.0871014291
 10
162.5236629461
 20
75.0893856753
 10
162.5305832504
 20
75.092023042
 10
162.5375503531
 20
75.0950144359
 10
162.5445639963
 20
75.0983589503
 10
162.5516079143
 20
75.102048706
 10
162.5586766852
 20
75.1060810765
 10
162.5657757309
 20
75.1104586882
 10
162.5729050513
 20
75.1151815412
  0
LWPOLYLINE
  5
418
100
AcDbEntity
  8
RACCORDO
100
AcDbPolyline
 62
7
  6
CONTINUOUS
 90
10
 70
0
 10
158.9694385613
 20
128.4300996929
 10
158.9646034176
 20
128.5525483745
 10
158.9501618252
 20
128.6752185226
 10
158.9262044915
 20
128.7975959132
 10
158.8926519237
 20
128.9196829692
 10
158.8496411261
 20
129.0404789993
 10
158.7978768201
 20
129.158091146
 10
158.7379033433
 20
129.2717138941
 10
158.6697500068
 20
129.3814752284
 10
158.5935799941
 20
129.4869994691
  0
LWPOLYLINE
  5
419
100
AcDbEntity
  8
0
100
AcDbPolyline
 62
7
  6
CONTINUOUS
 90
30
 70
0
 10
160.9947160911
 20
124.5237375786
 10
160.9944112297
 20
124.5536398857
 10
160.9935050903
 20
124.5829163522
 10
160.9919976729
 20
124.6115669779
 10
160.989885237
 20
124.6396282806
 10
160.9871715231
 20
124.6670637427
 10
160.9838677527
 20
124.6937638111
 10
160.9799732271
 20
124.7197174524
 10
160.9754886449
 20
124.7449357002
 10
160.9704273236
 20
124.7693421018
 10
160.9647845421
 20
124.7929443862
 10
160.9585650213
 20
124.8157348245
 10
160.9517962411
 20
124.8376137774
 10
160.9444803015
 20
124.8585662376
 10
160.9366151025
 20
124.8786072124
 10
160.9282218237
 20
124.8976820838
 10
160.9192928891
 20
124.915799064
 10
160.9098358746
 20
124.9329499409
 10
160.8998946877
 20
124.9490554604
 10
160.8894747494
 20
124.9641010951
 10
160.8785706385
 20
124.9781013724
 10
160.867209999
 20
124.9910206205
 10
160.8553827083
 20
125.0028638906
 10
160.8430988889
 20
125.0136261316
 10
160.8304165521
 20
125.023256518
 10
160.8173436165
 20
125.0317442946
 10
160.8038721635
 20
125.0391002165
 10
160.7900364486
 20
125.0453057234
 10
160.7758254058
 20
125.0503607331
 10
160.7720693294
 20
125.0514869952
  0
LINE
  5
41A
100
AcDbEntity
  8
0
100
AcDbLine
 62
7
  6
CONTINUOUS
 10
159.8738812157
 20
119.3526114989
 11
159.8738812157
 21
117.9064487331
  0
LINE
  5
41B
100
AcDbEntity
  8
0
100
AcDbLine
 62
7
  6
CONTINUOUS
 10
160.6890477667
 20
117.6711304193
 11
160.6890477667
 21
119.1172931851
  0
LINE
  5
41C
100
AcDbEntity
  8
0
100
AcDbLine
 62
7
  6
CONTINUOUS
 10
160.9947160911
 20
124.5237375786
 11
160.9947160911
 21
124.059559265
  0
LINE
  5
41D
100
AcDbEntity
  8
0
100
AcDbLine
 62
7
  6
CONTINUOUS
 10
161.4466053493
 20
118.3865474883
 11
161.4466053493
 21
119.7721881344
  0
LWPOLYLINE
  5
41E
100
AcDbEntity
  8
RACCORDO
100
AcDbPolyline
 62
253
  6
CONTINUOUS
 90
22
 70
0
 10
161.4508380268
 20
85.144316884
 10
161.4426899892
 20
84.6548995512
 10
161.4363417473
 20
84.1668701129
 10
161.4317935582
 20
83.6802472494
 10
161.4290456356
 20
83.195049586
 10
161.4280980821
 20
82.711295693
 10
161.4289508898
 20
82.2290040859
 10
161.4316040611
 20
81.7481932156
 10
161.4360575147
 20
81.2688814885
 10
161.442311018
 20
80.7910872665
 10
161.4503643758
 20
80.3148288354
 10
161.4602173089
 20
79.8401244151
 10
161.471869361
 20
79.3669921805
 10
161.4853201395
 20
78.8954502256
 10
161.5005691675
 20
78.4255165986
 10
161.5176157644
 20
77.9572093131
 10
161.5364593395
 20
77.4905462849
 10
161.5570992188
 20
77.0255453641
 10
161.5795344983
 20
76.5622243702
 10
161.6037643234
 20
76.1006010358
 10
161.6297878898
 20
75.6406930058
 10
161.6576042693
 20
75.1825178694
  0
LWPOLYLINE
  5
41F
100
AcDbEntity
  8
RACCORDO
100
AcDbPolyline
 62
253
  6
CONTINUOUS
 90
16
 70
0
 10
161.9480296111
 20
102.0068298018
 10
161.9031613342
 20
100.8742230212
 10
161.8599665958
 20
99.742790478
 10
161.8184456703
 20
98.612539435
 10
161.7785988205
 20
97.4834771482
 10
161.7404263017
 20
96.3556108644
 10
161.7039283617
 20
95.2289478209
 10
161.6691052351
 20
94.1034952486
 10
161.6359571438
 20
92.9792603725
 10
161.6044843003
 20
91.8562504092
 10
161.5746869087
 20
90.734472567
 10
161.5465651597
 20
89.6139340456
 10
161.5201192309
 20
88.494642037
 10
161.4953492927
 20
87.3766037249
 10
161.4722555076
 20
86.2598262848
 10
161.4508380268
 20
85.144316884
  0
LWPOLYLINE
  5
420
100
AcDbEntity
  8
RACCORDO
100
AcDbPolyline
 62
253
  6
CONTINUOUS
 90
22
 70
0
 10
162.7642404043
 20
112.7146618375
 10
162.707589137
 20
112.1948866559
 10
162.6527050356
 20
111.675974527
 10
162.599590133
 20
111.1579453357
 10
162.54824634
 20
110.6408189554
 10
162.4986756174
 20
110.1246151775
 10
162.4508799758
 20
109.6093537112
 10
162.4048611975
 20
109.0950542919
 10
162.3606209824
 20
108.5817366298
 10
162.3181611208
 20
108.0694203407
 10
162.2774832004
 20
107.5581250541
 10
162.2385887247
 20
107.0478703533
 10
162.2014792606
 20
106.5386757242
 10
162.1661561992
 20
106.0305606628
 10
162.1326208491
 20
105.5235446399
 10
162.1008745557
 20
105.0176470403
 10
162.0709185144
 20
104.512887241
 10
162.0427538367
 20
104.0092845718
 10
162.0163816441
 20
103.5068582802
 10
161.9918029484
 20
103.0056275938
 10
161.9690186513
 20
102.5056117189
 10
161.9480296111
 20
102.0068298018
  0
LWPOLYLINE
  5
421
100
AcDbEntity
  8
0
100
AcDbPolyline
 62
253
  6
CONTINUOUS
 90
32
 70
0
 10
165.2458792325
 20
117.2407467907
 10
165.2426405937
 20
117.2293608219
 10
165.2389222298
 20
117.2181402556
 10
165.2347322046
 20
117.2071105036
 10
165.2300792931
 20
117.1962957814
 10
165.224973983
 20
117.185721471
 10
165.2194287837
 20
117.1754138758
 10
165.2134567131
 20
117.1653970616
 10
165.2070708189
 20
117.1556927911
 10
165.2002853736
 20
117.1463227816
 10
165.1931155704
 20
117.1373080842
 10
165.1855776587
 20
117.1286691971
 10
165.1776887941
 20
117.1204258053
 10
165.1694668463
 20
117.1125965732
 10
165.1609303174
 20
117.1051991111
 10
165.1520984572
 20
117.0982501023
 10
165.1429911865
 20
117.0917652267
 10
165.133629074
 20
117.0857591361
 10
165.1240332725
 20
117.0802454027
 10
165.1142254498
 20
117.0752364761
 10
165.1042277384
 20
117.0707436589
 10
165.0940627058
 20
117.0667770925
 10
165.0837532974
 20
117.0633457308
 10
165.073322785
 20
117.0604573195
 10
165.0627947138
 20
117.0581183789
 10
165.0521928366
 20
117.0563341868
 10
165.0415410973
 20
117.0551087738
 10
165.030863578
 20
117.0544449074
 10
165.0201844063
 20
117.0543440797
 10
165.0095276628
 20
117.0548065103
 10
164.9989173649
 20
117.0558311539
 10
164.9965432119
 20
117.0561383831
  0
LWPOLYLINE
  5
422
100
AcDbEntity
  8
0
100
AcDbPolyline
 62
7
  6
CONTINUOUS
 90
8
 70
0
 10
166.7739893168
 20
118.5191899908
 10
166.7779393481
 20
118.5316922354
 10
166.7812477957
 20
118.5444679128
 10
166.7838742561
 20
118.5573821749
 10
166.7858123585
 20
118.5703827358
 10
166.7870641854
 20
118.5834628069
 10
166.7876265273
 20
118.5965597219
 10
166.7876613445
 20
118.6007340077
  0
LINE
  5
423
100
AcDbEntity
  8
RACCORDO
100
AcDbLine
 62
7
  6
CONTINUOUS
 10
165.6653860882
 20
111.2797176449
 11
166.4755449337
 21
111.0458449312
  0
LINE
  5
424
100
AcDbEntity
  8
RACCORDO
100
AcDbLine
 62
253
  6
CONTINUOUS
 10
162.7792409135
 20
112.7103829335
 11
125.4667956597
 21
123.4815067191
  0
LINE
  5
425
100
AcDbEntity
  8
RACCORDO
100
AcDbLine
 62
253
  6
CONTINUOUS
 10
163.2781493943
 20
113.8396899152
 11
125.9588716657
 21
124.6128374365
  0
LWPOLYLINE
  5
426
100
AcDbEntity
  8
0
100
AcDbPolyline
 62
253
  6
CONTINUOUS
 90
8
 70
0
 10
132.0549495552
 20
129.1082376803
 10
132.0646257438
 20
129.1018679519
 10
132.074117743
 20
129.0950934623
 10
132.0834041596
 20
129.0879294397
 10
132.0924638128
 20
129.0803921823
 10
132.101275976
 20
129.0724989208
 10
132.1098206065
 20
129.0642676207
 10
132.1180784296
 20
129.0557168633
  0
LWPOLYLINE
  5
427
100
AcDbEntity
  8
0
100
AcDbPolyline
 62
253
  6
CONTINUOUS
 90
4
 70
0
 10
147.1869204555
 20
124.7057168633
 10
147.1948728144
 20
124.6968659667
 10
147.2025017081
 20
124.687734956
 10
147.2097898249
 20
124.6783445414
  0
LINE
  5
428
100
AcDbEntity
  8
0
100
AcDbLine
 62
253
  6
CONTINUOUS
 10
148.7544808354
 20
129.9203467246
 11
149.2603759233
 21
128.9053594427
  0
LINE
  5
429
100
AcDbEntity
  8
0
100
AcDbLine
 62
7
  6
CONTINUOUS
 10
150.1741126247
 20
128.1108594712
 11
150.1688609932
 21
128.1229086299
  0
LWPOLYLINE
  5
42A
100
AcDbEntity
  8
0
100
AcDbPolyline
 62
253
  6
CONTINUOUS
 90
22
 70
0
 10
164.9051037619
 20
75.556044272
 10
164.9052442979
 20
75.5459023188
 10
164.9056655899
 20
75.5360265861
 10
164.9063666904
 20
75.5264392801
 10
164.9073460232
 20
75.5171619587
 10
164.908601386
 20
75.5082154825
 10
164.9101299561
 20
75.4996199684
 10
164.9119282964
 20
75.4913947441
 10
164.9139923632
 20
75.4835583047
 10
164.9163175152
 20
75.4761282708
 10
164.9188985243
 20
75.4691213496
 10
164.9217295867
 20
75.4625532967
 10
164.9248043366
 20
75.4564388807
 10
164.9281158603
 20
75.4507918504
 10
164.9316567115
 20
75.4456249037
 10
164.9354189284
 20
75.4409496587
 10
164.9393940512
 20
75.4367766281
 10
164.9435731417
 20
75.4331151953
 10
164.9479468029
 20
75.4299735933
 10
164.9525052002
 20
75.4273588862
 10
164.9572380837
 20
75.4252769534
 10
164.9607662374
 20
75.4241052167
  0
LWPOLYLINE
  5
42B
100
AcDbEntity
  8
0
100
AcDbPolyline
 62
253
  6
CONTINUOUS
 90
23
 70
0
 10
162.8493228688
 20
117.7890751715
 10
162.8494418719
 20
117.7797331329
 10
162.8497986548
 20
117.7706150014
 10
162.8503925381
 20
117.7617381382
 10
162.8512223886
 20
117.7531194682
 10
162.8522866273
 20
117.7447753776
 10
162.8535832394
 20
117.7367216905
 10
162.8551097727
 20
117.7289736974
 10
162.8568633179
 20
117.7215462148
 10
162.8588405156
 20
117.7144534794
 10
162.861037583
 20
117.7077090349
 10
162.8634503459
 20
117.7013256717
 10
162.8660742269
 20
117.6953154982
 10
162.8689042526
 20
117.689689922
 10
162.8719350177
 20
117.6844597032
 10
162.8751607041
 20
117.6796348719
 10
162.8785751315
 20
117.6752246379
 10
162.8821718201
 20
117.6712373383
 10
162.8859439625
 20
117.6676805088
 10
162.8898848597
 20
117.6645605738
 10
162.893986564
 20
117.6618839282
 10
162.8982397584
 20
117.6596563666
 10
162.902635675
 20
117.6578818382
  0
LWPOLYLINE
  5
42C
100
AcDbEntity
  8
RACCORDO
100
AcDbPolyline
 62
253
  6
CONTINUOUS
 90
46
 70
0
 10
163.697934208
 20
113.2711344718
 10
163.6978928265
 20
113.2865145855
 10
163.6973325323
 20
113.3020342529
 10
163.6962540072
 20
113.3176745821
 10
163.6946585642
 20
113.3334165345
 10
163.6925481455
 20
113.3492409477
 10
163.6899253198
 20
113.3651285589
 10
163.6867932801
 20
113.3810600282
 10
163.6831558388
 20
113.3970159627
 10
163.6790174238
 20
113.4129769395
 10
163.6743830726
 20
113.4289235294
 10
163.6692584266
 20
113.444836321
 10
163.6636497239
 20
113.460695944
 10
163.6575637919
 20
113.4764830926
 10
163.6510080388
 20
113.4921785494
 10
163.643990445
 20
113.5077632087
 10
163.6365195528
 20
113.5232180994
 10
163.6286044563
 20
113.5385244085
 10
163.6202547905
 20
113.5536635041
 10
163.6114807193
 20
113.5686169574
 10
163.6022929232
 20
113.5833665659
 10
163.5927025864
 20
113.5978943752
 10
163.582721383
 20
113.6121827007
 10
163.572361463
 20
113.6262141496
 10
163.5616354373
 20
113.6399716416
 10
163.5505563625
 20
113.6534384298
 10
163.5391377251
 20
113.6665981215
 10
163.5273934246
 20
113.6794346975
 10
163.5153377573
 20
113.6919325321
 10
163.5029853984
 20
113.7040764119
 10
163.4903513841
 20
113.7158515543
 10
163.4774510936
 20
113.7272436256
 10
163.4643002302
 20
113.7382387585
 10
163.4509148023
 20
113.7488235688
 10
163.4373111037
 20
113.7589851716
 10
163.423505694
 20
113.7687111976
 10
163.4095153783
 20
113.7779898073
 10
163.3953571867
 20
113.786809706
 10
163.3810483538
 20
113.7951601575
 10
163.3666062974
 20
113.8030309968
 10
163.3520485978
 20
113.810412643
 10
163.3373929756
 20
113.8172961104
 10
163.322657271
 20
113.8236730199
 10
163.3078594215
 20
113.8295356091
 10
163.2930174403
 20
113.8348767414
 10
163.2781493943
 20
113.8396899152
  0
LINE
  5
42D
100
AcDbEntity
  8
0
100
AcDbLine
 62
7
  6
CONTINUOUS
 10
162.7243228688
 20
118.2373022811
 11
162.7243228688
 21
117.897328347
  0
LINE
  5
42E
100
AcDbEntity
  8
0
100
AcDbLine
 62
253
  6
CONTINUOUS
 10
162.8493228688
 20
118.1290491056
 11
162.8493228688
 21
117.7890751715
  0
LINE
  5
42F
100
AcDbEntity
  8
0
100
AcDbLine
 62
7
  6
CONTINUOUS
 10
163.2192844804
 20
117.5664057708
 11
163.2192844804
 21
117.0185691102
  0
LINE
  5
430
100
AcDbEntity
  8
0
100
AcDbLine
 62
253
  6
CONTINUOUS
 10
163.3442844804
 20
117.530321379
 11
163.3442844804
 21
116.9046296036
  0
LINE
  5
431
100
AcDbEntity
  8
0
100
AcDbLine
 62
253
  6
CONTINUOUS
 10
164.1905696524
 20
122.1514012824
 11
164.1905696524
 21
121.6199261499
  0
LINE
  5
432
100
AcDbEntity
  8
0
100
AcDbLine
 62
253
  6
CONTINUOUS
 10
164.1905696524
 20
121.2188313644
 11
164.1905696524
 21
120.767211343
  0
LINE
  5
433
100
AcDbEntity
  8
0
100
AcDbLine
 62
7
  6
CONTINUOUS
 10
164.2507194876
 20
122.1973547273
 11
164.2507194876
 21
120.8796329029
  0
LWPOLYLINE
  5
434
100
AcDbEntity
  8
0
100
AcDbPolyline
 62
253
  6
CONTINUOUS
 90
34
 70
0
 10
162.8493228688
 20
118.1290491056
 10
162.8494634436
 20
118.1394359238
 10
162.8498848525
 20
118.1500428784
 10
162.8505861491
 20
118.1608461131
 10
162.8515657579
 20
118.171821337
 10
162.8528214764
 20
118.1829438584
 10
162.8543504783
 20
118.1941886393
 10
162.856149323
 20
118.2055303814
 10
162.858213965
 20
118.2169435805
 10
162.8605397594
 20
118.2284025622
 10
162.8631214748
 20
118.2398815547
 10
162.8659533035
 20
118.2513547375
 10
162.8690288731
 20
118.262796296
 10
162.8723412644
 20
118.2741804943
 10
162.8758830265
 20
118.2854817294
 10
162.8796461912
 20
118.2966745795
 10
162.8836222954
 20
118.3077338763
 10
162.887802393
 20
118.3186347404
 10
162.8921770729
 20
118.3293526354
 10
162.8967364809
 20
118.3398634282
 10
162.9014703722
 20
118.3501435115
 10
162.9063681305
 20
118.3601698315
 10
162.9114187895
 20
118.3699199257
 10
162.9166109455
 20
118.3793717668
 10
162.9219328056
 20
118.3885038999
 10
162.9273723194
 20
118.3972956884
 10
162.9329173183
 20
118.4057275049
 10
162.9385554335
 20
118.4137805556
 10
162.9442748507
 20
118.4214378505
 10
162.950061863
 20
118.4286809245
 10
162.955900918
 20
118.435490635
 10
162.96177798
 20
118.4418513596
 10
162.9676806474
 20
118.4477504174
 10
162.9735956524
 20
118.4531751802
  0
LWPOLYLINE
  5
435
100
AcDbEntity
  8
0
100
AcDbPolyline
 62
253
  6
CONTINUOUS
 90
34
 70
0
 10
164.9051037619
 20
117.5355962796
 10
164.9052442979
 20
117.5459816482
 10
164.9056655899
 20
117.5565870799
 10
164.9063666904
 20
117.5673887278
 10
164.9073460232
 20
117.5783623033
 10
164.908601386
 20
117.5894831317
 10
164.9101299561
 20
117.6007262068
 10
164.9119282964
 20
117.6120662479
 10
164.9139923632
 20
117.6234777559
 10
164.9163175152
 20
117.6349350712
 10
164.9188985243
 20
117.6464124311
 10
164.9217295867
 20
117.6578840281
 10
164.9248043366
 20
117.6693240672
 10
164.9281158603
 20
117.6807068247
 10
164.9316567115
 20
117.6920067057
 10
164.9354189284
 20
117.7031983014
 10
164.9393940512
 20
117.7142564467
 10
164.9435731417
 20
117.7251562766
 10
164.9479468029
 20
117.735873282
 10
164.9525052002
 20
117.7463833648
 10
164.9572380837
 20
117.7566628924
 10
164.9621348113
 20
117.7666887504
 10
164.9671843721
 20
117.7764383949
 10
164.972375412
 20
117.7858899032
 10
164.9776962584
 20
117.7950220228
 10
164.9831349471
 20
117.8038142194
 10
164.9886792487
 20
117.8122467232
 10
164.9943166965
 20
117.8203005729
 10
165.0000346142
 20
117.827957659
 10
165.0058201446
 20
117.8352007638
 10
165.0116602786
 20
117.8420136007
 10
165.0175418842
 20
117.8483808506
 10
165.023451736
 20
117.8542881961
 10
165.0293765455
 20
117.8597223542
  0
LWPOLYLINE
  5
436
100
AcDbEntity
  8
RACCORDO
100
AcDbPolyline
 62
253
  6
CONTINUOUS
 90
22
 70
0
 10
162.1270279899
 20
85.216237056
 10
162.1189264472
 20
84.7295077886
 10
162.1126155333
 20
84.2441955091
 10
162.1080952484
 20
83.7603002175
 10
162.1053655549
 20
83.2778034581
 10
162.1044264903
 20
82.7967236866
 10
162.1052781667
 20
82.3171162702
 10
162.1079207904
 20
81.8389814185
 10
162.112354155
 20
81.3623189218
 10
162.1185777539
 20
80.8871835179
 10
162.1265917924
 20
80.4135753876
 10
162.1363960651
 20
79.9414943501
 10
162.1479894494
 20
79.4709946014
 10
162.1613721507
 20
79.0020763176
 10
162.1765439636
 20
78.5347393226
 10
162.1935031491
 20
78.0690372842
 10
162.2122499158
 20
77.6049703343
 10
162.2327840552
 20
77.142538341
 10
162.2551032024
 20
76.6817945758
 10
162.2792065693
 20
76.2227567961
 10
162.305094944
 20
75.7654072446
 10
162.3327683267
 20
75.3097459213
  0
LWPOLYLINE
  5
437
100
AcDbEntity
  8
RACCORDO
100
AcDbPolyline
 62
253
  6
CONTINUOUS
 90
16
 70
0
 10
162.6237223826
 20
102.061887461
 10
162.5788980273
 20
100.9304014128
 10
162.5357461401
 20
99.8001028822
 10
162.4942667209
 20
98.6709918691
 10
162.4544595247
 20
97.5430611343
 10
162.4163247965
 20
96.4163179171
 10
162.3798632716
 20
95.2907839354
 10
162.3450749825
 20
94.1664592196
 10
162.3119598966
 20
93.0433437393
 10
162.2805186516
 20
91.9214591215
 10
162.2507512795
 20
90.8008053798
 10
162.2226577484
 20
89.6813825007
 10
162.1962385998
 20
88.5632120701
 10
162.171494014
 20
87.4463012835
 10
162.1484238107
 20
86.3306429455
 10
162.1270279899
 20
85.216237056
  0
LWPOLYLINE
  5
438
100
AcDbEntity
  8
RACCORDO
100
AcDbPolyline
 62
253
  6
CONTINUOUS
 90
24
 70
0
 10
162.5729050513
 20
75.1151815412
 10
162.5719511314
 20
75.0996124369
 10
162.5704794094
 20
75.0842205602
 10
162.5684916768
 20
75.0690246475
 10
162.5659903534
 20
75.0540431964
 10
162.5629784838
 20
75.0392944435
 10
162.5594597344
 20
75.0247963424
 10
162.5554383885
 20
75.0105665414
 10
162.5509193413
 20
74.996622362
 10
162.5459080937
 20
74.9829807784
 10
162.5404107457
 20
74.9696583962
 10
162.5344339893
 20
74.9566714325
 10
162.5279850998
 20
74.9440356961
 10
162.5210719274
 20
74.9317665683
 10
162.5137028873
 20
74.9198789842
 10
162.5058869498
 20
74.9083874142
 10
162.497633629
 20
74.8973058469
 10
162.4889529716
 20
74.8866477717
 10
162.4798555445
 20
74.8764261624
 10
162.4703524217
 20
74.8666534617
 10
162.4604551713
 20
74.8573415657
 10
162.450175841
 20
74.8485018096
 10
162.4395269437
 20
74.840144954
 10
162.4292544521
 20
74.8327819934
  0
LWPOLYLINE
  5
439
100
AcDbEntity
  8
RACCORDO
100
AcDbPolyline
 62
253
  6
CONTINUOUS
 90
22
 70
0
 10
163.435521467
 20
112.7101960928
 10
163.3791715699
 20
112.1932789994
 10
163.3245833703
 20
111.6772593892
 10
163.2717568681
 20
111.1621372623
 10
163.2206901727
 20
110.6478929263
 10
163.1713851747
 20
110.1345460736
 10
163.1238475468
 20
109.6221557811
 10
163.0780774968
 20
109.1107222019
 10
163.0340748168
 20
108.6002451829
 10
162.9918445566
 20
108.090783341
 10
162.95138692
 20
107.5823367986
 10
162.9127017032
 20
107.0749054334
 10
162.8757933443
 20
106.5685474953
 10
162.8406620468
 20
106.0632631017
 10
162.8073076072
 20
105.5590521352
 10
162.7757338533
 20
105.0559724935
 10
162.7459409869
 20
104.5540242461
 10
162.7179288063
 20
104.0532073234
 10
162.6917005333
 20
103.5535794146
 10
162.6672572421
 20
103.0551597495
 10
162.6445978585
 20
102.5579290983
 10
162.6237223826
 20
102.061887461
  0
LINE
  5
43A
100
AcDbEntity
  8
0
100
AcDbLine
 62
7
  6
CONTINUOUS
 10
160.9947160911
 20
124.059559265
 11
159.7583512523
 21
123.7682587696
  0
LINE
  5
43B
100
AcDbEntity
  8
0
100
AcDbLine
 62
7
  6
CONTINUOUS
 10
164.9965311598
 20
117.056140016
 11
165.4390583851
 21
116.9961696437
  0
LINE
  5
43C
100
AcDbEntity
  8
0
100
AcDbLine
 62
253
  6
CONTINUOUS
 10
165.2458792325
 20
117.2407467907
 11
165.7509176209
 21
117.1723050352
  0
LWPOLYLINE
  5
43D
100
AcDbEntity
  8
0
100
AcDbPolyline
 62
7
  6
CONTINUOUS
 90
5
 70
0
 10
164.9965432119
 20
117.0561383831
 10
164.9933301078
 20
117.0565949144
 10
164.9803102404
 20
117.0588844901
 10
164.9674075173
 20
117.0618648172
 10
164.9607602783
 20
117.0636850109
  0
LINE
  5
43E
100
AcDbEntity
  8
RACCORDO
100
AcDbLine
 62
7
  6
CONTINUOUS
 10
127.8523499865
 20
126.2665545485
 11
165.3515467357
 21
115.4414688797
  0
LINE
  5
43F
100
AcDbEntity
  8
DRAFT
100
AcDbLine
 62
7
  6
CONTINUOUS
 10
133.4601064003
 20
124.6885104468
 11
141.2543350343
 21
122.4385104468
  0
LINE
  5
440
100
AcDbEntity
  8
0
100
AcDbLine
 62
7
  6
CONTINUOUS
 10
166.0428618408
 20
116.1256174209
 11
165.4101421504
 21
116.3082678627
  0
LINE
  5
441
100
AcDbEntity
  8
0
100
AcDbLine
 62
7
  6
CONTINUOUS
 10
163.3442844804
 20
116.9046296036
 11
160.6890477667
 21
117.6711304193
  0
LINE
  5
442
100
AcDbEntity
  8
0
100
AcDbLine
 62
7
  6
CONTINUOUS
 10
159.8738812157
 20
117.9064487331
 11
153.8117033892
 21
119.6564487331
  0
LINE
  5
443
100
AcDbEntity
  8
0
100
AcDbLine
 62
7
  6
CONTINUOUS
 10
152.9965368382
 20
119.891767047
 11
150.3413001245
 21
120.6582678627
  0
LINE
  5
444
100
AcDbEntity
  8
0
100
AcDbLine
 62
7
  6
CONTINUOUS
 10
148.2754424545
 20
121.2546296036
 11
147.6427227641
 21
121.4372800454
  0
LINE
  5
445
100
AcDbEntity
  8
0
100
AcDbLine
 62
7
  6
CONTINUOUS
 10
146.5572902557
 20
121.7506174209
 11
145.9245705652
 21
121.9332678627
  0
LINE
  5
446
100
AcDbEntity
  8
0
100
AcDbLine
 62
7
  6
CONTINUOUS
 10
143.8587128952
 20
122.5296296036
 11
141.2034761815
 21
123.2961304193
  0
LINE
  5
447
100
AcDbEntity
  8
0
100
AcDbLine
 62
7
  6
CONTINUOUS
 10
140.3883096305
 20
123.5314487331
 11
134.326131804
 21
125.2814487331
  0
LINE
  5
448
100
AcDbEntity
  8
0
100
AcDbLine
 62
7
  6
CONTINUOUS
 10
133.5109652531
 20
125.516767047
 11
130.8557285394
 21
126.2832678627
  0
LINE
  5
449
100
AcDbEntity
  8
0
100
AcDbLine
 62
7
  6
CONTINUOUS
 10
128.7898708694
 20
126.8796296036
 11
128.1571511789
 21
127.0622800454
  0
LWPOLYLINE
  5
44A
100
AcDbEntity
  8
0
100
AcDbPolyline
 62
7
  6
CONTINUOUS
 90
12
 70
0
 10
128.3505717332
 20
127.6321361163
 10
128.3234676394
 20
127.6416796257
 10
128.2975361345
 20
127.6543267425
 10
128.2731921693
 20
127.6699077553
 10
128.2509278653
 20
127.6880859004
 10
128.2309401156
 20
127.7086498265
 10
128.2132619107
 20
127.7316269825
 10
128.1982338346
 20
127.7567428712
 10
128.1861931887
 20
127.7835770871
 10
128.1773017186
 20
127.8119828257
 10
128.1718089492
 20
127.8415674896
 10
128.1699093005
 20
127.8722552984
  0
LWPOLYLINE
  5
44B
100
AcDbEntity
  8
0
100
AcDbPolyline
 62
7
  6
CONTINUOUS
 90
5
 70
0
 10
143.4194281018
 20
123.2821319784
 10
143.3890271921
 20
123.2930811033
 10
143.3594466209
 20
123.3083661864
 10
143.3319794052
 20
123.3275911442
 10
143.3072906694
 20
123.3503633075
  0
LWPOLYLINE
  5
44C
100
AcDbEntity
  8
0
100
AcDbPolyline
 62
253
  6
CONTINUOUS
 90
3
 70
0
 10
143.4126681733
 20
123.2846563666
 10
143.4170640899
 20
123.2828818382
 10
143.4194155342
 20
123.2821356039
  0
LINE
  5
44D
100
AcDbEntity
  8
0
100
AcDbLine
 62
7
  6
CONTINUOUS
 10
145.7571562563
 20
128.6810743061
 11
145.7571774813
 21
128.6810488327
  0
LINE
  5
44E
100
AcDbEntity
  8
RACCORDO
100
AcDbLine
 62
7
  6
CONTINUOUS
 10
152.0679506007
 20
131.4189702869
 11
152.079114712
 21
131.3964114139
  0
LINE
  5
44F
100
AcDbEntity
  8
DRAFT
100
AcDbLine
 62
7
  6
CONTINUOUS
 10
166.4755449337
 20
82.2938015255
 11
165.6521835998
 21
95.9846715411
  0
LWPOLYLINE
  5
450
100
AcDbEntity
  8
0
100
AcDbPolyline
 62
253
  6
CONTINUOUS
 90
24
 70
0
 10
164.9051037619
 20
117.1956223455
 10
164.9052224373
 20
117.1862930358
 10
164.9055783995
 20
117.1771839282
 10
164.9061712146
 20
117.1683125681
 10
164.907000104
 20
117.1596951147
 10
164.9080636764
 20
117.1513492619
 10
164.9093596639
 20
117.1432938847
 10
164.9108854058
 20
117.1355452144
 10
164.9126381355
 20
117.1281170415
 10
164.9146145395
 20
117.1210234298
 10
164.9168108817
 20
117.1142778415
 10
164.9192229716
 20
117.1078931941
 10
164.9218461853
 20
117.1018817385
 10
164.9246755057
 20
117.0962549562
 10
164.9277055614
 20
117.0910235143
 10
164.9309306047
 20
117.086197338
 10
164.9343445205
 20
117.0817855944
 10
164.9379407901
 20
117.0777967224
 10
164.9417125189
 20
117.0742383652
 10
164.9456524928
 20
117.0711173078
 10
164.9497532316
 20
117.0684394552
 10
164.9540069594
 20
117.0662098784
 10
164.9584055897
 20
117.064432818
 10
164.9607602783
 20
117.0636850109
  0
LINE
  5
451
100
AcDbEntity
  8
0
100
AcDbLine
 62
253
  6
CONTINUOUS
 10
164.9051037619
 20
75.556044272
 11
164.9051037619
 21
75.8960182061
  0
LINE
  5
452
100
AcDbEntity
  8
0
100
AcDbLine
 62
253
  6
CONTINUOUS
 10
164.9051037619
 20
117.1956223455
 11
164.9051037619
 21
117.5355962796
  0
LINE
  5
453
100
AcDbEntity
  8
0
100
AcDbLine
 62
253
  6
CONTINUOUS
 10
165.2458792325
 20
75.6011687172
 11
165.2458792325
 21
75.9411426514
  0
LINE
  5
454
100
AcDbEntity
  8
0
100
AcDbLine
 62
253
  6
CONTINUOUS
 10
165.2458792325
 20
117.2407467907
 11
165.2458792325
 21
117.5807207249
  0
LINE
  5
455
100
AcDbEntity
  8
0
100
AcDbLine
 62
253
  6
CONTINUOUS
 10
165.4101421504
 20
76.9525764505
 11
165.4101421504
 21
77.6464891778
  0
LINE
  5
456
100
AcDbEntity
  8
0
100
AcDbLine
 62
253
  6
CONTINUOUS
 10
165.4101421504
 20
116.3082678627
 11
165.4101421504
 21
117.0000883119
  0
LINE
  5
457
100
AcDbEntity
  8
0
100
AcDbLine
 62
253
  6
CONTINUOUS
 10
165.7509176209
 20
76.8727008958
 11
165.7509176209
 21
77.5481157729
  0
LINE
  5
458
100
AcDbEntity
  8
0
100
AcDbLine
 62
253
  6
CONTINUOUS
 10
165.7509176209
 20
116.3646729134
 11
165.7509176209
 21
117.1723050352
  0
LINE
  5
459
100
AcDbEntity
  8
0
100
AcDbLine
 62
7
  6
CONTINUOUS
 10
166.3829501508
 20
76.5614587378
 11
166.3829501508
 21
77.5276765432
  0
LINE
  5
45A
100
AcDbEntity
  8
0
100
AcDbLine
 62
7
  6
CONTINUOUS
 10
166.3829501508
 20
116.9615474883
 11
166.3829501508
 21
118.5636981493
  0
LINE
  5
45B
100
AcDbEntity
  8
DRAFT
100
AcDbLine
 62
7
  6
CONTINUOUS
 10
166.4755449337
 20
115.5675016772
 11
166.4755449337
 21
111.0458449312
  0
LINE
  5
45C
100
AcDbEntity
  8
DRAFT
100
AcDbLine
 62
7
  6
CONTINUOUS
 10
166.4755449337
 20
82.2938015255
 11
166.4755449337
 21
77.7721447795
  0
LINE
  5
45D
100
AcDbEntity
  8
0
100
AcDbLine
 62
253
  6
CONTINUOUS
 10
166.754891248
 20
118.8863943028
 11
166.754891248
 21
118.538862786
  0
LINE
  5
45E
100
AcDbEntity
  8
0
100
AcDbLine
 62
253
  6
CONTINUOUS
 10
166.754891248
 20
77.2392586466
 11
166.754891248
 21
76.8917271299
  0
LINE
  5
45F
100
AcDbEntity
  8
0
100
AcDbLine
 62
7
  6
CONTINUOUS
 10
166.7876613446
 20
118.9482634572
 11
166.7876613446
 21
118.6007319404
  0
LINE
  5
460
100
AcDbEntity
  8
0
100
AcDbLine
 62
7
  6
CONTINUOUS
 10
166.7876528343
 20
77.303190546
 11
166.7876613446
 21
76.9535962843
  0
LWPOLYLINE
  5
461
100
AcDbEntity
  8
0
100
AcDbPolyline
 62
253
  6
CONTINUOUS
 90
25
 70
0
 10
164.9051037619
 20
75.8960182061
 10
164.9052227651
 20
75.9055663642
 10
164.905579548
 20
75.9153024618
 10
164.9061734313
 20
75.925207961
 10
164.9070032817
 20
75.9352639742
 10
164.9080675205
 20
75.9454513805
 10
164.9093641326
 20
75.9557508655
 10
164.9108906659
 20
75.9661428918
 10
164.9126442111
 20
75.9766076038
 10
164.9146214087
 20
75.987124946
 10
164.9168184761
 20
75.9976748229
 10
164.9192312391
 20
76.0082372141
 10
164.92185512
 20
76.0187920827
 10
164.9246851457
 20
76.0293194072
 10
164.9277159109
 20
76.0397990652
 10
164.9309415973
 20
76.0502109493
 10
164.9343560247
 20
76.060535145
 10
164.9379527133
 20
76.070752092
 10
164.9417248557
 20
76.0808424638
 10
164.9456657528
 20
76.0907882329
 10
164.9497674572
 20
76.1005692388
 10
164.9540206516
 20
76.1101635493
 10
164.9584165682
 20
76.1195520286
 10
164.962947187
 20
76.1287181695
 10
164.9676037619
 20
76.1376447938
  0
LWPOLYLINE
  5
462
100
AcDbEntity
  8
0
100
AcDbPolyline
 62
7
  6
CONTINUOUS
 90
16
 70
0
 10
166.3829501508
 20
76.5614587378
 10
166.3827048214
 20
76.5512278073
 10
166.3819697498
 20
76.5411617486
 10
166.3807465268
 20
76.5312833002
 10
166.3790377938
 20
76.5216147265
 10
166.3768474147
 20
76.5121779265
 10
166.3741804673
 20
76.5029943844
 10
166.3710429495
 20
76.494084867
 10
166.3674419025
 20
76.4854695014
 10
166.3633855737
 20
76.4771678879
 10
166.3588831235
 20
76.4691988091
 10
166.3539446992
 20
76.4615802737
 10
166.34858155
 20
76.4543295985
 10
166.3428058131
 20
76.4474631992
 10
166.336630535
 20
76.440996599
 10
166.3314192278
 20
76.4361274559
  0
LWPOLYLINE
  5
463
100
AcDbEntity
  8
0
100
AcDbPolyline
 62
253
  6
CONTINUOUS
 90
17
 70
0
 10
165.2458792325
 20
75.6011687172
 10
165.2455998214
 20
75.5909075601
 10
165.2448321276
 20
75.5808126804
 10
165.2435778888
 20
75.5709069523
 10
165.2418399439
 20
75.5612128161
 10
165.2396222295
 20
75.551752244
 10
165.2369297739
 20
75.5425466891
 10
165.2337686801
 20
75.5336170138
 10
165.2301461101
 20
75.5249834468
 10
165.2260702742
 20
75.5166655528
 10
165.2215504079
 20
75.508682177
 10
165.2165967542
 20
75.5010514091
 10
165.2112205425
 20
75.4937905441
 10
165.2054339573
 20
75.4869160331
 10
165.1992501112
 20
75.4804434499
 10
165.1926830196
 20
75.4743874603
 10
165.1914084544
 20
75.473297981
  0
LINE
  5
464
100
AcDbEntity
  8
RACCORDO
100
AcDbLine
 62
7
  6
CONTINUOUS
 10
164.6408659275
 20
76.5325799409
 11
165.7713315494
 21
114.8729134363
  0
LWPOLYLINE
  5
465
100
AcDbEntity
  8
0
100
AcDbPolyline
 62
253
  6
CONTINUOUS
 90
12
 70
0
 10
166.7876613446
 20
118.9482634649
 10
166.7874250674
 20
118.9428301626
 10
166.7866289747
 20
118.9369153391
 10
166.7852729058
 20
118.931026036
 10
166.7833599093
 20
118.9251754987
 10
166.7808942875
 20
118.9193768882
 10
166.7778815837
 20
118.9136432438
 10
166.7743285744
 20
118.9079874646
 10
166.7702432583
 20
118.9024222819
 10
166.7656348293
 20
118.8969602159
 10
166.7605136523
 20
118.8916135478
 10
166.754891248
 20
118.8863943028
  0
LWPOLYLINE
  5
466
100
AcDbEntity
  8
0
100
AcDbPolyline
 62
253
  6
CONTINUOUS
 90
12
 70
0
 10
166.7876613446
 20
118.600731896
 10
166.7874234269
 20
118.5952798253
 10
166.7866256314
 20
118.5893654998
 10
166.7852680061
 20
118.5834769326
 10
166.7833536305
 20
118.5776272839
 10
166.7808867877
 20
118.5718295884
 10
166.777872758
 20
118.5660964209
 10
166.7743184975
 20
118.5604411476
 10
166.7702329701
 20
118.5548777176
 10
166.7656260747
 20
118.5494189747
 10
166.7605082235
 20
118.5440766923
 10
166.754891248
 20
118.538862786
  0
LINE
  5
467
100
AcDbEntity
  8
DRAFT
100
AcDbLine
 62
7
  6
CONTINUOUS
 10
165.6521835998
 20
95.9846715411
 11
166.4755449337
 21
111.0458449312
  0
LWPOLYLINE
  5
468
100
AcDbEntity
  8
0
100
AcDbPolyline
 62
7
  6
CONTINUOUS
 90
43
 70
0
 10
150.3701791781
 20
121.3461744396
 10
150.3755448539
 20
121.3455162864
 10
150.3844406306
 20
121.3447156707
 10
150.3934038018
 20
121.3442577673
 10
150.4024067447
 20
121.3441439133
 10
150.4114479677
 20
121.3443704929
 10
150.4205157589
 20
121.3449225561
 10
150.4295964984
 20
121.345798883
 10
150.4386770133
 20
121.3469975231
 10
150.4477468414
 20
121.3485023097
 10
150.4567934024
 20
121.350311324
 10
150.4658045764
 20
121.3524221737
 10
150.4747711539
 20
121.3548179286
 10
150.4836816286
 20
121.3574960992
 10
150.4925249469
 20
121.3604539341
 10
150.5012930977
 20
121.3636741174
 10
150.5099756708
 20
121.3671537154
 10
150.5185626445
 20
121.3708896799
 10
150.5270470554
 20
121.3748645744
 10
150.5354195632
 20
121.3790751257
 10
150.5436711511
 20
121.3835180408
 10
150.5517957459
 20
121.3881759321
 10
150.5597850361
 20
121.393045269
 10
150.5676309768
 20
121.3981225578
 10
150.5753282468
 20
121.4033905577
 10
150.5828695163
 20
121.4088455425
 10
150.5902476803
 20
121.4144838572
 10
150.5974580627
 20
121.4202884594
 10
150.6044942698
 20
121.4262554724
 10
150.6113501076
 20
121.4323811168
 10
150.6180214769
 20
121.4386485791
 10
150.6245028803
 20
121.4450538664
 10
150.6307890096
 20
121.4515931091
 10
150.6368763097
 20
121.4582497521
 10
150.6427601441
 20
121.4650197098
 10
150.6484360714
 20
121.471899059
 10
150.653901083
 20
121.4788715524
 10
150.6591513754
 20
121.4859330332
 10
150.664183354
 20
121.49307956
 10
150.6689945779
 20
121.5002952643
 10
150.673582268
 20
121.5075721615
 10
150.677943418
 20
121.5149101119
 10
150.6820755951
 20
121.5223050352
  0
LINE
  5
469
100
AcDbEntity
  8
0
100
AcDbLine
 62
7
  6
CONTINUOUS
 10
149.927689134
 20
121.406140016
 11
150.3702155989
 21
121.3461697468
  0
LINE
  5
46A
100
AcDbEntity
  8
0
100
AcDbLine
 62
253
  6
CONTINUOUS
 10
150.1770372067
 20
121.5907467907
 11
150.6820755951
 21
121.5223050352
  0
LINE
  5
46B
100
AcDbEntity
  8
0
100
AcDbLine
 62
7
  6
CONTINUOUS
 10
145.5109595747
 20
122.681140016
 11
145.9534868
 21
122.6211696437
  0
LINE
  5
46C
100
AcDbEntity
  8
0
100
AcDbLine
 62
253
  6
CONTINUOUS
 10
145.7603076474
 20
122.8657467907
 11
146.2653460358
 21
122.7973050352
  0
LWPOLYLINE
  5
46D
100
AcDbEntity
  8
0
100
AcDbPolyline
 62
7
  6
CONTINUOUS
 90
10
 70
0
 10
149.927689134
 20
121.406140016
 10
149.9235960926
 20
121.4067292095
 10
149.9195105677
 20
121.407386495
 10
149.9154341718
 20
121.4081117434
 10
149.9113684001
 20
121.4089047981
 10
149.907315069
 20
121.4097653878
 10
149.9032762695
 20
121.4106931086
 10
149.8992538028
 20
121.411687544
 10
149.8952492284
 20
121.4127482749
 10
149.8919236248
 20
121.4136834596
  0
LWPOLYLINE
  5
46E
100
AcDbEntity
  8
0
100
AcDbPolyline
 62
7
  6
CONTINUOUS
 90
3
 70
0
 10
145.5108006215
 20
122.6811616216
 10
145.4882696377
 20
122.6852889268
 10
145.4753769572
 20
122.6886310626
  0
LWPOLYLINE
  5
46F
100
AcDbEntity
  8
0
100
AcDbPolyline
 62
253
  6
CONTINUOUS
 90
13
 70
0
 10
164.5343655712
 20
119.7867185921
 10
164.5296693654
 20
119.7876503615
 10
164.5244772094
 20
119.7881091245
 10
164.5191553493
 20
119.7880235256
 10
164.5137158355
 20
119.7873937998
 10
164.5081708367
 20
119.7862213965
 10
164.5025327215
 20
119.7845089453
 10
164.4968133042
 20
119.782259919
 10
164.4910262919
 20
119.7794795936
 10
164.4851872369
 20
119.7761757641
 10
164.479310175
 20
119.7723571189
 10
164.4734075075
 20
119.7680324568
 10
164.4674925026
 20
119.7632121304
  0
LWPOLYLINE
  5
470
100
AcDbEntity
  8
0
100
AcDbPolyline
 62
253
  6
CONTINUOUS
 90
19
 70
0
 10
158.4814410138
 20
120.4527631146
 10
158.4731990433
 20
120.4549468912
 10
158.4649770546
 20
120.4567343906
 10
158.4567936789
 20
120.4581215604
 10
158.4486674545
 20
120.4591052562
 10
158.4406168011
 20
120.4596832458
 10
158.4326599779
 20
120.4598542178
 10
158.4248150194
 20
120.4596177855
 10
158.4170996975
 20
120.4589744855
 10
158.4095314969
 20
120.4579257764
 10
158.4021275654
 20
120.456474035
 10
158.3949046814
 20
120.4546225521
 10
158.3878792177
 20
120.4523755261
 10
158.3810670945
 20
120.4497380513
 10
158.3744837452
 20
120.4467161056
 10
158.3681440868
 20
120.4433165387
 10
158.362062479
 20
120.4395470529
 10
158.3562527061
 20
120.4354161939
 10
158.3502309677
 20
120.4305005502
  0
LWPOLYLINE
  5
471
100
AcDbEntity
  8
0
100
AcDbPolyline
 62
253
  6
CONTINUOUS
 90
19
 70
0
 10
138.9958694287
 20
126.0777631146
 10
138.9876274582
 20
126.0799468912
 10
138.9794054695
 20
126.0817343906
 10
138.9712220938
 20
126.0831215604
 10
138.9630958693
 20
126.0841052562
 10
138.955045216
 20
126.0846832458
 10
138.9470883928
 20
126.0848542178
 10
138.9392434342
 20
126.0846177855
 10
138.9315281123
 20
126.0839744855
 10
138.9239599118
 20
126.0829257764
 10
138.9165559803
 20
126.081474035
 10
138.9093330963
 20
126.0796225521
 10
138.9023076325
 20
126.0773755261
 10
138.8954955094
 20
126.0747380513
 10
138.88891216
 20
126.0717161056
 10
138.8825725016
 20
126.0683165387
 10
138.8764908939
 20
126.0645470529
 10
138.870681121
 20
126.0604161939
 10
138.8647426697
 20
126.0555734401
  0
LWPOLYLINE
  5
472
100
AcDbEntity
  8
0
100
AcDbPolyline
 62
7
  6
CONTINUOUS
 90
21
 70
0
 10
158.632022787
 20
120.5846881344
 10
158.6244675935
 20
120.5867042613
 10
158.6169267966
 20
120.5883868392
 10
158.6094147478
 20
120.589732663
 10
158.6019457322
 20
120.5907391587
 10
158.5945339698
 20
120.5914044126
 10
158.587193588
 20
120.5917271755
 10
158.5799385422
 20
120.5917068184
 10
158.5727826354
 20
120.5913433739
 10
158.5657395202
 20
120.5906375618
 10
158.5588225803
 20
120.5895907058
 10
158.5520449687
 20
120.5882047874
 10
158.5454196297
 20
120.5864824828
 10
158.5389591459
 20
120.5844270459
 10
158.5326757956
 20
120.5820423731
 10
158.5265815928
 20
120.5793330511
 10
158.5206881044
 20
120.5763042087
 10
158.5150065232
 20
120.57296159
 10
158.5095477277
 20
120.5693116143
 10
158.5043220707
 20
120.5653611968
 10
158.5015863687
 20
120.5630934286
  0
LWPOLYLINE
  5
473
100
AcDbEntity
  8
0
100
AcDbPolyline
 62
7
  6
CONTINUOUS
 90
21
 70
0
 10
139.1464512018
 20
126.2096881344
 10
139.1388960083
 20
126.2117042613
 10
139.1313552114
 20
126.2133868392
 10
139.1238431626
 20
126.214732663
 10
139.116374147
 20
126.2157391587
 10
139.1089623846
 20
126.2164044126
 10
139.1016220029
 20
126.2167271755
 10
139.094366957
 20
126.2167068184
 10
139.0872110502
 20
126.2163433739
 10
139.0801679351
 20
126.2156375618
 10
139.0732509952
 20
126.2145907058
 10
139.0664733836
 20
126.2132047874
 10
139.0598480445
 20
126.2114824828
 10
139.0533875608
 20
126.2094270459
 10
139.0471042105
 20
126.2070423731
 10
139.0410100077
 20
126.2043330511
 10
139.0351165192
 20
126.2013042087
 10
139.029434938
 20
126.19796159
 10
139.0239761425
 20
126.1943116143
 10
139.0187504856
 20
126.1903611968
 10
139.0160147836
 20
126.1880934286
  0
LWPOLYLINE
  5
474
100
AcDbEntity
  8
0
100
AcDbPolyline
 62
253
  6
CONTINUOUS
 90
34
 70
0
 10
156.3035618179
 20
120.7934622549
 10
156.3119177467
 20
120.7911809326
 10
156.3204813525
 20
120.7891010164
 10
156.3292332313
 20
120.7872272204
 10
156.3381535581
 20
120.7855637906
 10
156.3472221143
 20
120.7841144985
 10
156.3564183328
 20
120.7828826315
 10
156.3657213693
 20
120.7818709813
 10
156.3751101481
 20
120.7810818391
 10
156.3845633917
 20
120.7805169929
 10
156.3940596809
 20
120.7801777223
 10
156.4035774951
 20
120.7800647956
 10
156.4130952586
 20
120.780178468
 10
156.4225914018
 20
120.7805184808
 10
156.4320444094
 20
120.7810840623
 10
156.4414328605
 20
120.78187393
 10
156.4507354884
 20
120.7828862935
 10
156.4599312073
 20
120.7841188575
 10
156.4689991599
 20
120.7855688241
 10
156.4779187743
 20
120.7872329001
 10
156.4866698684
 20
120.7891073163
 10
156.495232671
 20
120.7911878372
 10
156.5035878532
 20
120.793469772
 10
156.5117164022
 20
120.7959479333
 10
156.5195997357
 20
120.7986166498
 10
156.5272199069
 20
120.8014698256
 10
156.5345597703
 20
120.8045010201
 10
156.5416028397
 20
120.807703417
 10
156.5483342069
 20
120.8110703111
 10
156.5547374667
 20
120.8145935741
 10
156.5607953963
 20
120.8182634971
 10
156.5664939132
 20
120.822070976
 10
156.5718215875
 20
120.8260077653
 10
156.5767668986
 20
120.8300647953
  0
LWPOLYLINE
  5
475
100
AcDbEntity
  8
0
100
AcDbPolyline
 62
253
  6
CONTINUOUS
 90
34
 70
0
 10
136.8179902327
 20
126.4184622549
 10
136.8263461615
 20
126.4161809326
 10
136.8349097673
 20
126.4141010164
 10
136.8436616461
 20
126.4122272204
 10
136.8525819729
 20
126.4105637906
 10
136.8616505292
 20
126.4091144985
 10
136.8708467477
 20
126.4078826315
 10
136.8801497842
 20
126.4068709813
 10
136.889538563
 20
126.4060818391
 10
136.8989918066
 20
126.4055169929
 10
136.9084880958
 20
126.4051777223
 10
136.91800591
 20
126.4050647956
 10
136.9275236734
 20
126.405178468
 10
136.9370198167
 20
126.4055184808
 10
136.9464728243
 20
126.4060840623
 10
136.9558612754
 20
126.40687393
 10
136.9651639033
 20
126.4078862935
 10
136.9743596222
 20
126.4091188575
 10
136.9834275748
 20
126.4105688241
 10
136.9923471891
 20
126.4122329001
 10
137.0010982833
 20
126.4141073163
 10
137.0096610858
 20
126.4161878372
 10
137.0180162681
 20
126.418469772
 10
137.026144817
 20
126.4209479333
 10
137.0340281505
 20
126.4236166498
 10
137.0416483217
 20
126.4264698256
 10
137.0489881851
 20
126.4295010201
 10
137.0560312546
 20
126.432703417
 10
137.0627626218
 20
126.4360703111
 10
137.0691658815
 20
126.4395935741
 10
137.0752238111
 20
126.4432634971
 10
137.0809223281
 20
126.447070976
 10
137.0862500023
 20
126.4510077653
 10
137.0911953135
 20
126.4550647953
  0
LWPOLYLINE
  5
476
100
AcDbEntity
  8
0
100
AcDbPolyline
 62
253
  6
CONTINUOUS
 90
34
 70
0
 10
164.9051037619
 20
117.1956223455
 10
164.9155079588
 20
117.1927811895
 10
164.926169833
 20
117.1901898376
 10
164.9370654104
 20
117.1878541165
 10
164.9481701917
 20
117.1857792783
 10
164.9594592068
 20
117.1839699885
 10
164.9709070715
 20
117.1824303154
 10
164.9824880445
 20
117.1811637209
 10
164.994176085
 20
117.1801730533
 10
165.0059449116
 20
117.17946054
 10
165.0177680612
 20
117.1790277832
 10
165.0296189486
 20
117.178875756
 10
165.0414709261
 20
117.1790048002
 10
165.0532973437
 20
117.1794146257
 10
165.0650716087
 20
117.180104311
 10
165.0767672459
 20
117.1810723051
 10
165.0883579567
 20
117.1823164316
 10
165.0998176786
 20
117.1838338929
 10
165.1111206434
 20
117.1856212769
 10
165.1222414357
 20
117.1876745645
 10
165.1331550494
 20
117.1899891388
 10
165.1438369445
 20
117.1925597952
 10
165.1542631019
 20
117.1953807535
 10
165.1644100777
 20
117.1984456704
 10
165.1742550555
 20
117.2017476543
 10
165.1837758983
 20
117.2052792805
 10
165.1929511976
 20
117.2090326078
 10
165.2017603221
 20
117.2129991966
 10
165.2101834639
 20
117.2171701276
 10
165.2182016828
 20
117.2215360223
 10
165.2257969494
 20
117.2260870636
 10
165.2329521849
 20
117.2308130181
 10
165.2396513005
 20
117.2357032592
 10
165.2458792325
 20
117.2407467907
  0
LWPOLYLINE
  5
477
100
AcDbEntity
  8
0
100
AcDbPolyline
 62
253
  6
CONTINUOUS
 90
34
 70
0
 10
149.8362617361
 20
121.5456223455
 10
149.846666688
 20
121.5427809948
 10
149.8573293525
 20
121.5401894844
 10
149.8682257502
 20
121.5378536423
 10
149.8793313634
 20
121.5357787238
 10
149.8906212291
 20
121.5339693923
 10
149.9020699981
 20
121.5324297119
 10
149.913651952
 20
121.5311631454
 10
149.9253410183
 20
121.530172548
 10
149.9371108684
 20
121.5294601525
 10
149.948935019
 20
121.5290275614
 10
149.9607868917
 20
121.5288757464
 10
149.9726398318
 20
121.5290050491
 10
149.9844671825
 20
121.5294151786
 10
149.996242345
 20
121.5301052125
 10
150.0079388381
 20
121.531073599
 10
150.0195303654
 20
121.5323181612
 10
150.0309908497
 20
121.5338360996
 10
150.0422944925
 20
121.5356239962
 10
150.0534158578
 20
121.5376778253
 10
150.0643299522
 20
121.5399929687
 10
150.0750122554
 20
121.542564224
 10
150.0854388203
 20
121.5453858305
 10
150.0955861177
 20
121.5484514244
 10
150.1054311322
 20
121.5517540428
 10
150.1149516171
 20
121.5552861954
 10
150.1241263181
 20
121.5590399686
 10
150.1329347999
 20
121.5630069907
 10
150.1413579225
 20
121.5671786876
 10
150.1493760129
 20
121.5715453642
 10
150.1569693925
 20
121.5760961644
 10
150.1641207649
 20
121.58082038
 10
150.1708149438
 20
121.5857076159
 10
150.1770372067
 20
121.5907467907
  0
LWPOLYLINE
  5
478
100
AcDbEntity
  8
0
100
AcDbPolyline
 62
253
  6
CONTINUOUS
 90
34
 70
0
 10
145.4195321768
 20
122.8206223455
 10
145.4299363736
 20
122.8177811895
 10
145.4405982478
 20
122.8151898376
 10
145.4514938253
 20
122.8128541165
 10
145.4625986066
 20
122.8107792783
 10
145.4738876216
 20
122.8089699885
 10
145.4853354864
 20
122.8074303154
 10
145.4969164593
 20
122.8061637209
 10
145.5086044998
 20
122.8051730533
 10
145.5203733264
 20
122.80446054
 10
145.5321964761
 20
122.8040277832
 10
145.5440473634
 20
122.803875756
 10
145.5558993409
 20
122.8040048002
 10
145.5677257585
 20
122.8044146257
 10
145.5795000236
 20
122.805104311
 10
145.5911956608
 20
122.8060723051
 10
145.6027863716
 20
122.8073164316
 10
145.6142460934
 20
122.8088338929
 10
145.6255490583
 20
122.8106212769
 10
145.6366698505
 20
122.8126745645
 10
145.6475834643
 20
122.8149891388
 10
145.6582653594
 20
122.8175597952
 10
145.6686915168
 20
122.8203807535
 10
145.6788384926
 20
122.8234456704
 10
145.6886834704
 20
122.8267476543
 10
145.6982043131
 20
122.8302792805
 10
145.7073796125
 20
122.8340326078
 10
145.716188737
 20
122.8379991966
 10
145.7246118788
 20
122.8421701276
 10
145.7326300977
 20
122.8465360223
 10
145.7402253642
 20
122.8510870636
 10
145.7473805998
 20
122.8558130181
 10
145.7540797153
 20
122.8607032592
 10
145.7603076474
 20
122.8657467907
  0
LWPOLYLINE
  5
479
100
AcDbEntity
  8
0
100
AcDbPolyline
 62
253
  6
CONTINUOUS
 90
34
 70
0
 10
164.9051037619
 20
117.5355962796
 10
164.9154910682
 20
117.5327594798
 10
164.9261397785
 20
117.530170642
 10
164.9370263135
 20
117.5278358906
 10
164.9481280726
 20
117.52576052
 10
164.9594188452
 20
117.5239498694
 10
164.9708686242
 20
117.5224089362
 10
164.9824499605
 20
117.521141351
 10
164.9941384629
 20
117.5201497206
 10
165.0059080512
 20
117.5194362649
 10
165.0177324084
 20
117.5190025993
 10
165.0295847953
 20
117.5188497244
 10
165.0414383151
 20
117.5189779933
 10
165.0532662025
 20
117.51938711
 10
165.0650419613
 20
117.520076152
 10
165.0767391824
 20
117.5210435741
 10
165.0883315878
 20
117.5222872073
 10
165.0997930719
 20
117.5238042552
 10
165.1110978354
 20
117.5255913052
 10
165.1222204465
 20
117.5276443385
 10
165.1331358926
 20
117.5299587399
 10
165.1438196186
 20
117.5325293042
 10
165.1542475953
 20
117.5353502516
 10
165.1643963655
 20
117.5384152379
 10
165.1742430942
 20
117.5417173679
 10
165.1837656319
 20
117.5452492145
 10
165.1929425614
 20
117.5490028349
 10
165.2017532386
 20
117.5529697858
 10
165.2101778501
 20
117.557141147
 10
165.2181974424
 20
117.5615075347
 10
165.2257939634
 20
117.5660591198
 10
165.2329503248
 20
117.5707856611
 10
165.2396504371
 20
117.5756765299
 10
165.2458792325
 20
117.5807207249
  0
LWPOLYLINE
  5
47A
100
AcDbEntity
  8
0
100
AcDbPolyline
 62
253
  6
CONTINUOUS
 90
34
 70
0
 10
130.3506901509
 20
127.1706223455
 10
130.3610951028
 20
127.1677809948
 10
130.3717577673
 20
127.1651894844
 10
130.3826541651
 20
127.1628536423
 10
130.3937597782
 20
127.1607787238
 10
130.405049644
 20
127.1589693923
 10
130.416498413
 20
127.1574297119
 10
130.4280803668
 20
127.1561631454
 10
130.4397694331
 20
127.155172548
 10
130.4515392833
 20
127.1544601525
 10
130.4633634338
 20
127.1540275614
 10
130.4752153065
 20
127.1538757464
 10
130.4870682466
 20
127.1540050491
 10
130.4988955973
 20
127.1544151786
 10
130.5106707599
 20
127.1551052125
 10
130.5223672529
 20
127.156073599
 10
130.5339587803
 20
127.1573181612
 10
130.5454192646
 20
127.1588360996
 10
130.5567229074
 20
127.1606239962
 10
130.5678442726
 20
127.1626778253
 10
130.5787583671
 20
127.1649929687
 10
130.5894406703
 20
127.167564224
 10
130.5998672351
 20
127.1703858305
 10
130.6100145326
 20
127.1734514244
 10
130.6198595471
 20
127.1767540428
 10
130.629380032
 20
127.1802861954
 10
130.6385547329
 20
127.1840399686
 10
130.6473632147
 20
127.1880069907
 10
130.6557863373
 20
127.1921786876
 10
130.6638044277
 20
127.1965453642
 10
130.6713978074
 20
127.2010961644
 10
130.6785491797
 20
127.20582038
 10
130.6852433587
 20
127.2107076159
 10
130.6914656215
 20
127.2157467907
  0
LWPOLYLINE
  5
47B
100
AcDbEntity
  8
0
100
AcDbPolyline
 62
253
  6
CONTINUOUS
 90
34
 70
0
 10
149.8362617361
 20
121.8855962796
 10
149.8466673877
 20
121.8827547485
 10
149.8573308004
 20
121.8801630876
 10
149.868227991
 20
121.8778271272
 10
149.8793344577
 20
121.8757521212
 10
149.8906252134
 20
121.8739427396
 10
149.9020748417
 20
121.8724030559
 10
149.9136575833
 20
121.8711365333
 10
149.9253473919
 20
121.8701460195
 10
149.9371179711
 20
121.869433742
 10
149.9489428479
 20
121.8690013023
 10
149.9607954237
 20
121.8688496725
 10
149.9726490304
 20
121.8689791929
 10
149.9844770051
 20
121.8693895707
 10
149.9962527463
 20
121.8700798817
 10
150.0079497649
 20
121.8710485716
 10
150.0195417586
 20
121.8722934608
 10
150.0310026496
 20
121.8738117475
 10
150.0423066406
 20
121.8756000117
 10
150.0534282783
 20
121.8776542223
 10
150.0643425827
 20
121.8799697608
 10
150.0750250779
 20
121.8825414342
 10
150.0854518321
 20
121.8853634882
 10
150.0955992902
 20
121.8884295547
 10
150.1054444173
 20
121.891732666
 10
150.1149649625
 20
121.8952653309
 10
150.124139668
 20
121.8990196347
 10
150.1329480829
 20
121.902987199
 10
150.1413716345
 20
121.9071597433
 10
150.149390021
 20
121.9115273007
 10
150.1569820166
 20
121.9160780403
 10
150.1641301182
 20
121.9208008077
 10
150.1708199835
 20
121.9256854232
 10
150.1770372067
 20
121.9307207249
  0
LWPOLYLINE
  5
47C
100
AcDbEntity
  8
0
100
AcDbPolyline
 62
253
  6
CONTINUOUS
 90
34
 70
0
 10
145.4195321768
 20
123.1605962796
 10
145.429919483
 20
123.1577594798
 10
145.4405681934
 20
123.155170642
 10
145.4514547283
 20
123.1528358906
 10
145.4625564875
 20
123.15076052
 10
145.4738472601
 20
123.1489498694
 10
145.485297039
 20
123.1474089362
 10
145.4968783754
 20
123.146141351
 10
145.5085668778
 20
123.1451497206
 10
145.5203364661
 20
123.1444362649
 10
145.5321608233
 20
123.1440025993
 10
145.5440132102
 20
123.1438497244
 10
145.5558667299
 20
123.1439779933
 10
145.5676946173
 20
123.14438711
 10
145.5794703761
 20
123.145076152
 10
145.5911675972
 20
123.1460435741
 10
145.6027600027
 20
123.1472872073
 10
145.6142214867
 20
123.1488042552
 10
145.6255262503
 20
123.1505913052
 10
145.6366488613
 20
123.1526443385
 10
145.6475643074
 20
123.1549587399
 10
145.6582480334
 20
123.1575293042
 10
145.6686760101
 20
123.1603502516
 10
145.6788247804
 20
123.1634152379
 10
145.688671509
 20
123.1667173679
 10
145.6981940467
 20
123.1702492145
 10
145.7073709762
 20
123.1740028349
 10
145.7161816534
 20
123.1779697858
 10
145.724606265
 20
123.182141147
 10
145.7326258572
 20
123.1865075347
 10
145.7402223783
 20
123.1910591198
 10
145.7473787396
 20
123.1957856611
 10
145.754078852
 20
123.2006765299
 10
145.7603076474
 20
123.2057207249
  0
LWPOLYLINE
  5
47D
100
AcDbEntity
  8
0
100
AcDbPolyline
 62
253
  6
CONTINUOUS
 90
34
 70
0
 10
130.3506901509
 20
127.5105962796
 10
130.3610958026
 20
127.5077547485
 10
130.3717592152
 20
127.5051630876
 10
130.3826564059
 20
127.5028271272
 10
130.3937628725
 20
127.5007521212
 10
130.4050536283
 20
127.4989427396
 10
130.4165032565
 20
127.4974030559
 10
130.4280859981
 20
127.4961365333
 10
130.4397758068
 20
127.4951460195
 10
130.4515463859
 20
127.494433742
 10
130.4633712627
 20
127.4940013023
 10
130.4752238386
 20
127.4938496725
 10
130.4870774453
 20
127.4939791929
 10
130.4989054199
 20
127.4943895707
 10
130.5106811611
 20
127.4950798817
 10
130.5223781797
 20
127.4960485716
 10
130.5339701734
 20
127.4972934608
 10
130.5454310644
 20
127.4988117475
 10
130.5567350554
 20
127.5006000117
 10
130.5678566931
 20
127.5026542223
 10
130.5787709975
 20
127.5049697608
 10
130.5894534928
 20
127.5075414342
 10
130.5998802469
 20
127.5103634882
 10
130.610027705
 20
127.5134295547
 10
130.6198728321
 20
127.516732666
 10
130.6293933774
 20
127.5202653309
 10
130.6385680828
 20
127.5240196347
 10
130.6473764978
 20
127.527987199
 10
130.6558000493
 20
127.5321597433
 10
130.6638184359
 20
127.5365273007
 10
130.6714104314
 20
127.5410780403
 10
130.6785585331
 20
127.5458008077
 10
130.6852483983
 20
127.5506854232
 10
130.6914656215
 20
127.5557207249
  0
LINE
  5
47E
100
AcDbEntity
  8
0
100
AcDbLine
 62
7
  6
CONTINUOUS
 10
159.8738812157
 20
118.5291854705
 11
158.382022787
 21
118.9598479032
  0
LINE
  5
47F
100
AcDbEntity
  8
0
100
AcDbLine
 62
7
  6
CONTINUOUS
 10
156.3035618179
 20
119.5598479032
 11
154.3117033892
 21
120.1348479032
  0
LINE
  5
480
100
AcDbEntity
  8
0
100
AcDbLine
 62
7
  6
CONTINUOUS
 10
140.3883096305
 20
124.1541854705
 11
138.8964512018
 21
124.5848479032
  0
LINE
  5
481
100
AcDbEntity
  8
0
100
AcDbLine
 62
7
  6
CONTINUOUS
 10
136.8179902327
 20
125.1848479032
 11
134.826131804
 21
125.7598479032
  0
LINE
  5
482
100
AcDbEntity
  8
0
100
AcDbLine
 62
7
  6
CONTINUOUS
 10
128.3505717332
 20
127.6321361163
 11
130.4063526264
 21
127.0386832902
  0
LINE
  5
483
100
AcDbEntity
  8
0
100
AcDbLine
 62
7
  6
CONTINUOUS
 10
143.4194137591
 20
123.2821361163
 11
145.4751946523
 21
122.6886832902
  0
LINE
  5
484
100
AcDbEntity
  8
0
100
AcDbLine
 62
7
  6
CONTINUOUS
 10
147.8361433184
 20
122.0071361163
 11
149.8919242116
 21
121.4136832902
  0
LINE
  5
485
100
AcDbEntity
  8
0
100
AcDbLine
 62
7
  6
CONTINUOUS
 10
162.9049853442
 20
117.6571361163
 11
164.9607662374
 21
117.0636832902
  0
LINE
  5
486
100
AcDbEntity
  8
0
100
AcDbLine
 62
253
  6
CONTINUOUS
 10
128.2949092578
 20
127.7640751715
 11
130.3506901509
 21
127.1706223455
  0
LINE
  5
487
100
AcDbEntity
  8
0
100
AcDbLine
 62
253
  6
CONTINUOUS
 10
143.3637512836
 20
123.4140751715
 11
145.4195321768
 21
122.8206223455
  0
LINE
  5
488
100
AcDbEntity
  8
0
100
AcDbLine
 62
253
  6
CONTINUOUS
 10
147.7804808429
 20
122.1390751715
 11
149.8362617361
 21
121.5456223455
  0
LINE
  5
489
100
AcDbEntity
  8
0
100
AcDbLine
 62
253
  6
CONTINUOUS
 10
162.8493228688
 20
117.7890751715
 11
164.9051037619
 21
117.1956223455
  0
LINE
  5
48A
100
AcDbEntity
  8
0
100
AcDbLine
 62
7
  6
CONTINUOUS
 10
166.8163462331
 20
116.8364368159
 11
166.3829501508
 21
116.9615474883
  0
LINE
  5
48B
100
AcDbEntity
  8
0
100
AcDbLine
 62
7
  6
CONTINUOUS
 10
162.7243228688
 20
118.0177022114
 11
161.4466053493
 21
118.3865474883
  0
LINE
  5
48C
100
AcDbEntity
  8
0
100
AcDbLine
 62
7
  6
CONTINUOUS
 10
152.9965368382
 20
120.8258721531
 11
151.314108125
 21
121.3115474883
  0
LINE
  5
48D
100
AcDbEntity
  8
0
100
AcDbLine
 62
7
  6
CONTINUOUS
 10
147.3307746479
 20
122.4614368159
 11
146.8973785657
 21
122.5865474883
  0
LINE
  5
48E
100
AcDbEntity
  8
0
100
AcDbLine
 62
7
  6
CONTINUOUS
 10
143.2387512836
 20
123.6427022114
 11
141.9610337641
 21
124.0115474883
  0
LINE
  5
48F
100
AcDbEntity
  8
0
100
AcDbLine
 62
7
  6
CONTINUOUS
 10
133.5109652531
 20
126.4508721531
 11
131.8285365398
 21
126.9365474883
  0
LINE
  5
490
100
AcDbEntity
  8
0
100
AcDbLine
 62
7
  6
CONTINUOUS
 10
137.2411953135
 20
125.3740474883
 11
138.7964512018
 21
124.9250837854
  0
LINE
  5
491
100
AcDbEntity
  8
0
100
AcDbLine
 62
7
  6
CONTINUOUS
 10
156.7267668986
 20
119.7490474883
 11
158.282022787
 21
119.3000837854
  0
LINE
  5
492
100
AcDbEntity
  8
0
100
AcDbLine
 62
253
  6
CONTINUOUS
 10
164.9051037619
 20
117.5355962796
 11
162.8493228688
 21
118.1290491056
  0
LINE
  5
493
100
AcDbEntity
  8
0
100
AcDbLine
 62
253
  6
CONTINUOUS
 10
149.8362617361
 20
121.8855962796
 11
147.7804808429
 21
122.4790491056
  0
LINE
  5
494
100
AcDbEntity
  8
0
100
AcDbLine
 62
253
  6
CONTINUOUS
 10
145.4195321768
 20
123.1605962796
 11
143.3637512836
 21
123.7540491056
  0
LINE
  5
495
100
AcDbEntity
  8
0
100
AcDbLine
 62
253
  6
CONTINUOUS
 10
130.3506901509
 20
127.5105962796
 11
128.2949092578
 21
128.1040491056
  0
LINE
  5
496
100
AcDbEntity
  8
0
100
AcDbLine
 62
253
  6
CONTINUOUS
 10
165.0293765455
 20
117.8597223542
 11
162.9735956524
 21
118.4531751802
  0
LINE
  5
497
100
AcDbEntity
  8
0
100
AcDbLine
 62
253
  6
CONTINUOUS
 10
149.9605345197
 20
122.2097223542
 11
147.9047536265
 21
122.8031751802
  0
LINE
  5
498
100
AcDbEntity
  8
0
100
AcDbLine
 62
253
  6
CONTINUOUS
 10
145.5438049604
 20
123.4847223542
 11
143.4880240672
 21
124.0781751802
  0
LINE
  5
499
100
AcDbEntity
  8
0
100
AcDbLine
 62
253
  6
CONTINUOUS
 10
130.4749629345
 20
127.8347223542
 11
128.4191820414
 21
128.4281751802
  0
LINE
  5
49A
100
AcDbEntity
  8
0
100
AcDbLine
 62
7
  6
CONTINUOUS
 10
133.5109652531
 20
126.9629298127
 11
134.326131804
 21
126.7276114989
  0
LINE
  5
49B
100
AcDbEntity
  8
0
100
AcDbLine
 62
7
  6
CONTINUOUS
 10
140.3883096305
 20
124.9776114989
 11
141.2034761815
 21
124.7422931851
  0
LINE
  5
49C
100
AcDbEntity
  8
0
100
AcDbLine
 62
7
  6
CONTINUOUS
 10
152.9965368382
 20
121.3379298127
 11
153.8117033892
 21
121.1026114989
  0
LINE
  5
49D
100
AcDbEntity
  8
0
100
AcDbLine
 62
7
  6
CONTINUOUS
 10
159.8738812157
 20
119.3526114989
 11
160.6890477667
 21
119.1172931851
  0
LINE
  5
49E
100
AcDbEntity
  8
0
100
AcDbLine
 62
7
  6
CONTINUOUS
 10
167.3087885439
 20
117.2665928464
 11
166.3829501508
 21
117.5338593691
  0
LINE
  5
49F
100
AcDbEntity
  8
0
100
AcDbLine
 62
7
  6
CONTINUOUS
 10
151.8090697366
 20
121.7409762592
 11
151.314108125
 21
121.8838593691
  0
LINE
  5
4A0
100
AcDbEntity
  8
0
100
AcDbLine
 62
7
  6
CONTINUOUS
 10
147.8232169587
 20
122.8915928464
 11
146.8973785657
 21
123.1588593691
  0
LINE
  5
4A1
100
AcDbEntity
  8
0
100
AcDbLine
 62
7
  6
CONTINUOUS
 10
132.3234981514
 20
127.3659762592
 11
131.8285365398
 21
127.5088593691
  0
LINE
  5
4A2
100
AcDbEntity
  8
0
100
AcDbLine
 62
7
  6
CONTINUOUS
 10
158.282022787
 20
119.8728995147
 11
157.2267668986
 21
120.1775256503
  0
LINE
  5
4A3
100
AcDbEntity
  8
0
100
AcDbLine
 62
7
  6
CONTINUOUS
 10
138.7964512018
 20
125.4978995147
 11
137.7411953135
 21
125.8025256503
  0
LINE
  5
4A4
100
AcDbEntity
  8
0
100
AcDbLine
 62
253
  6
CONTINUOUS
 10
160.226041511
 20
119.6611399016
 11
158.382022787
 21
120.1934622549
  0
LINE
  5
4A5
100
AcDbEntity
  8
0
100
AcDbLine
 62
253
  6
CONTINUOUS
 10
156.3035618179
 20
120.7934622549
 11
154.3117033892
 21
121.3684622549
  0
LINE
  5
4A6
100
AcDbEntity
  8
0
100
AcDbLine
 62
253
  6
CONTINUOUS
 10
140.7404699258
 20
125.2861399016
 11
138.8964512018
 21
125.8184622549
  0
LINE
  5
4A7
100
AcDbEntity
  8
0
100
AcDbLine
 62
253
  6
CONTINUOUS
 10
136.8179902327
 20
126.4184622549
 11
134.826131804
 21
126.9934622549
  0
LINE
  5
4A8
100
AcDbEntity
  8
0
100
AcDbLine
 62
253
  6
CONTINUOUS
 10
160.4732994425
 20
119.8777631146
 11
158.4814410138
 21
120.4527631146
  0
LINE
  5
4A9
100
AcDbEntity
  8
0
100
AcDbLine
 62
253
  6
CONTINUOUS
 10
156.4029800448
 20
121.0527631146
 11
154.4111216161
 21
121.6277631146
  0
LINE
  5
4AA
100
AcDbEntity
  8
0
100
AcDbLine
 62
253
  6
CONTINUOUS
 10
140.9877278574
 20
125.5027631146
 11
138.9958694287
 21
126.0777631146
  0
LINE
  5
4AB
100
AcDbEntity
  8
0
100
AcDbLine
 62
253
  6
CONTINUOUS
 10
136.9174084596
 20
126.6777631146
 11
134.9255500309
 21
127.2527631146
  0
LINE
  5
4AC
100
AcDbEntity
  8
0
100
AcDbLine
 62
7
  6
CONTINUOUS
 10
134.2534076704
 20
127.6221881344
 11
137.0679902327
 21
126.8096881344
  0
LINE
  5
4AD
100
AcDbEntity
  8
0
100
AcDbLine
 62
7
  6
CONTINUOUS
 10
139.1464512018
 20
126.2096881344
 11
141.9610337641
 21
125.3971881344
  0
LINE
  5
4AE
100
AcDbEntity
  8
0
100
AcDbLine
 62
7
  6
CONTINUOUS
 10
153.7389792556
 20
121.9971881344
 11
156.5535618179
 21
121.1846881344
  0
LINE
  5
4AF
100
AcDbEntity
  8
0
100
AcDbLine
 62
7
  6
CONTINUOUS
 10
158.632022787
 20
120.5846881344
 11
161.4466053493
 21
119.7721881344
  0
LINE
  5
4B0
100
AcDbEntity
  8
0
100
AcDbLine
 62
7
  6
CONTINUOUS
 10
166.1664474639
 20
118.8426997786
 11
164.0879791668
 21
119.4427018939
  0
LINE
  5
4B1
100
AcDbEntity
  8
0
100
AcDbLine
 62
7
  6
CONTINUOUS
 10
151.097605438
 20
123.1926997786
 11
149.019137141
 21
123.7927018939
  0
LINE
  5
4B2
100
AcDbEntity
  8
0
100
AcDbLine
 62
7
  6
CONTINUOUS
 10
146.6808758787
 20
124.4676997786
 11
144.6024075817
 21
125.0677018939
  0
LINE
  5
4B3
100
AcDbEntity
  8
0
100
AcDbLine
 62
7
  6
CONTINUOUS
 10
131.6120338529
 20
128.8176997786
 11
129.5335655558
 21
129.4177018939
  0
LWPOLYLINE
  5
4B4
100
AcDbEntity
  8
0
100
AcDbPolyline
 62
253
  6
CONTINUOUS
 90
23
 70
0
 10
128.2949092578
 20
127.7640751715
 10
128.2847887931
 20
127.7671588885
 10
128.2749713118
 20
127.7704792039
 10
128.2654789475
 20
127.774028704
 10
128.256332899
 20
127.7777995486
 10
128.2475540343
 20
127.7817832243
 10
128.2391627543
 20
127.7859705137
 10
128.2311781179
 20
127.7903518917
 10
128.223617871
 20
127.7949176057
 10
128.2164989987
 20
127.7996573994
 10
128.209837501
 20
127.8045606242
 10
128.2036483728
 20
127.8096162476
 10
128.1979455501
 20
127.8148128871
 10
128.1927418613
 20
127.8201388509
 10
128.1880490001
 20
127.8255821682
 10
128.1838775159
 20
127.8311306017
 10
128.1802367885
 20
127.8367716758
 10
128.1771350051
 20
127.8424927046
 10
128.1745791401
 20
127.8482808245
 10
128.1725749409
 20
127.8541230202
 10
128.1711269146
 20
127.8600061542
 10
128.1702383176
 20
127.8659169974
 10
128.1699093005
 20
127.8722552984
  0
LWPOLYLINE
  5
4B5
100
AcDbEntity
  8
0
100
AcDbPolyline
 62
253
  6
CONTINUOUS
 90
23
 70
0
 10
143.3637512836
 20
123.4140751715
 10
143.353627444
 20
123.4171599725
 10
143.343807484
 20
123.4204812864
 10
143.3343134879
 20
123.424031644
 10
143.325166817
 20
123.4278030563
 10
143.3163880301
 20
123.4317870458
 10
143.3079968409
 20
123.4359746681
 10
143.3000121065
 20
123.4403565179
 10
143.2924518084
 20
123.4449227334
 10
143.2853329781
 20
123.4496630303
 10
143.278671633
 20
123.4545667421
 10
143.2724827454
 20
123.459622846
 10
143.2667802342
 20
123.464819971
 10
143.261576924
 20
123.4701464289
 10
143.2568845165
 20
123.4755902407
 10
143.2527135645
 20
123.481139164
 10
143.2490734458
 20
123.4867807237
 10
143.2459723501
 20
123.4925022282
 10
143.2434172565
 20
123.4982907974
 10
143.2414139103
 20
123.5041334044
 10
143.239966809
 20
123.5100169176
 10
143.2390792021
 20
123.5159281182
 10
143.2387518342
 20
123.5220660168
  0
LWPOLYLINE
  5
4B6
100
AcDbEntity
  8
0
100
AcDbPolyline
 62
253
  6
CONTINUOUS
 90
23
 70
0
 10
147.7804808429
 20
122.1390751715
 10
147.7703603782
 20
122.1421588885
 10
147.760542897
 20
122.1454792039
 10
147.7510505326
 20
122.149028704
 10
147.7419044842
 20
122.1527995486
 10
147.7331256194
 20
122.1567832243
 10
147.7247343394
 20
122.1609705137
 10
147.7167497031
 20
122.1653518917
 10
147.7091894562
 20
122.1699176057
 10
147.7020705838
 20
122.1746573994
 10
147.6954090862
 20
122.1795606242
 10
147.689219958
 20
122.1846162476
 10
147.6835171353
 20
122.1898128871
 10
147.6783134465
 20
122.1951388509
 10
147.6736205853
 20
122.2005821682
 10
147.6694491011
 20
122.2061306017
 10
147.6658083736
 20
122.2117716758
 10
147.6627065902
 20
122.2174927046
 10
147.6601507252
 20
122.2232808245
 10
147.658146526
 20
122.2291230202
 10
147.6566984998
 20
122.2350061542
 10
147.6558099027
 20
122.2409169974
 10
147.6554808429
 20
122.2473283453
  0
LWPOLYLINE
  5
4B7
100
AcDbEntity
  8
0
100
AcDbPolyline
 62
253
  6
CONTINUOUS
 90
23
 70
0
 10
128.2949092578
 20
128.1040491056
 10
128.2847847557
 20
128.1071341194
 10
128.274964161
 20
128.1104556821
 10
128.2654695636
 20
128.1140063238
 10
128.2563223145
 20
128.117778062
 10
128.2475429957
 20
128.1217624118
 10
128.2391513711
 20
128.1259504044
 10
128.231166319
 20
128.1303326174
 10
128.2236057944
 20
128.1348991961
 10
128.216486804
 20
128.1396398677
 10
128.2098253581
 20
128.1445439697
 10
128.2036364397
 20
128.1496004706
 10
128.1979339721
 20
128.1547979931
 10
128.19273078
 20
128.1601248453
 10
128.1880385631
 20
128.1655690463
 10
128.1838678739
 20
128.1711183488
 10
128.1802280885
 20
128.176760274
 10
128.1771273926
 20
128.1824821287
 10
128.1745727616
 20
128.1882710325
 10
128.1725699399
 20
128.1941139481
 10
128.1711234181
 20
128.1999977499
 10
128.1702364394
 20
128.2059092427
 10
128.1699103247
 20
128.2119370818
  0
LWPOLYLINE
  5
4B8
100
AcDbEntity
  8
0
100
AcDbPolyline
 62
253
  6
CONTINUOUS
 90
23
 70
0
 10
162.8493228688
 20
117.7890751715
 10
162.8391990291
 20
117.7921599725
 10
162.8293790692
 20
117.7954812864
 10
162.819885073
 20
117.799031644
 10
162.8107384022
 20
117.8028030563
 10
162.8019596153
 20
117.8067870458
 10
162.7935684261
 20
117.8109746681
 10
162.7855836916
 20
117.8153565179
 10
162.7780233936
 20
117.8199227334
 10
162.7709045633
 20
117.8246630303
 10
162.7642432181
 20
117.8295667421
 10
162.7580543306
 20
117.834622846
 10
162.7523518194
 20
117.839819971
 10
162.7471485091
 20
117.8451464289
 10
162.7424561016
 20
117.8505902407
 10
162.7382851497
 20
117.856139164
 10
162.734645031
 20
117.8617807237
 10
162.7315439353
 20
117.8675022282
 10
162.7289888417
 20
117.8732907974
 10
162.7269854954
 20
117.8791334044
 10
162.7255383941
 20
117.8850169176
 10
162.7246507873
 20
117.8909281182
 10
162.7243228688
 20
117.8973283914
  0
LWPOLYLINE
  5
4B9
100
AcDbEntity
  8
0
100
AcDbPolyline
 62
253
  6
CONTINUOUS
 90
23
 70
0
 10
143.3637512836
 20
123.7540491056
 10
143.3536267816
 20
123.7571341194
 10
143.3438061869
 20
123.7604556821
 10
143.3343115894
 20
123.7640063238
 10
143.3251643404
 20
123.767778062
 10
143.3163850216
 20
123.7717624118
 10
143.307993397
 20
123.7759504044
 10
143.3000083449
 20
123.7803326174
 10
143.2924478202
 20
123.7848991961
 10
143.2853288299
 20
123.7896398677
 10
143.2786673839
 20
123.7945439697
 10
143.2724784655
 20
123.7996004706
 10
143.266775998
 20
123.8047979931
 10
143.2615728059
 20
123.8101248453
 10
143.256880589
 20
123.8155690463
 10
143.2527098998
 20
123.8211183488
 10
143.2490701143
 20
123.826760274
 10
143.2459694185
 20
123.8324821287
 10
143.2434147874
 20
123.8382710325
 10
143.2414119657
 20
123.8441139481
 10
143.2399654439
 20
123.8499977499
 10
143.2390784652
 20
123.8559092427
 10
143.2387523506
 20
123.8619370818
  0
LWPOLYLINE
  5
4BA
100
AcDbEntity
  8
0
100
AcDbPolyline
 62
253
  6
CONTINUOUS
 90
23
 70
0
 10
147.7804808429
 20
122.4790491056
 10
147.7703563409
 20
122.4821341194
 10
147.7605357462
 20
122.4854556821
 10
147.7510411487
 20
122.4890063238
 10
147.7418938997
 20
122.492778062
 10
147.7331145809
 20
122.4967624118
 10
147.7247229563
 20
122.5009504044
 10
147.7167379042
 20
122.5053326174
 10
147.7091773795
 20
122.5098991961
 10
147.7020583892
 20
122.5146398677
 10
147.6953969432
 20
122.5195439697
 10
147.6892080248
 20
122.5246004706
 10
147.6835055573
 20
122.5297979931
 10
147.6783023652
 20
122.5351248453
 10
147.6736101483
 20
122.5405690463
 10
147.6694394591
 20
122.5461183488
 10
147.6657996736
 20
122.551760274
 10
147.6626989778
 20
122.5574821287
 10
147.6601443467
 20
122.5632710325
 10
147.658141525
 20
122.5691139481
 10
147.6566950032
 20
122.5749977499
 10
147.6558080245
 20
122.5809092427
 10
147.6554808445
 20
122.5872880445
  0
LWPOLYLINE
  5
4BB
100
AcDbEntity
  8
0
100
AcDbPolyline
 62
253
  6
CONTINUOUS
 90
23
 70
0
 10
162.8493228688
 20
118.1290491056
 10
162.8391983667
 20
118.1321341194
 10
162.829377772
 20
118.1354556821
 10
162.8198831746
 20
118.1390063238
 10
162.8107359255
 20
118.142778062
 10
162.8019566067
 20
118.1467624118
 10
162.7935649821
 20
118.1509504044
 10
162.78557993
 20
118.1553326174
 10
162.7780194054
 20
118.1598991961
 10
162.770900415
 20
118.1646398677
 10
162.7642389691
 20
118.1695439697
 10
162.7580500506
 20
118.1746004706
 10
162.7523475831
 20
118.1797979931
 10
162.747144391
 20
118.1851248453
 10
162.7424521741
 20
118.1905690463
 10
162.7382814849
 20
118.1961183488
 10
162.7346416995
 20
118.201760274
 10
162.7315410036
 20
118.2074821287
 10
162.7289863726
 20
118.2132710325
 10
162.7269835509
 20
118.2191139481
 10
162.7255370291
 20
118.2249977499
 10
162.7246500504
 20
118.2309092427
 10
162.7243228704
 20
118.2372880445
  0
LWPOLYLINE
  5
4BC
100
AcDbEntity
  8
0
100
AcDbPolyline
 62
253
  6
CONTINUOUS
 90
23
 70
0
 10
138.8964512018
 20
125.8184622549
 10
138.8883230383
 20
125.820939442
 10
138.8804398199
 20
125.8236072001
 10
138.8728194046
 20
125.8264594858
 10
138.865479055
 20
125.8294898378
 10
138.8584353995
 20
125.8326913915
 10
138.8517043942
 20
125.8360568941
 10
138.845301287
 20
125.8395787219
 10
138.8392405829
 20
125.8432488967
 10
138.8335360114
 20
125.8470591043
 10
138.8282004953
 20
125.8510007135
 10
138.8232461211
 20
125.8550647953
 10
138.8186841121
 20
125.8592421431
 10
138.8145248028
 20
125.863523294
 10
138.8107776152
 20
125.8678985497
 10
138.8074510381
 20
125.872357999
 10
138.8045526071
 20
125.8768915396
 10
138.8020888882
 20
125.8814889017
 10
138.8000654624
 20
125.8861396708
 10
138.7984869134
 20
125.8908333115
 10
138.7973568173
 20
125.895559191
 10
138.796677734
 20
125.9003066037
 10
138.7964512018
 20
125.9050647953
  0
LWPOLYLINE
  5
4BD
100
AcDbEntity
  8
0
100
AcDbPolyline
 62
253
  6
CONTINUOUS
 90
23
 70
0
 10
158.382022787
 20
120.1934622549
 10
158.3738946235
 20
120.195939442
 10
158.3660114051
 20
120.1986072001
 10
158.3583909897
 20
120.2014594858
 10
158.3510506402
 20
120.2044898378
 10
158.3440069847
 20
120.2076913915
 10
158.3372759794
 20
120.2110568941
 10
158.3308728721
 20
120.2145787219
 10
158.324812168
 20
120.2182488967
 10
158.3191075966
 20
120.2220591043
 10
158.3137720804
 20
120.2260007135
 10
158.3088177062
 20
120.2300647953
 10
158.3042556972
 20
120.2342421431
 10
158.3000963879
 20
120.238523294
 10
158.2963492004
 20
120.2428985497
 10
158.2930226232
 20
120.247357999
 10
158.2901241923
 20
120.2518915396
 10
158.2876604733
 20
120.2564889017
 10
158.2856370475
 20
120.2611396708
 10
158.2840584986
 20
120.2658333115
 10
158.2829284025
 20
120.270559191
 10
158.2822493191
 20
120.2753066037
 10
158.282022787
 20
120.2800647953
  0
LINE
  5
4BE
100
AcDbEntity
  8
0
100
AcDbLine
 62
7
  6
CONTINUOUS
 10
166.8322675741
 20
116.8315430336
 11
166.8159414346
 21
116.8365536712
  0
LWPOLYLINE
  5
4BF
100
AcDbEntity
  8
0
100
AcDbPolyline
 62
7
  6
CONTINUOUS
 90
37
 70
0
 10
137.0679902327
 20
126.8096881344
 10
137.0755454087
 20
126.8073422733
 10
137.0830862077
 20
126.8046711695
 10
137.090598272
 20
126.8016799055
 10
137.0980672869
 20
126.7983741632
 10
137.1054790368
 20
126.7947602377
 10
137.1128194317
 20
126.7908450255
 10
137.1200744812
 20
126.7866359646
 10
137.1272303674
 20
126.7821410614
 10
137.1342734995
 20
126.7773688999
 10
137.1411904473
 20
126.7723285445
 10
137.1479680305
 20
126.7670295785
 10
137.1545933901
 20
126.7614821266
 10
137.1610538858
 20
126.7556967243
 10
137.1673372004
 20
126.7496843677
 10
137.1734314269
 20
126.7434565493
 10
137.1793249313
 20
126.7370250952
 10
137.1850064701
 20
126.7304022263
 10
137.190465292
 20
126.7236006058
 10
137.1956909685
 20
126.7166331483
 10
137.2006735223
 20
126.7095130902
 10
137.2054035416
 20
126.702254049
 10
137.2098719817
 20
126.6948698063
 10
137.2140703021
 20
126.6873743881
 10
137.2179905919
 20
126.6797821323
 10
137.2216253448
 20
126.6721074526
 10
137.2249676032
 20
126.6643649238
 10
137.2280110922
 20
126.6565693595
 10
137.2307499723
 20
126.6487355582
 10
137.2331789881
 20
126.6408783945
 10
137.2352936077
 20
126.6330129043
 10
137.2370897584
 20
126.6251540177
 10
137.2385639766
 20
126.6173166547
 10
137.2397135512
 20
126.6095158159
 10
137.240536294
 20
126.6017663497
 10
137.2410305443
 20
126.5940829241
 10
137.2411953135
 20
126.5864801224
  0
LWPOLYLINE
  5
4C0
100
AcDbEntity
  8
0
100
AcDbPolyline
 62
7
  6
CONTINUOUS
 90
37
 70
0
 10
156.5535618179
 20
121.1846881344
 10
156.5611169939
 20
121.1823422733
 10
156.5686577929
 20
121.1796711695
 10
156.5761698571
 20
121.1766799055
 10
156.5836388721
 20
121.1733741632
 10
156.5910506219
 20
121.1697602377
 10
156.5983910168
 20
121.1658450255
 10
156.6056460663
 20
121.1616359646
 10
156.6128019525
 20
121.1571410614
 10
156.6198450846
 20
121.1523688999
 10
156.6267620325
 20
121.1473285445
 10
156.6335396156
 20
121.1420295785
 10
156.6401649752
 20
121.1364821266
 10
156.6466254709
 20
121.1306967243
 10
156.6529087856
 20
121.1246843677
 10
156.659003012
 20
121.1184565493
 10
156.6648965164
 20
121.1120250952
 10
156.6705780552
 20
121.1054022263
 10
156.6760368772
 20
121.0986006058
 10
156.6812625537
 20
121.0916331483
 10
156.6862451074
 20
121.0845130902
 10
156.6909751267
 20
121.077254049
 10
156.6954435668
 20
121.0698698063
 10
156.6996418873
 20
121.0623743881
 10
156.7035621771
 20
121.0547821323
 10
156.7071969299
 20
121.0471074526
 10
156.7105391884
 20
121.0393649238
 10
156.7135826774
 20
121.0315693595
 10
156.7163215575
 20
121.0237355582
 10
156.7187505732
 20
121.0158783945
 10
156.7208651928
 20
121.0080129043
 10
156.7226613435
 20
121.0001540177
 10
156.7241355618
 20
120.9923166547
 10
156.7252851363
 20
120.9845158159
 10
156.7261078792
 20
120.9767663497
 10
156.7266021294
 20
120.9690829241
 10
156.7267668986
 20
120.9614801224
  0
LWPOLYLINE
  5
4C1
100
AcDbEntity
  8
0
100
AcDbPolyline
 62
253
  6
CONTINUOUS
 90
34
 70
0
 10
136.9174084596
 20
126.6777631146
 10
136.9256505481
 20
126.6751884101
 10
136.9338752836
 20
126.672228321
 10
136.9420640343
 20
126.6688895528
 10
136.9501982501
 20
126.6651796687
 10
136.9582595043
 20
126.661107073
 10
136.9662295358
 20
126.6566809913
 10
136.9740902897
 20
126.6519114502
 10
136.9818239589
 20
126.6468092542
 10
136.9894130242
 20
126.6413859614
 10
136.9968402939
 20
126.6356538573
 10
137.0040889428
 20
126.629625927
 10
137.0111425505
 20
126.6233158256
 10
137.0179851382
 20
126.6167378476
 10
137.0246012053
 20
126.6099068943
 10
137.0309757642
 20
126.6028384399
 10
137.0370943746
 20
126.5955484967
 10
137.0429431758
 20
126.5880535788
 10
137.0485089184
 20
126.5803706647
 10
137.0537789942
 20
126.5725171585
 10
137.0587414648
 20
126.564510851
 10
137.0633850885
 20
126.5563698791
 10
137.0676993462
 20
126.5481126847
 10
137.0716744645
 20
126.539757973
 10
137.0753014387
 20
126.5313246701
 10
137.0785720523
 20
126.5228318801
 10
137.0814788965
 20
126.5142988419
 10
137.0840153863
 20
126.5057448857
 10
137.0861757757
 20
126.4971893888
 10
137.0879551708
 20
126.4886517322
 10
137.0893495406
 20
126.4801512566
 10
137.0903557264
 20
126.4717072181
 10
137.090971449
 20
126.4633387452
 10
137.0911953135
 20
126.4550647953
  0
LWPOLYLINE
  5
4C2
100
AcDbEntity
  8
0
100
AcDbPolyline
 62
253
  6
CONTINUOUS
 90
34
 70
0
 10
156.4029800448
 20
121.0527631146
 10
156.4112221333
 20
121.0501884101
 10
156.4194468687
 20
121.047228321
 10
156.4276356194
 20
121.0438895528
 10
156.4357698352
 20
121.0401796687
 10
156.4438310895
 20
121.036107073
 10
156.4518011209
 20
121.0316809913
 10
156.4596618748
 20
121.0269114502
 10
156.467395544
 20
121.0218092542
 10
156.4749846093
 20
121.0163859614
 10
156.482411879
 20
121.0106538573
 10
156.489660528
 20
121.004625927
 10
156.4967141356
 20
120.9983158256
 10
156.5035567234
 20
120.9917378476
 10
156.5101727904
 20
120.9849068943
 10
156.5165473494
 20
120.9778384399
 10
156.5226659598
 20
120.9705484967
 10
156.528514761
 20
120.9630535788
 10
156.5340805036
 20
120.9553706647
 10
156.5393505794
 20
120.9475171585
 10
156.5443130499
 20
120.939510851
 10
156.5489566737
 20
120.9313698791
 10
156.5532709313
 20
120.9231126847
 10
156.5572460497
 20
120.914757973
 10
156.5608730238
 20
120.9063246701
 10
156.5641436375
 20
120.8978318801
 10
156.5670504817
 20
120.8892988419
 10
156.5695869714
 20
120.8807448857
 10
156.5717473608
 20
120.8721893888
 10
156.5735267559
 20
120.8636517322
 10
156.5749211257
 20
120.8551512566
 10
156.5759273116
 20
120.8467072181
 10
156.5765430342
 20
120.8383387452
 10
156.5767668986
 20
120.8300647953
  0
LWPOLYLINE
  5
4C3
100
AcDbEntity
  8
0
100
AcDbPolyline
 62
7
  6
CONTINUOUS
 90
34
 70
0
 10
131.6120338529
 20
128.8176997786
 10
131.6223353579
 20
128.8144806431
 10
131.6326136657
 20
128.8107784834
 10
131.6428454219
 20
128.8066016207
 10
131.6530073232
 20
128.8019594037
 10
131.6630763454
 20
128.796862342
 10
131.6730297959
 20
128.791322083
 10
131.6828450868
 20
128.7853511384
 10
131.6924999192
 20
128.7789629766
 10
131.7019725097
 20
128.7721721475
 10
131.7112413744
 20
128.7649940095
 10
131.7202854654
 20
128.7574447778
 10
131.7290843527
 20
128.749541609
 10
131.7376180936
 20
128.7413023953
 10
131.7458673204
 20
128.732745769
 10
131.753813373
 20
128.7238911437
 10
131.7614382566
 20
128.7147585814
 10
131.7687246777
 20
128.7053687517
 10
131.775656127
 20
128.6957429297
 10
131.782216924
 20
128.6859029387
 10
131.7883922021
 20
128.6758710643
 10
131.794167939
 20
128.6656700095
 10
131.7995310882
 20
128.6553229141
 10
131.8044695125
 20
128.6448532261
 10
131.8089719627
 20
128.6342846131
 10
131.8130282915
 20
128.6236410601
 10
131.8166293385
 20
128.6129466997
 10
131.8197668563
 20
128.6022256818
 10
131.8224338037
 20
128.591502348
 10
131.8246241828
 20
128.580801024
 10
131.8263329158
 20
128.5701458498
 10
131.8275561388
 20
128.5595609656
 10
131.8282912104
 20
128.5490704572
 10
131.8285365398
 20
128.5386981493
  0
LWPOLYLINE
  5
4C4
100
AcDbEntity
  8
0
100
AcDbPolyline
 62
7
  6
CONTINUOUS
 90
34
 70
0
 10
146.6808758787
 20
124.4676997786
 10
146.6911773838
 20
124.4644806431
 10
146.7014556915
 20
124.4607784834
 10
146.7116874477
 20
124.4566016207
 10
146.721849349
 20
124.4519594037
 10
146.7319183712
 20
124.446862342
 10
146.7418718217
 20
124.441322083
 10
146.7516871126
 20
124.4353511384
 10
146.761341945
 20
124.4289629766
 10
146.7708145356
 20
124.4221721475
 10
146.7800834003
 20
124.4149940095
 10
146.7891274912
 20
124.4074447778
 10
146.7979263785
 20
124.399541609
 10
146.8064601195
 20
124.3913023953
 10
146.8147093463
 20
124.382745769
 10
146.8226553989
 20
124.3738911437
 10
146.8302802825
 20
124.3647585814
 10
146.8375667036
 20
124.3553687517
 10
146.8444981529
 20
124.3457429297
 10
146.8510589499
 20
124.3359029387
 10
146.8572342279
 20
124.3258710643
 10
146.8630099649
 20
124.3156700095
 10
146.8683731141
 20
124.3053229141
 10
146.8733115383
 20
124.2948532261
 10
146.8778139885
 20
124.2842846131
 10
146.8818703174
 20
124.2736410601
 10
146.8854713644
 20
124.2629466997
 10
146.8886088822
 20
124.2522256818
 10
146.8912758295
 20
124.241502348
 10
146.8934662087
 20
124.230801024
 10
146.8951749417
 20
124.2201458498
 10
146.8963981647
 20
124.2095609656
 10
146.8971332363
 20
124.1990704572
 10
146.8973785657
 20
124.1886981493
  0
LWPOLYLINE
  5
4C5
100
AcDbEntity
  8
0
100
AcDbPolyline
 62
7
  6
CONTINUOUS
 90
34
 70
0
 10
151.097605438
 20
123.1926997786
 10
151.1079069431
 20
123.1894806431
 10
151.1181852508
 20
123.1857784834
 10
151.1284170071
 20
123.1816016207
 10
151.1385789083
 20
123.1769594037
 10
151.1486479305
 20
123.171862342
 10
151.158601381
 20
123.166322083
 10
151.1684166719
 20
123.1603511384
 10
151.1780715043
 20
123.1539629766
 10
151.1875440949
 20
123.1471721475
 10
151.1968129596
 20
123.1399940095
 10
151.2058570505
 20
123.1324447778
 10
151.2146559378
 20
123.124541609
 10
151.2231896788
 20
123.1163023953
 10
151.2314389056
 20
123.107745769
 10
151.2393849582
 20
123.0988911437
 10
151.2470098418
 20
123.0897585814
 10
151.2542962629
 20
123.0803687517
 10
151.2612277122
 20
123.0707429297
 10
151.2677885092
 20
123.0609029387
 10
151.2739637872
 20
123.0508710643
 10
151.2797395242
 20
123.0406700095
 10
151.2851026734
 20
123.0303229141
 10
151.2900410976
 20
123.0198532261
 10
151.2945435478
 20
123.0092846131
 10
151.2985998767
 20
122.9986410601
 10
151.3022009237
 20
122.9879466997
 10
151.3053384415
 20
122.9772256818
 10
151.3080053888
 20
122.966502348
 10
151.310195768
 20
122.955801024
 10
151.311904501
 20
122.9451458498
 10
151.313127724
 20
122.9345609656
 10
151.3138627956
 20
122.9240704572
 10
151.314108125
 20
122.9136981493
  0
LWPOLYLINE
  5
4C6
100
AcDbEntity
  8
0
100
AcDbPolyline
 62
7
  6
CONTINUOUS
 90
25
 70
0
 10
162.9049891863
 20
117.6571350074
 10
162.8929334438
 20
117.6609478233
 10
162.8804727366
 20
117.6656126878
 10
162.8682687346
 20
117.6709381515
 10
162.8563780079
 20
117.6768991999
 10
162.844827889
 20
117.6834801527
 10
162.8336205931
 20
117.6906816203
 10
162.8227904549
 20
117.6984868844
 10
162.8123789245
 20
117.7068705855
 10
162.802401684
 20
117.7158259883
 10
162.7928909463
 20
117.7253328314
 10
162.7838841112
 20
117.7353620555
 10
162.775406025
 20
117.7458948986
 10
162.7674890611
 20
117.7569012273
 10
162.7601620654
 20
117.7683510224
 10
162.7534453979
 20
117.7802252178
 10
162.7473649169
 20
117.7924947262
 10
162.7419493096
 20
117.8051191884
 10
162.737222299
 20
117.8180609527
 10
162.7332066637
 20
117.8312755226
 10
162.7299195416
 20
117.8447259376
 10
162.7273748565
 20
117.8583837806
 10
162.7255882803
 20
117.8722065544
 10
162.724573089
 20
117.8861459024
 10
162.7243228691
 20
117.8973347409
  0
LWPOLYLINE
  5
4C7
100
AcDbEntity
  8
0
100
AcDbPolyline
 62
253
  6
CONTINUOUS
 90
34
 70
0
 10
130.4749629345
 20
127.8347223542
 10
130.4852305486
 20
127.831473785
 10
130.4954765515
 20
127.8277435741
 10
130.5056777338
 20
127.8235401713
 10
130.5158109875
 20
127.8188730981
 10
130.5258533585
 20
127.8137529265
 10
130.5357820986
 20
127.8081912549
 10
130.545574717
 20
127.8022006818
 10
130.5552090311
 20
127.795794777
 10
130.5646632172
 20
127.7889880514
 10
130.5739158594
 20
127.7817959238
 10
130.5829459984
 20
127.7742346859
 10
130.5917331788
 20
127.7663214657
 10
130.6002574957
 20
127.7580741883
 10
130.6084996398
 20
127.7495115357
 10
130.6164409405
 20
127.7406529043
 10
130.6240634092
 20
127.7315183607
 10
130.6313497793
 20
127.7221285968
 10
130.6382835454
 20
127.7125048826
 10
130.644849001
 20
127.7026690178
 10
130.6510312739
 20
127.6926432829
 10
130.65681636
 20
127.6824503884
 10
130.6621911545
 20
127.6721134236
 10
130.6671434826
 20
127.661655804
 10
130.6716621259
 20
127.6511012184
 10
130.6757368488
 20
127.6404735753
 10
130.6793584211
 20
127.6297969488
 10
130.6825186392
 20
127.6190955237
 10
130.6852103444
 20
127.6083935413
 10
130.6874274394
 20
127.5977152438
 10
130.689164902
 20
127.58708482
 10
130.6904187965
 20
127.5765263503
 10
130.6911862825
 20
127.5660637519
 10
130.6914656215
 20
127.5557207249
  0
LWPOLYLINE
  5
4C8
100
AcDbEntity
  8
0
100
AcDbPolyline
 62
253
  6
CONTINUOUS
 90
34
 70
0
 10
145.5438049604
 20
123.4847223542
 10
145.5540556978
 20
123.4814795258
 10
145.564289322
 20
123.4777549233
 10
145.5744826652
 20
123.4735563497
 10
145.584614045
 20
123.468891998
 10
145.594658956
 20
123.4637724074
 10
145.6045902688
 20
123.4582110837
 10
145.6143840264
 20
123.4522215554
 10
145.6240195323
 20
123.4458165948
 10
145.6334751316
 20
123.4390105819
 10
145.6427295132
 20
123.4318188161
 10
145.6517615697
 20
123.4242576594
 10
145.6605506378
 20
123.4163443968
 10
145.6690767271
 20
123.4080970397
 10
145.6773206049
 20
123.3995342053
 10
145.6852636456
 20
123.3906752389
 10
145.6928878696
 20
123.3815401841
 10
145.7001759757
 20
123.3721497603
 10
145.7071114344
 20
123.3625252595
 10
145.713678526
 20
123.3526884931
 10
145.7198623722
 20
123.3426617435
 10
145.7256489573
 20
123.3324677319
 10
145.731025169
 20
123.322129554
 10
145.7359788228
 20
123.3116706356
 10
145.7404986891
 20
123.3011146827
 10
145.744574525
 20
123.2904856149
 10
145.7481970949
 20
123.2798075146
 10
145.7513581888
 20
123.2691045801
 10
145.7540506443
 20
123.2584010578
 10
145.7562683587
 20
123.2477212057
 10
145.7580063037
 20
123.2370892412
 10
145.7592605425
 20
123.2265292608
 10
145.7600282362
 20
123.2160651855
 10
145.7603076474
 20
123.2057207249
  0
LWPOLYLINE
  5
4C9
100
AcDbEntity
  8
0
100
AcDbPolyline
 62
253
  6
CONTINUOUS
 90
34
 70
0
 10
149.9605345197
 20
122.2097223542
 10
149.9708021337
 20
122.206473785
 10
149.9810481366
 20
122.2027435741
 10
149.9912493189
 20
122.1985401713
 10
150.0013825726
 20
122.1938730981
 10
150.0114249436
 20
122.1887529265
 10
150.0213536837
 20
122.1831912549
 10
150.0311463021
 20
122.1772006818
 10
150.0407806163
 20
122.170794777
 10
150.0502348024
 20
122.1639880514
 10
150.0594874446
 20
122.1567959238
 10
150.0685175835
 20
122.1492346859
 10
150.0773047639
 20
122.1413214657
 10
150.0858290809
 20
122.1330741883
 10
150.0940712249
 20
122.1245115357
 10
150.1020125257
 20
122.1156529043
 10
150.1096349944
 20
122.1065183607
 10
150.1169213644
 20
122.0971285968
 10
150.1238551305
 20
122.0875048826
 10
150.1304205861
 20
122.0776690178
 10
150.1366028591
 20
122.0676432829
 10
150.1423879451
 20
122.0574503884
 10
150.1477627397
 20
122.0471134236
 10
150.1527150677
 20
122.036655804
 10
150.157233711
 20
122.0261012184
 10
150.161308434
 20
122.0154735753
 10
150.1649300063
 20
122.0047969488
 10
150.1680902243
 20
121.9940955237
 10
150.1707819295
 20
121.9833935413
 10
150.1729990245
 20
121.9727152438
 10
150.1747364872
 20
121.96208482
 10
150.1759903817
 20
121.9515263503
 10
150.1767578677
 20
121.9410637519
 10
150.1770372067
 20
121.9307207249
  0
LWPOLYLINE
  5
4CA
100
AcDbEntity
  8
0
100
AcDbPolyline
 62
253
  6
CONTINUOUS
 90
34
 70
0
 10
165.0293765455
 20
117.8597223542
 10
165.039627283
 20
117.8564795258
 10
165.0498609072
 20
117.8527549233
 10
165.0600542503
 20
117.8485563497
 10
165.0701856301
 20
117.843891998
 10
165.0802305411
 20
117.8387724074
 10
165.090161854
 20
117.8332110837
 10
165.0999556116
 20
117.8272215554
 10
165.1095911175
 20
117.8208165948
 10
165.1190467168
 20
117.8140105819
 10
165.1283010983
 20
117.8068188161
 10
165.1373331548
 20
117.7992576594
 10
165.1461222229
 20
117.7913443968
 10
165.1546483123
 20
117.7830970397
 10
165.16289219
 20
117.7745342053
 10
165.1708352308
 20
117.7656752389
 10
165.1784594547
 20
117.7565401841
 10
165.1857475609
 20
117.7471497603
 10
165.1926830196
 20
117.7375252595
 10
165.1992501112
 20
117.7276884931
 10
165.2054339573
 20
117.7176617435
 10
165.2112205425
 20
117.7074677319
 10
165.2165967542
 20
117.697129554
 10
165.2215504079
 20
117.6866706356
 10
165.2260702742
 20
117.6761146827
 10
165.2301461101
 20
117.6654856149
 10
165.2337686801
 20
117.6548075146
 10
165.2369297739
 20
117.6441045801
 10
165.2396222295
 20
117.6334010578
 10
165.2418399439
 20
117.6227212057
 10
165.2435778888
 20
117.6120892412
 10
165.2448321276
 20
117.6015292608
 10
165.2455998214
 20
117.5910651855
 10
165.2458792325
 20
117.5807207249
  0
LWPOLYLINE
  5
4CB
100
AcDbEntity
  8
0
100
AcDbPolyline
 62
7
  6
CONTINUOUS
 90
26
 70
0
 10
147.8361433184
 20
122.0071361163
 10
147.823259552
 20
122.0112358739
 10
147.8107395765
 20
122.0159756071
 10
147.7986180791
 20
122.0213187239
 10
147.7869786028
 20
122.0271983428
 10
147.7757923049
 20
122.033597481
 10
147.7649327703
 20
122.0405767102
 10
147.7543970457
 20
122.0481458022
 10
147.7442592837
 20
122.0562587032
 10
147.7345245082
 20
122.064916912
 10
147.7252245354
 20
122.0741011449
 10
147.716397328
 20
122.0837819489
 10
147.7080621409
 20
122.0939469397
 10
147.7002586217
 20
122.1045563615
 10
147.6930094066
 20
122.115586597
 10
147.686315274
 20
122.1270517766
 10
147.680199984
 20
122.13893769
 10
147.6747054462
 20
122.1511893008
 10
147.6698620881
 20
122.1637591997
 10
147.6657021332
 20
122.1765740515
 10
147.6622326735
 20
122.1896193535
 10
147.6594537333
 20
122.2029362156
 10
147.6573858199
 20
122.2165247849
 10
147.6560620329
 20
122.2302914139
 10
147.6555012062
 20
122.2441375436
 10
147.6554808431
 20
122.2473329465
  0
LINE
  5
4CC
100
AcDbEntity
  8
0
100
AcDbLine
 62
7
  6
CONTINUOUS
 10
166.8318929199
 20
116.8316513642
 11
166.848510607
 21
116.8259524726
  0
LWPOLYLINE
  5
4CD
100
AcDbEntity
  8
RACCORDO
100
AcDbPolyline
 62
253
  6
CONTINUOUS
 90
12
 70
0
 10
140.6092118357
 20
126.9720827655
 10
140.6340962038
 20
126.9634155226
 10
140.6573324645
 20
126.952363202
 10
140.6786793148
 20
126.9390076536
 10
140.6978988986
 20
126.9234127064
 10
140.7147996844
 20
126.9057154928
 10
140.7292221612
 20
126.8861198466
 10
140.740992442
 20
126.8647049447
 10
140.7499443634
 20
126.8416456793
 10
140.7559483545
 20
126.817299255
 10
140.7589005316
 20
126.7917744844
 10
140.7592115922
 20
126.7804050871
  0
LWPOLYLINE
  5
4CE
100
AcDbEntity
  8
0
100
AcDbPolyline
 62
7
  6
CONTINUOUS
 90
11
 70
0
 10
132.0525852581
 20
129.1634556879
 10
132.0842207754
 20
129.1519645048
 10
132.1143051249
 20
129.1361572796
 10
132.1421368621
 20
129.1162770443
 10
132.16699725
 20
129.0927807297
 10
132.1884217021
 20
129.0661047235
 10
132.2061126648
 20
129.0365384431
 10
132.2196708467
 20
129.0045290269
 10
132.2286693456
 20
128.9708893686
 10
132.2329025697
 20
128.9363959667
 10
132.2332476678
 20
128.9231728121
  0
LWPOLYLINE
  5
4CF
100
AcDbEntity
  8
0
100
AcDbPolyline
 62
7
  6
CONTINUOUS
 90
41
 70
0
 10
166.8478507521
 20
116.8261437536
 10
166.863814931
 20
116.8200308396
 10
166.8798356891
 20
116.8132932702
 10
166.895862794
 20
116.8059503973
 10
166.9117455486
 20
116.7980602766
 10
166.927458802
 20
116.7896259652
 10
166.9430277051
 20
116.780644406
 10
166.9583770133
 20
116.7711644835
 10
166.9734861722
 20
116.76119991
 10
166.9883757363
 20
116.7507369732
 10
167.0030321242
 20
116.7397834209
 10
167.0174785514
 20
116.7283210502
 10
167.0316918023
 20
116.716368064
 10
167.0455886496
 20
116.7039868186
 10
167.059168812
 20
116.6911693696
 10
167.0724325706
 20
116.6779236614
 10
167.0852975412
 20
116.664335884
 10
167.0977452781
 20
116.650422077
 10
167.1097942269
 20
116.6361662007
 10
167.1214173403
 20
116.6216063271
 10
167.1326154938
 20
116.6067436636
 10
167.1433878117
 20
116.5915770027
 10
167.1537046203
 20
116.576140794
 10
167.1635768943
 20
116.5604133105
 10
167.1729936588
 20
116.5444162791
 10
167.1818923152
 20
116.5282493301
 10
167.1902651737
 20
116.5119137777
 10
167.198119924
 20
116.4954083078
 10
167.2054170373
 20
116.4788286087
 10
167.2121448777
 20
116.4622010385
 10
167.2183150811
 20
116.4454992392
 10
167.2239230261
 20
116.4287398251
 10
167.2289761144
 20
116.4119011648
 10
167.2334669443
 20
116.3950048898
 10
167.2373686894
 20
116.3781325083
 10
167.2406774074
 20
116.3612744572
 10
167.2433970407
 20
116.3444402997
 10
167.2455125893
 20
116.3277402337
 10
167.2470190535
 20
116.311210992
 10
167.2479214331
 20
116.2948158417
 10
167.2482197281
 20
116.278554783
  0
LWPOLYLINE
  5
4D0
100
AcDbEntity
  8
RACCORDO
100
AcDbPolyline
 62
253
  6
CONTINUOUS
 90
13
 70
0
 10
139.0834594487
 20
127.271433967
 10
139.1054392705
 20
127.2629247848
 10
139.1275127248
 20
127.2521626655
 10
139.1493090033
 20
127.2393284523
 10
139.170461963
 20
127.2246377928
 10
139.190616293
 20
127.2083375044
 10
139.2094334794
 20
127.1907014226
 10
139.2265974536
 20
127.1720258348
 10
139.2418199531
 20
127.1526244538
 10
139.2548453567
 20
127.1328231278
 10
139.2654549118
 20
127.1129544492
 10
139.2734704268
 20
127.0933521721
 10
139.2787572991
 20
127.0743455506
  0
LWPOLYLINE
  5
4D1
100
AcDbEntity
  8
RACCORDO
100
AcDbPolyline
 62
253
  6
CONTINUOUS
 90
13
 70
0
 10
141.5083305793
 20
126.571433967
 10
141.5303104011
 20
126.5629247848
 10
141.5523838554
 20
126.5521626655
 10
141.5741801339
 20
126.5393284523
 10
141.5953330936
 20
126.5246377928
 10
141.6154874236
 20
126.5083375044
 10
141.63430461
 20
126.4907014226
 10
141.6514685842
 20
126.4720258348
 10
141.6666910837
 20
126.4526244538
 10
141.6797164873
 20
126.4328231278
 10
141.6903260424
 20
126.4129544492
 10
141.6983415574
 20
126.3933521721
 10
141.7036284297
 20
126.3743455506
  0
LWPOLYLINE
  5
4D2
100
AcDbEntity
  8
0
100
AcDbPolyline
 62
253
  6
CONTINUOUS
 90
8
 70
0
 10
147.1237915811
 20
124.7582376803
 10
147.1334677696
 20
124.7518679519
 10
147.1429597689
 20
124.7450934623
 10
147.1522461855
 20
124.7379294397
 10
147.1613058387
 20
124.7303921823
 10
147.1701180018
 20
124.7224989208
 10
147.1786626323
 20
124.7142676207
 10
147.1869204555
 20
124.7057168633
  0
LINE
  5
4D3
100
AcDbEntity
  8
DRAFT
100
AcDbLine
 62
7
  6
CONTINUOUS
 10
152.5874877737
 20
125.4567947857
 11
151.6656295546
 21
126.6447705502
  0
LWPOLYLINE
  5
4D4
100
AcDbEntity
  8
0
100
AcDbPolyline
 62
7
  6
CONTINUOUS
 90
41
 70
0
 10
167.2493534391
 20
116.2784403563
 10
167.2490556654
 20
116.2946716891
 10
167.2481541601
 20
116.3110386662
 10
167.2466489232
 20
116.3275412877
 10
167.2445350704
 20
116.3442162175
 10
167.241817486
 20
116.3610267916
 10
167.2385108228
 20
116.3778630185
 10
167.2346111106
 20
116.3947154313
 10
167.2301223197
 20
116.4115934967
 10
167.2250710142
 20
116.4284156233
 10
167.2194646069
 20
116.4451601371
 10
167.213295685
 20
116.4618487119
 10
167.206568574
 20
116.478464778
 10
167.19927166
 20
116.4950346675
 10
167.1914165569
 20
116.5115320482
 10
167.1830424309
 20
116.5278613535
 10
167.1741415384
 20
116.544024013
 10
167.1647216231
 20
116.5600185971
 10
167.1548450823
 20
116.5757452505
 10
167.144522754
 20
116.5911823969
 10
167.1337438002
 20
116.6063516126
 10
167.1225381046
 20
116.6212177717
 10
167.1109066868
 20
116.6357818635
 10
167.0988485272
 20
116.6500428988
 10
167.086390451
 20
116.6639627839
 10
167.0735138697
 20
116.6775577029
 10
167.0602373718
 20
116.6908114718
 10
167.0466435477
 20
116.7036374451
 10
167.0327320386
 20
116.7160276934
 10
167.0185032033
 20
116.7279901462
 10
167.0040407091
 20
116.7394619462
 10
166.9893677994
 20
116.75042482
 10
166.9744612307
 20
116.7608970411
 10
166.9593349399
 20
116.7708705728
 10
166.9439684016
 20
116.7803590778
 10
166.9283821412
 20
116.7893488935
 10
166.9126516728
 20
116.7977909948
 10
166.8967818005
 20
116.8056797766
 10
166.8807677202
 20
116.8130208441
 10
166.8646705333
 20
116.8197819883
 10
166.848510607
 20
116.8259524726
  0
LINE
  5
4D5
100
AcDbEntity
  8
0
100
AcDbLine
 62
7
  6
CONTINUOUS
 10
167.2482197281
 20
116.278554783
 11
167.2482197281
 21
78.3470384807
  0
LINE
  5
4D6
100
AcDbEntity
  8
0
100
AcDbLine
 62
7
  6
CONTINUOUS
 10
167.2493534391
 20
116.2784403563
 11
167.2493534391
 21
78.346498359
  0
LINE
  5
4D7
100
AcDbEntity
  8
0
100
AcDbLine
 62
7
  6
CONTINUOUS
 10
167.7417957499
 20
116.7085963868
 11
167.7417957499
 21
113.7763135513
  0
LINE
  5
4D8
100
AcDbEntity
  8
0
100
AcDbLine
 62
7
  6
CONTINUOUS
 10
167.7417957499
 20
81.7190140018
 11
167.7417957499
 21
78.7867311663
  0
LINE
  5
4D9
100
AcDbEntity
  8
0
100
AcDbLine
 62
7
  6
CONTINUOUS
 10
168.2342380607
 20
114.2190656593
 11
168.2342380607
 21
82.1466507314
  0
LWPOLYLINE
  5
4DA
100
AcDbEntity
  8
RACCORDO
100
AcDbPolyline
 62
7
  6
CONTINUOUS
 90
12
 70
0
 10
169.75994179
 20
120.6238778802
 10
169.7598517112
 20
120.6178711658
 10
169.7593636936
 20
120.6099696386
 10
169.7584674056
 20
120.6022536819
 10
169.7571626071
 20
120.5947528994
 10
169.7553755295
 20
120.5875017582
 10
169.7531133875
 20
120.5805277985
 10
169.7503813057
 20
120.5738680441
 10
169.7471035927
 20
120.5675756701
 10
169.7432617053
 20
120.5616930853
 10
169.738894439
 20
120.5562509496
 10
169.7340141697
 20
120.5512871052
  0
LWPOLYLINE
  5
4DB
100
AcDbEntity
  8
0
100
AcDbPolyline
 62
7
  6
CONTINUOUS
 90
18
 70
0
 10
167.2482197281
 20
78.3470384807
 10
167.2479214331
 20
78.3309496427
 10
167.2470190535
 20
78.3150754816
 10
167.2455125893
 20
78.2994159973
 10
167.2433970407
 20
78.2839373439
 10
167.2406774074
 20
78.2686733674
 10
167.2373686894
 20
78.2537256056
 10
167.2334669443
 20
78.2391058977
 10
167.2289761144
 20
78.2248024045
 10
167.2239230261
 20
78.2108811461
 10
167.2183150811
 20
78.1973594805
 10
167.2121448778
 20
78.1842200498
 10
167.2054170374
 20
78.1714768001
 10
167.1981199241
 20
78.1591100913
 10
167.1902651737
 20
78.1471395636
 10
167.1818923153
 20
78.1356380833
 10
167.1729936588
 20
78.1246087761
 10
167.1635768943
 20
78.1140485162
  0
LWPOLYLINE
  5
4DC
100
AcDbEntity
  8
0
100
AcDbPolyline
 62
253
  6
CONTINUOUS
 90
15
 70
0
 10
166.754891248
 20
76.8917271299
 10
166.7546793995
 20
76.8815244837
 10
166.7539758198
 20
76.8714851284
 10
166.7527821013
 20
76.8616318125
 10
166.7511009457
 20
76.8519868573
 10
166.748936161
 20
76.8425721236
 10
166.7462926555
 20
76.8334089607
 10
166.743176421
 20
76.8245181348
 10
166.7395945182
 20
76.8159197866
 10
166.7355550651
 20
76.807633401
 10
166.7310672148
 20
76.7996777518
 10
166.7261411377
 20
76.7920708661
 10
166.7207880008
 20
76.7848299844
 10
166.7150199363
 20
76.7779715128
 10
166.7088500148
 20
76.7715109887
  0
LWPOLYLINE
  5
4DD
100
AcDbEntity
  8
0
100
AcDbPolyline
 62
253
  6
CONTINUOUS
 90
12
 70
0
 10
166.7876613446
 20
76.9535952173
 10
166.7874250674
 20
76.9481629898
 10
166.7866289747
 20
76.9422481662
 10
166.7852729058
 20
76.9363588631
 10
166.7833599093
 20
76.9305083259
 10
166.7808942875
 20
76.9247097153
 10
166.7778815837
 20
76.9189760709
 10
166.7743285744
 20
76.9133202917
 10
166.7702432583
 20
76.9077551091
 10
166.7656348293
 20
76.902293043
 10
166.7605136523
 20
76.8969463749
 10
166.754891248
 20
76.8917271299
  0
LWPOLYLINE
  5
4DE
100
AcDbEntity
  8
0
100
AcDbPolyline
 62
253
  6
CONTINUOUS
 90
12
 70
0
 10
166.7876613446
 20
77.3011278027
 10
166.7874244605
 20
77.2956875367
 10
166.7866278312
 20
77.289773413
 10
166.7852713554
 20
77.2838848131
 10
166.7833580828
 20
77.2780349839
 10
166.7808923214
 20
77.2722370936
 10
166.7778796235
 20
77.2665041874
 10
166.7743267634
 20
77.2608491481
 10
166.7702417253
 20
77.2552846814
 10
166.7656336922
 20
77.2498232966
 10
166.7605130282
 20
77.2444772779
 10
166.754891248
 20
77.2392586466
  0
LWPOLYLINE
  5
4DF
100
AcDbEntity
  8
0
100
AcDbPolyline
 62
7
  6
CONTINUOUS
 90
43
 70
0
 10
130.8846075929
 20
126.9711744396
 10
130.8899732687
 20
126.9705162864
 10
130.8988690455
 20
126.9697156707
 10
130.9078322167
 20
126.9692577673
 10
130.9168351595
 20
126.9691439133
 10
130.9258763826
 20
126.9693704929
 10
130.9349441737
 20
126.9699225561
 10
130.9440249133
 20
126.970798883
 10
130.9531054281
 20
126.9719975231
 10
130.9621752563
 20
126.9735023097
 10
130.9712218172
 20
126.975311324
 10
130.9802329913
 20
126.9774221737
 10
130.9891995687
 20
126.9798179286
 10
130.9981100434
 20
126.9824960992
 10
131.0069533618
 20
126.9854539341
 10
131.0157215126
 20
126.9886741174
 10
131.0244040856
 20
126.9921537154
 10
131.0329910594
 20
126.9958896799
 10
131.0414754702
 20
126.9998645744
 10
131.0498479781
 20
127.0040751257
 10
131.0580995659
 20
127.0085180408
 10
131.0662241608
 20
127.0131759321
 10
131.0742134509
 20
127.018045269
 10
131.0820593916
 20
127.0231225578
 10
131.0897566617
 20
127.0283905577
 10
131.0972979312
 20
127.0338455425
 10
131.1046760951
 20
127.0394838572
 10
131.1118864775
 20
127.0452884594
 10
131.1189226847
 20
127.0512554724
 10
131.1257785224
 20
127.0573811168
 10
131.1324498917
 20
127.0636485791
 10
131.1389312952
 20
127.0700538664
 10
131.1452174245
 20
127.0765931091
 10
131.1513047245
 20
127.0832497521
 10
131.157188559
 20
127.0900197098
 10
131.1628644863
 20
127.096899059
 10
131.1683294979
 20
127.1038715524
 10
131.1735797903
 20
127.1109330332
 10
131.1786117689
 20
127.11807956
 10
131.1834229928
 20
127.1252952643
 10
131.1880106828
 20
127.1325721615
 10
131.1923718328
 20
127.1399101119
 10
131.1965040099
 20
127.1473050352
  0
LINE
  5
4E0
100
AcDbEntity
  8
0
100
AcDbLine
 62
7
  6
CONTINUOUS
 10
130.4421175488
 20
127.031140016
 11
130.8846440138
 21
126.9711697468
  0
LINE
  5
4E1
100
AcDbEntity
  8
0
100
AcDbLine
 62
253
  6
CONTINUOUS
 10
130.6914656215
 20
127.2157467907
 11
131.1965040099
 21
127.1473050352
  0
LWPOLYLINE
  5
4E2
100
AcDbEntity
  8
0
100
AcDbPolyline
 62
7
  6
CONTINUOUS
 90
10
 70
0
 10
130.4421175488
 20
127.031140016
 10
130.4380308332
 20
127.0317282455
 10
130.4339494735
 20
127.0323847182
 10
130.4298751089
 20
127.0331094087
 10
130.4258085762
 20
127.033902403
 10
130.4217524275
 20
127.0347634115
 10
130.4177108401
 20
127.0356916409
 10
130.413686295
 20
127.0366865001
 10
130.4096796678
 20
127.0377477206
 10
130.4063520391
 20
127.0386834598
  0
LWPOLYLINE
  5
4E3
100
AcDbEntity
  8
RACCORDO
100
AcDbPolyline
 62
253
  6
CONTINUOUS
 90
9
 70
0
 10
140.8771513622
 20
126.7536397125
 10
140.8543843794
 20
126.7580479504
 10
140.8324628459
 20
126.7599863503
 10
140.8117549968
 20
126.7594223512
 10
140.79260868
 20
126.7563654272
 10
140.775345513
 20
126.7508669279
 10
140.7602554802
 20
126.7430192166
 10
140.7475920622
 20
126.7329541181
 10
140.7374272905
 20
126.7206271402
  0
LWPOLYLINE
  5
4E4
100
AcDbEntity
  8
0
100
AcDbPolyline
 62
253
  6
CONTINUOUS
 90
13
 70
0
 10
145.0491484393
 20
125.4116482653
 10
145.0440977803
 20
125.4126503615
 10
145.0389056243
 20
125.4131091245
 10
145.0335837642
 20
125.4130235256
 10
145.0281442504
 20
125.4123937998
 10
145.0225992515
 20
125.4112213965
 10
145.0169611363
 20
125.4095089453
 10
145.0112417191
 20
125.407259919
 10
145.0054547068
 20
125.4044795936
 10
144.9996156517
 20
125.4011757641
 10
144.9937385898
 20
125.3973571189
 10
144.9878359224
 20
125.3930324568
 10
144.9819209174
 20
125.3882121304
  0
LWPOLYLINE
  5
4E5
100
AcDbEntity
  8
0
100
AcDbPolyline
 62
253
  6
CONTINUOUS
 90
13
 70
0
 10
149.465607411
 20
124.1367012279
 10
149.4608426501
 20
124.1376481754
 10
149.4556516103
 20
124.1381085389
 10
149.4503307638
 20
124.1380246821
 10
149.4448920751
 20
124.1373967936
 10
149.4393477735
 20
124.1362262853
 10
149.4337103258
 20
124.1345157891
 10
149.4279924081
 20
124.1322691512
 10
149.4222068777
 20
124.1294914233
 10
149.4163667437
 20
124.1261888515
 10
149.4104851381
 20
124.1223688616
 10
149.4045752862
 20
124.1180400434
 10
149.3986504767
 20
124.1132121304
  0
LWPOLYLINE
  5
4E6
100
AcDbEntity
  8
0
100
AcDbPolyline
 62
253
  6
CONTINUOUS
 90
13
 70
0
 10
129.9803206258
 20
129.7616446268
 10
129.975271065
 20
129.7626481754
 10
129.9700800251
 20
129.7631085389
 10
129.9647591787
 20
129.7630246821
 10
129.95932049
 20
129.7623967936
 10
129.9537761884
 20
129.7612262853
 10
129.9481387406
 20
129.7595157891
 10
129.9424208229
 20
129.7572691512
 10
129.9366352925
 20
129.7544914233
 10
129.9307951585
 20
129.7511888515
 10
129.9249135529
 20
129.7473688616
 10
129.9190037011
 20
129.7430400434
 10
129.9130788916
 20
129.7382121304
  0
LWPOLYLINE
  5
4E7
100
AcDbEntity
  8
0
100
AcDbPolyline
 62
7
  6
CONTINUOUS
 90
5
 70
0
 10
129.9816891997
 20
129.7612718863
 10
129.9516254482
 20
129.7679752535
 10
129.9208983884
 20
129.7709333526
 10
129.8899715278
 20
129.7700758985
 10
129.8591255788
 20
129.7653478796
  0
LINE
  5
4E8
100
AcDbEntity
  8
0
100
AcDbLine
 62
7
  6
CONTINUOUS
 10
145.0230756912
 20
125.4175464437
 11
145.0505371864
 21
125.4112701651
  0
LWPOLYLINE
  5
4E9
100
AcDbEntity
  8
0
100
AcDbPolyline
 62
7
  6
CONTINUOUS
 90
19
 70
0
 10
149.4672607848
 20
124.1362718863
 10
149.4542102205
 20
124.1396608053
 10
149.4408970687
 20
124.1423584625
 10
149.4273612711
 20
124.1443404127
 10
149.4136191277
 20
124.1455864483
 10
149.3997410429
 20
124.1460730468
 10
149.3858475031
 20
124.1457878374
 10
149.3719905975
 20
124.1447310117
 10
149.3582016756
 20
124.1429038758
 10
149.3445615258
 20
124.1403183202
 10
149.331108803
 20
124.13698592
 10
149.317873379
 20
124.1329171874
 10
149.3049121758
 20
124.1281333954
 10
149.292242776
 20
124.1226445143
 10
149.2799005517
 20
124.1164671331
 10
149.267956753
 20
124.1096416067
 10
149.2564259168
 20
124.1021827894
 10
149.2453288179
 20
124.0941072702
 10
149.2366186684
 20
124.087079207
  0
LINE
  5
4EA
100
AcDbEntity
  8
RACCORDO
100
AcDbLine
 62
7
  6
CONTINUOUS
 10
139.7047095212
 20
128.2189650669
 11
139.7126896933
 21
128.2168386335
  0
LINE
  5
4EB
100
AcDbEntity
  8
0
100
AcDbLine
 62
253
  6
CONTINUOUS
 10
145.0505312298
 20
125.4112718851
 11
145.0491484393
 21
125.4116482653
  0
LWPOLYLINE
  5
4EC
100
AcDbEntity
  8
0
100
AcDbPolyline
 62
253
  6
CONTINUOUS
 90
14
 70
0
 10
166.6069988691
 20
119.1884556879
 10
166.6056302952
 20
119.1888284284
 10
166.6005807344
 20
119.189831977
 10
166.5953896945
 20
119.1902923405
 10
166.5900688481
 20
119.1902084837
 10
166.5846301594
 20
119.1895805952
 10
166.5790858578
 20
119.1884100869
 10
166.57344841
 20
119.1866995907
 10
166.5677304923
 20
119.1844529528
 10
166.5619449619
 20
119.1816752249
 10
166.5561048279
 20
119.1783726531
 10
166.5502232224
 20
119.1745526632
 10
166.5443133705
 20
119.170223845
 10
166.538388561
 20
119.1653959321
  0
LWPOLYLINE
  5
4ED
100
AcDbEntity
  8
0
100
AcDbPolyline
 62
253
  6
CONTINUOUS
 90
14
 70
0
 10
151.5381568432
 20
123.5384556879
 10
151.5367882694
 20
123.5388284284
 10
151.5317387085
 20
123.539831977
 10
151.5265476687
 20
123.5402923405
 10
151.5212268222
 20
123.5402084837
 10
151.5157881336
 20
123.5395805952
 10
151.5102438319
 20
123.5384100869
 10
151.5046063842
 20
123.5366995907
 10
151.4988884665
 20
123.5344529528
 10
151.4931029361
 20
123.5316752249
 10
151.4872628021
 20
123.5283726531
 10
151.4813811965
 20
123.5245526632
 10
151.4754713446
 20
123.520223845
 10
151.4695465351
 20
123.5153959321
  0
LWPOLYLINE
  5
4EE
100
AcDbEntity
  8
0
100
AcDbPolyline
 62
253
  6
CONTINUOUS
 90
14
 70
0
 10
147.1214272839
 20
124.8134556879
 10
147.1200587101
 20
124.8138284284
 10
147.1150091492
 20
124.814831977
 10
147.1098181094
 20
124.8152923405
 10
147.1044972629
 20
124.8152084837
 10
147.0990585743
 20
124.8145805952
 10
147.0935142726
 20
124.8134100869
 10
147.0878768249
 20
124.8116995907
 10
147.0821589072
 20
124.8094529528
 10
147.0763733768
 20
124.8066752249
 10
147.0705332428
 20
124.8033726531
 10
147.0646516372
 20
124.7995526632
 10
147.0587417853
 20
124.795223845
 10
147.0528169758
 20
124.7903959321
  0
LWPOLYLINE
  5
4EF
100
AcDbEntity
  8
0
100
AcDbPolyline
 62
253
  6
CONTINUOUS
 90
14
 70
0
 10
132.0525852581
 20
129.1634556879
 10
132.0512166842
 20
129.1638284284
 10
132.0461671234
 20
129.164831977
 10
132.0409760835
 20
129.1652923405
 10
132.0356552371
 20
129.1652084837
 10
132.0302165484
 20
129.1645805952
 10
132.0246722468
 20
129.1634100869
 10
132.019034799
 20
129.1616995907
 10
132.0133168813
 20
129.1594529528
 10
132.0075313509
 20
129.1566752249
 10
132.0016912169
 20
129.1533726531
 10
131.9958096114
 20
129.1495526632
 10
131.9898997595
 20
129.145223845
 10
131.98397495
 20
129.1403959321
  0
LINE
  5
4F0
100
AcDbEntity
  8
0
100
AcDbLine
 62
253
  6
CONTINUOUS
 10
129.9816891997
 20
129.7612718863
 11
129.9803206258
 21
129.7616446268
  0
LINE
  5
4F1
100
AcDbEntity
  8
0
100
AcDbLine
 62
7
  6
CONTINUOUS
 10
161.1238812157
 20
120.4376624478
 11
159.132022787
 21
121.0126624478
  0
LINE
  5
4F2
100
AcDbEntity
  8
0
100
AcDbLine
 62
7
  6
CONTINUOUS
 10
157.0535618179
 20
121.6126624478
 11
155.0617033892
 21
122.1876624478
  0
LINE
  5
4F3
100
AcDbEntity
  8
0
100
AcDbLine
 62
7
  6
CONTINUOUS
 10
141.6383096305
 20
126.0626624478
 11
139.6464512018
 21
126.6376624478
  0
LINE
  5
4F4
100
AcDbEntity
  8
0
100
AcDbLine
 62
7
  6
CONTINUOUS
 10
137.5679902327
 20
127.2376624478
 11
135.576131804
 21
127.8126624478
  0
LINE
  5
4F5
100
AcDbEntity
  8
0
100
AcDbLine
 62
253
  6
CONTINUOUS
 10
129.9130788916
 20
129.7382121304
 11
131.98397495
 21
129.1403959321
  0
LINE
  5
4F6
100
AcDbEntity
  8
0
100
AcDbLine
 62
253
  6
CONTINUOUS
 10
144.9819209174
 20
125.3882121304
 11
147.0528169758
 21
124.7903959321
  0
LINE
  5
4F7
100
AcDbEntity
  8
0
100
AcDbLine
 62
253
  6
CONTINUOUS
 10
149.3986504767
 20
124.1132121304
 11
151.4695465351
 21
123.5153959321
  0
LINE
  5
4F8
100
AcDbEntity
  8
0
100
AcDbLine
 62
253
  6
CONTINUOUS
 10
164.4674925026
 20
119.7632121304
 11
166.538388561
 21
119.1653959321
  0
LINE
  5
4F9
100
AcDbEntity
  8
0
100
AcDbLine
 62
7
  6
CONTINUOUS
 10
129.9816891997
 20
129.7612718863
 11
132.0525852581
 21
129.1634556879
  0
LINE
  5
4FA
100
AcDbEntity
  8
0
100
AcDbLine
 62
7
  6
CONTINUOUS
 10
145.0505312255
 20
125.4112718863
 11
147.1214272839
 21
124.8134556879
  0
LINE
  5
4FB
100
AcDbEntity
  8
0
100
AcDbLine
 62
7
  6
CONTINUOUS
 10
149.4672607848
 20
124.1362718863
 11
151.5381568432
 21
123.5384556879
  0
LINE
  5
4FC
100
AcDbEntity
  8
0
100
AcDbLine
 62
7
  6
CONTINUOUS
 10
164.5361028107
 20
119.7862718863
 11
166.6069988691
 21
119.1884556879
  0
LINE
  5
4FD
100
AcDbEntity
  8
RACCORDO
100
AcDbLine
 62
253
  6
CONTINUOUS
 10
139.6803584683
 20
127.2402196364
 11
140.6092118357
 21
126.9720827655
  0
LINE
  5
4FE
100
AcDbEntity
  8
RACCORDO
100
AcDbLine
 62
253
  6
CONTINUOUS
 10
142.1052295989
 20
126.5402196364
 11
142.173284872
 21
126.5205737712
  0
LINE
  5
4FF
100
AcDbEntity
  8
RACCORDO
100
AcDbLine
 62
253
  6
CONTINUOUS
 10
139.7527947327
 20
127.4694466912
 11
140.6816481001
 21
127.2013098203
  0
LINE
  5
500
100
AcDbEntity
  8
RACCORDO
100
AcDbLine
 62
253
  6
CONTINUOUS
 10
142.1776658633
 20
126.7694466912
 11
142.391817469
 21
126.7076264476
  0
LINE
  5
501
100
AcDbEntity
  8
RACCORDO
100
AcDbLine
 62
7
  6
CONTINUOUS
 10
138.7859394262
 20
127.9592071869
 11
142.5758547195
 21
126.8651528795
  0
LINE
  5
502
100
AcDbEntity
  8
RACCORDO
100
AcDbLine
 62
253
  6
CONTINUOUS
 10
143.0049920141
 20
127.2324723575
 11
139.6580871737
 21
128.1986405628
  0
LINE
  5
503
100
AcDbEntity
  8
RACCORDO
100
AcDbLine
 62
7
  6
CONTINUOUS
 10
143.0346615544
 20
127.2578679598
 11
139.7126845398
 21
128.2168401216
  0
LINE
  5
504
100
AcDbEntity
  8
0
100
AcDbLine
 62
7
  6
CONTINUOUS
 10
139.9921572078
 20
128.650232591
 11
143.4837779337
 21
127.642288508
  0
LWPOLYLINE
  5
505
100
AcDbEntity
  8
0
100
AcDbPolyline
 62
253
  6
CONTINUOUS
 90
8
 70
0
 10
131.98397495
 20
129.1403959321
 10
131.9942931327
 20
129.137211513
 10
132.0045907928
 20
129.1335423673
 10
132.0148446134
 20
129.1293961685
 10
132.0250327784
 20
129.1247809943
 10
132.03513064
 20
129.1197072603
 10
132.0451109238
 20
129.1141883467
 10
132.0549495552
 20
129.1082376803
  0
LWPOLYLINE
  5
506
100
AcDbEntity
  8
0
100
AcDbPolyline
 62
253
  6
CONTINUOUS
 90
8
 70
0
 10
147.0528169758
 20
124.7903959321
 10
147.0631351585
 20
124.787211513
 10
147.0734328186
 20
124.7835423673
 10
147.0836866392
 20
124.7793961685
 10
147.0938748042
 20
124.7747809943
 10
147.1039726659
 20
124.7697072603
 10
147.1139529496
 20
124.7641883467
 10
147.1237915811
 20
124.7582376803
  0
LWPOLYLINE
  5
507
100
AcDbEntity
  8
0
100
AcDbPolyline
 62
253
  6
CONTINUOUS
 90
34
 70
0
 10
151.4695465351
 20
123.5153959321
 10
151.4798647178
 20
123.512211513
 10
151.4901623779
 20
123.5085423673
 10
151.5004161985
 20
123.5043961685
 10
151.5106043635
 20
123.4997809943
 10
151.5207022252
 20
123.4947072603
 10
151.5306825089
 20
123.4891883467
 10
151.5405211404
 20
123.4832376803
 10
151.5501973289
 20
123.4768679519
 10
151.5596893282
 20
123.4700934623
 10
151.5689757448
 20
123.4629294397
 10
151.578035398
 20
123.4553921823
 10
151.5868475611
 20
123.4474989208
 10
151.5953921916
 20
123.4392676207
 10
151.6036500148
 20
123.4307168633
 10
151.6116023737
 20
123.4218659667
 10
151.6192312674
 20
123.412734956
 10
151.6265193842
 20
123.4033445414
 10
151.6334501944
 20
123.393716015
 10
151.640007989
 20
123.3838711971
 10
151.6461779104
 20
123.3738323884
 10
151.6519459749
 20
123.3636223374
 10
151.6572991118
 20
123.3532641762
 10
151.6622251889
 20
123.3427813757
 10
151.6667130393
 20
123.3321976961
 10
151.6707524924
 20
123.3215371199
 10
151.6743343952
 20
123.3108238008
 10
151.6774506296
 20
123.3000820169
 10
151.6800941352
 20
123.2893361027
 10
151.6822589199
 20
123.2786104121
 10
151.6839400754
 20
123.2679292666
 10
151.685133794
 20
123.2573168741
 10
151.6858373736
 20
123.2467972743
 10
151.6860492221
 20
123.2363943028
  0
LWPOLYLINE
  5
508
100
AcDbEntity
  8
0
100
AcDbPolyline
 62
253
  6
CONTINUOUS
 90
34
 70
0
 10
166.538388561
 20
119.1653959321
 10
166.5487067436
 20
119.162211513
 10
166.5590044038
 20
119.1585423673
 10
166.5692582244
 20
119.1543961685
 10
166.5794463893
 20
119.1497809943
 10
166.589544251
 20
119.1447072603
 10
166.5995245348
 20
119.1391883467
 10
166.6093631662
 20
119.1332376803
 10
166.6190393548
 20
119.1268679519
 10
166.628531354
 20
119.1200934623
 10
166.6378177706
 20
119.1129294397
 10
166.6468774238
 20
119.1053921823
 10
166.655689587
 20
119.0974989208
 10
166.6642342175
 20
119.0892676207
 10
166.6724920406
 20
119.0807168633
 10
166.6804443995
 20
119.0718659667
 10
166.6880732932
 20
119.062734956
 10
166.69536141
 20
119.0533445414
 10
166.7022922203
 20
119.043716015
 10
166.7088500148
 20
119.0338711971
 10
166.7150199363
 20
119.0238323884
 10
166.7207880008
 20
119.0136223374
 10
166.7261411377
 20
119.0032641762
 10
166.7310672148
 20
118.9927813757
 10
166.7355550651
 20
118.9821976961
 10
166.7395945182
 20
118.9715371199
 10
166.743176421
 20
118.9608238008
 10
166.7462926555
 20
118.9500820169
 10
166.748936161
 20
118.9393361027
 10
166.7511009457
 20
118.9286104121
 10
166.7527821013
 20
118.9179292666
 10
166.7539758198
 20
118.9073168741
 10
166.7546793995
 20
118.8967972743
 10
166.754891248
 20
118.8863943028
  0
LWPOLYLINE
  5
509
100
AcDbEntity
  8
0
100
AcDbPolyline
 62
7
  6
CONTINUOUS
 90
34
 70
0
 10
166.1664474639
 20
118.8426997786
 10
166.1767489689
 20
118.8394806431
 10
166.1870272767
 20
118.8357784834
 10
166.1972590329
 20
118.8316016207
 10
166.2074209342
 20
118.8269594037
 10
166.2174899564
 20
118.821862342
 10
166.2274434069
 20
118.816322083
 10
166.2372586978
 20
118.8103511384
 10
166.2469135302
 20
118.8039629766
 10
166.2563861207
 20
118.7971721475
 10
166.2656549854
 20
118.7899940095
 10
166.2746990764
 20
118.7824447778
 10
166.2834979637
 20
118.774541609
 10
166.2920317046
 20
118.7663023953
 10
166.3002809314
 20
118.757745769
 10
166.308226984
 20
118.7488911437
 10
166.3158518676
 20
118.7397585814
 10
166.3231382887
 20
118.7303687517
 10
166.330069738
 20
118.7207429297
 10
166.336630535
 20
118.7109029387
 10
166.3428058131
 20
118.7008710643
 10
166.34858155
 20
118.6906700095
 10
166.3539446992
 20
118.6803229141
 10
166.3588831235
 20
118.6698532261
 10
166.3633855737
 20
118.6592846131
 10
166.3674419025
 20
118.6486410601
 10
166.3710429495
 20
118.6379466997
 10
166.3741804673
 20
118.6272256818
 10
166.3768474147
 20
118.616502348
 10
166.3790377938
 20
118.605801024
 10
166.3807465268
 20
118.5951458498
 10
166.3819697498
 20
118.5845609656
 10
166.3827048214
 20
118.5740704572
 10
166.3829501508
 20
118.5636981493
  0
LWPOLYLINE
  5
50A
100
AcDbEntity
  8
0
100
AcDbPolyline
 62
7
  6
CONTINUOUS
 90
25
 70
0
 10
151.5381568432
 20
123.5384556879
 10
151.5511763099
 20
123.5343086325
 10
151.5639324747
 20
123.5294635583
 10
151.5763826726
 20
123.5239404939
 10
151.5884670922
 20
123.5177729336
 10
151.6001672079
 20
123.5109786
 10
151.6114997904
 20
123.5035493139
 10
151.6224330536
 20
123.4955014363
 10
151.6329190587
 20
123.4868669441
 10
151.6429441336
 20
123.477652835
 10
151.6524664346
 20
123.4678916883
 10
151.6614543765
 20
123.4576112982
 10
151.6699037491
 20
123.4468065548
 10
151.6777881777
 20
123.4354932495
 10
151.6850603441
 20
123.4237218921
 10
151.6916842499
 20
123.4115384431
 10
151.697631998
 20
123.3989846453
 10
151.7028801039
 20
123.3861016538
 10
151.7074068685
 20
123.3729359494
 10
151.7111956638
 20
123.3595309632
 10
151.7142327176
 20
123.3459317234
 10
151.7165073203
 20
123.3321847463
 10
151.7180127358
 20
123.3183293696
 10
151.7187436966
 20
123.3044120603
 10
151.7188193186
 20
123.2982674303
  0
LWPOLYLINE
  5
50B
100
AcDbEntity
  8
0
100
AcDbPolyline
 62
7
  6
CONTINUOUS
 90
25
 70
0
 10
166.6069988691
 20
119.1884556879
 10
166.6200183358
 20
119.1843086325
 10
166.6327745006
 20
119.1794635583
 10
166.6452246984
 20
119.1739404939
 10
166.6573091181
 20
119.1677729336
 10
166.6690092337
 20
119.1609786
 10
166.6803418163
 20
119.1535493139
 10
166.6912750794
 20
119.1455014363
 10
166.7017610845
 20
119.1368669441
 10
166.7117861594
 20
119.127652835
 10
166.7213084605
 20
119.1178916883
 10
166.7302964023
 20
119.1076112982
 10
166.7387457749
 20
119.0968065548
 10
166.7466302036
 20
119.0854932495
 10
166.7539023699
 20
119.0737218921
 10
166.7605262758
 20
119.0615384431
 10
166.7664740239
 20
119.0489846453
 10
166.7717221298
 20
119.0361016538
 10
166.7762488943
 20
119.0229359494
 10
166.7800376896
 20
119.0095309632
 10
166.7830747435
 20
118.9959317234
 10
166.7853493462
 20
118.9821847463
 10
166.7868547616
 20
118.9683293696
 10
166.7875857224
 20
118.9544120603
 10
166.7876613444
 20
118.9482674303
  0
LWPOLYLINE
  5
50C
100
AcDbEntity
  8
RACCORDO
100
AcDbPolyline
 62
253
  6
CONTINUOUS
 90
16
 70
0
 10
140.6816481001
 20
127.2013098203
 10
140.7237168624
 20
127.1870464987
 10
140.7622905222
 20
127.1698920562
 10
140.7973690794
 20
127.1498464928
 10
140.8292578246
 20
127.1266949004
 10
140.8576514672
 20
127.100652187
 10
140.8816341355
 20
127.0723630771
 10
140.901115576
 20
127.0417368766
 10
140.916186042
 20
127.0088642794
 10
140.9262004219
 20
126.9746620916
 10
140.9310054303
 20
126.9390552282
 10
140.9307543525
 20
126.9021187742
 10
140.9252619324
 20
126.8649947895
 10
140.914466418
 20
126.8280639611
 10
140.8984295612
 20
126.7909456021
 10
140.8771513622
 20
126.7536397125
  0
LWPOLYLINE
  5
50D
100
AcDbEntity
  8
0
100
AcDbPolyline
 62
7
  6
CONTINUOUS
 90
11
 70
0
 10
147.1214272839
 20
124.8134556879
 10
147.1530628013
 20
124.8019645048
 10
147.1831471507
 20
124.7861572796
 10
147.210978888
 20
124.7662770443
 10
147.2358392759
 20
124.7427807297
 10
147.2572637279
 20
124.7161047235
 10
147.2749546906
 20
124.6865384431
 10
147.2885128726
 20
124.6545290269
 10
147.2975113714
 20
124.6208893686
 10
147.3017445955
 20
124.5863959667
 10
147.3020896937
 20
124.5731728121
  0
LINE
  5
50E
100
AcDbEntity
  8
0
100
AcDbLine
 62
7
  6
CONTINUOUS
 10
157.3936790886
 20
124.1772822612
 11
157.3937425579
 21
124.1771903904
  0
LINE
  5
50F
100
AcDbEntity
  8
RACCORDO
100
AcDbLine
 62
253
  6
CONTINUOUS
 10
169.7340141697
 20
120.6264835326
 11
169.7340141697
 21
120.5512871052
  0
LINE
  5
510
100
AcDbEntity
  8
RACCORDO
100
AcDbLine
 62
253
  6
CONTINUOUS
 10
169.7340141697
 20
86.2666137284
 11
169.7340141697
 21
85.3090194777
  0
LINE
  5
511
100
AcDbEntity
  8
RACCORDO
100
AcDbLine
 62
7
  6
CONTINUOUS
 10
169.7599430305
 20
120.6498719842
 11
169.7599430305
 21
120.6240410451
  0
LINE
  5
512
100
AcDbEntity
  8
RACCORDO
100
AcDbLine
 62
7
  6
CONTINUOUS
 10
169.7599430305
 20
86.2923445005
 11
169.7599430305
 21
85.3582618337
  0
LINE
  5
513
100
AcDbEntity
  8
0
100
AcDbLine
 62
253
  6
CONTINUOUS
 10
170.333009514
 20
121.7586598089
 11
170.333009514
 21
121.1667916358
  0
LINE
  5
514
100
AcDbEntity
  8
0
100
AcDbLine
 62
253
  6
CONTINUOUS
 10
170.333009514
 20
84.9669297576
 11
170.333009514
 21
84.3750615844
  0
LINE
  5
515
100
AcDbEntity
  8
0
100
AcDbLine
 62
7
  6
CONTINUOUS
 10
170.3956996604
 20
121.9382848549
 11
170.3956996604
 21
121.2879940408
  0
LINE
  5
516
100
AcDbEntity
  8
0
100
AcDbLine
 62
7
  6
CONTINUOUS
 10
170.3956996604
 20
85.0881321626
 11
170.3956996604
 21
84.4378413486
  0
LWPOLYLINE
  5
517
100
AcDbEntity
  8
0
100
AcDbPolyline
 62
7
  6
CONTINUOUS
 90
14
 70
0
 10
170.3956984199
 20
121.2879872679
 10
170.3955009513
 20
121.2809465295
 10
170.3945421572
 20
121.2710067037
 10
170.3927914343
 20
121.2610780447
 10
170.3902570915
 20
121.2512076731
 10
170.3869354038
 20
121.2413958662
 10
170.3828300961
 20
121.2316423467
 10
170.377960652
 20
121.2219934045
 10
170.3723234393
 20
121.2124495365
 10
170.3659220901
 20
121.2030102457
 10
170.3587869849
 20
121.1937203304
 10
170.3509282506
 20
121.1845947234
 10
170.3423357603
 20
121.1756184918
 10
170.333009514
 20
121.1667916358
  0
LWPOLYLINE
  5
518
100
AcDbEntity
  8
0
100
AcDbPolyline
 62
7
  6
CONTINUOUS
 90
14
 70
0
 10
170.3956984199
 20
85.0881253897
 10
170.3955009513
 20
85.0810846513
 10
170.3945421572
 20
85.0711448256
 10
170.3927914343
 20
85.0612161665
 10
170.3902570915
 20
85.0513457949
 10
170.3869354038
 20
85.041533988
 10
170.3828300961
 20
85.0317804686
 10
170.377960652
 20
85.0221315263
 10
170.3723234393
 20
85.0125876583
 10
170.3659220901
 20
85.0031483675
 10
170.3587869849
 20
84.9938584522
 10
170.3509282506
 20
84.9847328452
 10
170.3423357603
 20
84.9757566136
 10
170.333009514
 20
84.9669297576
  0
LWPOLYLINE
  5
519
100
AcDbEntity
  8
RACCORDO
100
AcDbPolyline
 62
7
  6
CONTINUOUS
 90
11
 70
0
 10
169.7599466013
 20
85.3582558955
 10
169.7597253363
 20
85.3535973315
 10
169.7589680608
 20
85.3484174868
 10
169.7576721729
 20
85.343242005
 10
169.7558422673
 20
85.3381155621
 10
169.7534666711
 20
85.3330329241
 10
169.7505570573
 20
85.3279993251
 10
169.7471530389
 20
85.3230751431
 10
169.7432678204
 20
85.3182805043
 10
169.7388881973
 20
85.3135952824
 10
169.7340141697
 20
85.3090194777
  0
LWPOLYLINE
  5
51A
100
AcDbEntity
  8
0
100
AcDbPolyline
 62
253
  6
CONTINUOUS
 90
32
 70
0
 10
166.754891248
 20
77.2392586466
 10
166.7575845247
 20
77.2508130602
 10
166.759781429
 20
77.2624810355
 10
166.7614770026
 20
77.2742362375
 10
166.7626674179
 20
77.2860521278
 10
166.7633499892
 20
77.2979020443
 10
166.7635231759
 20
77.3097592612
 10
166.7631865836
 20
77.3215970316
 10
166.762340969
 20
77.3333886217
 10
166.7609882418
 20
77.3451073911
 10
166.7591314577
 20
77.3567268801
 10
166.7567748073
 20
77.3682208735
 10
166.7539236094
 20
77.3795634337
 10
166.7505842989
 20
77.3907289614
 10
166.7467644133
 20
77.4016922543
 10
166.7424725744
 20
77.4124285681
 10
166.7377184692
 20
77.4229136702
 10
166.7325128281
 20
77.4331238958
 10
166.7268673997
 20
77.4430362013
 10
166.7207949271
 20
77.4526282128
 10
166.7143091151
 20
77.4618782824
 10
166.7074245978
 20
77.4707655378
 10
166.700156904
 20
77.4792699297
 10
166.6925224448
 20
77.4873722513
 10
166.6845384758
 20
77.4950541915
 10
166.6762230353
 20
77.5022984019
 10
166.6675948795
 20
77.50908855
 10
166.6586734622
 20
77.5154093287
 10
166.6494786825
 20
77.5212466136
 10
166.640031517
 20
77.5265870629
 10
166.6303540097
 20
77.5314182858
 10
166.6204682945
 20
77.5357293933
  0
LWPOLYLINE
  5
51B
100
AcDbEntity
  8
RACCORDO
100
AcDbPolyline
 62
253
  6
CONTINUOUS
 90
46
 70
0
 10
162.1270279899
 20
85.216237056
 10
162.117816103
 20
85.2094977525
 10
162.108112817
 20
85.2029195673
 10
162.0979295632
 20
85.1965102499
 10
162.0872783384
 20
85.1902773512
 10
162.0761716906
 20
85.1842282139
 10
162.0646227043
 20
85.1783699646
 10
162.0526449853
 20
85.1727095046
 10
162.0402526442
 20
85.1672535025
 10
162.0274602803
 20
85.162008386
 10
162.0142829641
 20
85.1569803342
 10
162.0007362196
 20
85.1521752705
 10
161.986836006
 20
85.1475988558
 10
161.9725986989
 20
85.1432564815
 10
161.958041071
 20
85.1391532632
 10
161.9431802724
 20
85.1352940348
 10
161.9280338105
 20
85.1316833429
 10
161.912619529
 20
85.1283254412
 10
161.8969555872
 20
85.1252242856
 10
161.8810604386
 20
85.1223835294
 10
161.864952809
 20
85.1198065193
 10
161.8486516745
 20
85.1174962913
 10
161.8321762393
 20
85.115455567
 10
161.8155459128
 20
85.1136867505
 10
161.7987802869
 20
85.1121919257
 10
161.7818991129
 20
85.1109728536
 10
161.7649222783
 20
85.1100309703
 10
161.7478697832
 20
85.1093673855
 10
161.7307617169
 20
85.108982881
 10
161.7136182341
 20
85.1088779096
 10
161.6964595313
 20
85.1090525952
 10
161.6793058229
 20
85.1095067318
 10
161.6621773174
 20
85.1102397845
 10
161.6450941935
 20
85.1112508896
 10
161.6280765768
 20
85.1125388561
 10
161.6111445153
 20
85.1141021666
 10
161.5943179564
 20
85.1159389793
 10
161.5776167232
 20
85.1180471304
 10
161.5610604913
 20
85.1204241362
 10
161.5446687652
 20
85.1230671965
 10
161.5284608557
 20
85.1259731975
 10
161.5124558571
 20
85.1291387156
 10
161.4966726248
 20
85.1325600218
 10
161.4811297525
 20
85.1362330852
 10
161.4658455513
 20
85.1401535789
 10
161.450838027
 20
85.1443168841
  0
LWPOLYLINE
  5
51C
100
AcDbEntity
  8
RACCORDO
100
AcDbPolyline
 62
253
  6
CONTINUOUS
 90
12
 70
0
 10
139.5838329078
 20
128.2027378749
 10
139.5103292084
 20
128.203506236
 10
139.4375760754
 20
128.200945646
 10
139.3649344486
 20
128.1949800562
 10
139.2930433882
 20
128.1856855153
 10
139.2238200754
 20
128.17329017
 10
139.1573415615
 20
128.1576955607
 10
139.0935307953
 20
128.1390001469
 10
139.0340738035
 20
128.1177274545
 10
138.9795325951
 20
128.0940519918
 10
138.9293451613
 20
128.0677992505
 10
138.883511502
 20
128.0389692304
  0
LWPOLYLINE
  5
51D
100
AcDbEntity
  8
RACCORDO
100
AcDbPolyline
 62
7
  6
CONTINUOUS
 90
9
 70
0
 10
139.590712393
 20
128.2286856916
 10
139.5079541597
 20
128.2295595616
 10
139.4252597783
 20
128.2266638141
 10
139.343245518
 20
128.2199957886
 10
139.2623565421
 20
128.2095506771
 10
139.1828217139
 20
128.1952695942
 10
139.1050272358
 20
128.1770729799
 10
139.0296874734
 20
128.1549469406
 10
138.9573730356
 20
128.128854778
  0
LINE
  5
51E
100
AcDbEntity
  8
RACCORDO
100
AcDbLine
 62
253
  6
CONTINUOUS
 10
139.6580871737
 20
128.1986405628
 11
139.5838329078
 21
128.2027378749
  0
LINE
  5
51F
100
AcDbEntity
  8
RACCORDO
100
AcDbLine
 62
7
  6
CONTINUOUS
 10
139.6730176948
 20
128.2240610086
 11
139.590712393
 21
128.2286856916
  0
LWPOLYLINE
  5
520
100
AcDbEntity
  8
RACCORDO
100
AcDbPolyline
 62
7
  6
CONTINUOUS
 90
5
 70
0
 10
139.6730165524
 20
128.224061099
 10
139.6792400638
 20
128.2234698258
 10
139.6877883398
 20
128.2223356263
 10
139.6962825145
 20
128.2208334548
 10
139.7047095212
 20
128.2189650669
  0
LWPOLYLINE
  5
521
100
AcDbEntity
  8
0
100
AcDbPolyline
 62
7
  6
CONTINUOUS
 90
6
 70
0
 10
145.0219662618
 20
128.8876020191
 10
145.0346846388
 20
128.8861810259
 10
145.0479235719
 20
128.8840722377
 10
145.0616644431
 20
128.881257903
 10
145.0759352322
 20
128.8776831432
 10
145.0813930236
 20
128.8761495445
  0
LINE
  5
522
100
AcDbEntity
  8
0
100
AcDbLine
 62
7
  6
CONTINUOUS
 10
151.5321588764
 20
127.8135592296
 11
151.0347175769
 21
127.872957364
  0
LINE
  5
523
100
AcDbEntity
  8
RACCORDO
100
AcDbLine
 62
253
  6
CONTINUOUS
 10
139.7073479841
 20
128.2179694887
 11
139.7126850865
 21
128.2168399638
  0
LWPOLYLINE
  5
524
100
AcDbEntity
  8
RACCORDO
100
AcDbPolyline
 62
253
  6
CONTINUOUS
 90
10
 70
0
 10
145.7565754222
 20
128.885610885
 10
145.6893215766
 20
128.9027958292
 10
145.6225196802
 20
128.9138695354
 10
145.556677943
 20
128.9187477707
 10
145.4922972657
 20
128.917393436
 10
145.4298674374
 20
128.9098168473
 10
145.3698634088
 20
128.8960756603
 10
145.3127416681
 20
128.8762744299
 10
145.2589367686
 20
128.8505638122
 10
145.2309260716
 20
128.8329871081
  0
LWPOLYLINE
  5
525
100
AcDbEntity
  8
0
100
AcDbPolyline
 62
7
  6
CONTINUOUS
 90
18
 70
0
 10
160.7720693294
 20
125.0514869952
 10
160.7612501011
 20
125.0542653278
 10
160.7463779891
 20
125.057001194
 10
160.7312175548
 20
125.0585624725
 10
160.7157603131
 20
125.0589550226
 10
160.7000482635
 20
125.0581781088
 10
160.6840717041
 20
125.0562270643
 10
160.6678403368
 20
125.0531065561
 10
160.6514252674
 20
125.0488298495
 10
160.6348332908
 20
125.0433945841
 10
160.6180576121
 20
125.0368031205
 10
160.6011489513
 20
125.0290758058
 10
160.5841012837
 20
125.0202062733
 10
160.566920634
 20
125.0102008897
 10
160.549675797
 20
124.9990991034
 10
160.5323897042
 20
124.9869140637
 10
160.5150394242
 20
124.9736326213
 10
160.4976249568
 20
124.9592547762
  0
LWPOLYLINE
  5
526
100
AcDbEntity
  8
0
100
AcDbPolyline
 62
7
  6
CONTINUOUS
 90
18
 70
0
 10
141.2864977443
 20
130.6764869952
 10
141.275678516
 20
130.6792653278
 10
141.260806404
 20
130.682001194
 10
141.2456459696
 20
130.6835624725
 10
141.2301887279
 20
130.6839550226
 10
141.2144766784
 20
130.6831781088
 10
141.198500119
 20
130.6812270643
 10
141.1822687517
 20
130.6781065561
 10
141.1658536822
 20
130.6738298495
 10
141.1492617057
 20
130.6683945841
 10
141.1324860269
 20
130.6618031205
 10
141.1155773662
 20
130.6540758058
 10
141.0985296985
 20
130.6452062733
 10
141.0813490488
 20
130.6352008897
 10
141.0641042119
 20
130.6240991034
 10
141.0468181191
 20
130.6119140637
 10
141.029467839
 20
130.5986326213
 10
141.0120533716
 20
130.5842547762
  0
LINE
  5
527
100
AcDbEntity
  8
0
100
AcDbLine
 62
253
  6
CONTINUOUS
 10
164.1703339899
 20
122.1352955251
 11
163.3753356485
 21
122.3647917783
  0
LINE
  5
528
100
AcDbEntity
  8
0
100
AcDbLine
 62
253
  6
CONTINUOUS
 10
157.313157822
 20
124.1147917783
 11
156.5181594807
 21
124.3442880315
  0
LINE
  5
529
100
AcDbEntity
  8
0
100
AcDbLine
 62
7
  6
CONTINUOUS
 10
164.2500479589
 20
122.1980157759
 11
163.56989296
 21
122.3943596117
  0
LINE
  5
52A
100
AcDbEntity
  8
0
100
AcDbLine
 62
7
  6
CONTINUOUS
 10
157.3930387781
 20
124.1774638241
 11
156.7128835568
 21
124.3738077241
  0
LINE
  5
52B
100
AcDbEntity
  8
0
100
AcDbLine
 62
7
  6
CONTINUOUS
 10
140.2727796672
 20
129.3932587696
 11
144.2036956329
 21
128.2585010742
  0
LINE
  5
52C
100
AcDbEntity
  8
0
100
AcDbLine
 62
7
  6
CONTINUOUS
 10
159.7583512523
 20
123.7682587696
 11
164.4668188016
 21
122.4090412661
  0
LINE
  5
52D
100
AcDbEntity
  8
RACCORDO
100
AcDbLine
 62
253
  6
CONTINUOUS
 10
136.2577261023
 20
130.8543025201
 11
136.2424193597
 21
130.858721196
  0
LINE
  5
52E
100
AcDbEntity
  8
DRAFT
100
AcDbLine
 62
7
  6
CONTINUOUS
 10
151.6656295546
 20
126.6447705502
 11
150.6953850532
 21
126.9248560122
  0
LINE
  5
52F
100
AcDbEntity
  8
0
100
AcDbLine
 62
7
  6
CONTINUOUS
 10
165.0331256557
 20
122.8937708403
 11
160.9947160911
 21
124.059559265
  0
LINE
  5
530
100
AcDbEntity
  8
0
100
AcDbLine
 62
7
  6
CONTINUOUS
 10
144.770002487
 20
128.7432306484
 11
141.5091445059
 21
129.684559265
  0
LINE
  5
531
100
AcDbEntity
  8
0
100
AcDbLine
 62
253
  6
CONTINUOUS
 10
145.6746856279
 20
128.619153067
 11
144.8897640634
 21
128.8457404053
  0
LINE
  5
532
100
AcDbEntity
  8
0
100
AcDbLine
 62
253
  6
CONTINUOUS
 10
138.8275862369
 20
130.5957404053
 11
138.0426646724
 21
130.8223277435
  0
LINE
  5
533
100
AcDbEntity
  8
0
100
AcDbLine
 62
7
  6
CONTINUOUS
 10
145.7569833955
 20
128.6811274394
 11
145.0817367348
 21
128.87605436
  0
LINE
  5
534
100
AcDbEntity
  8
0
100
AcDbLine
 62
7
  6
CONTINUOUS
 10
138.9100556858
 20
130.6576652175
 11
138.2348090221
 21
130.852592139
  0
LINE
  5
535
100
AcDbEntity
  8
0
100
AcDbLine
 62
253
  6
CONTINUOUS
 10
137.275993821
 20
131.6627622698
 11
141.0120533716
 21
130.5842547762
  0
LINE
  5
536
100
AcDbEntity
  8
0
100
AcDbLine
 62
253
  6
CONTINUOUS
 10
146.2082057943
 20
129.0842547762
 11
149.9442653449
 21
128.0057472826
  0
LINE
  5
537
100
AcDbEntity
  8
0
100
AcDbLine
 62
253
  6
CONTINUOUS
 10
156.7615654062
 20
126.0377622698
 11
160.4976249568
 21
124.9592547762
  0
LINE
  5
538
100
AcDbEntity
  8
0
100
AcDbLine
 62
253
  6
CONTINUOUS
 10
165.6937773795
 20
123.4592547762
 11
169.4298369301
 21
122.3807472826
  0
LINE
  5
539
100
AcDbEntity
  8
0
100
AcDbLine
 62
7
  6
CONTINUOUS
 10
137.4044363329
 20
131.7971474934
 11
141.286494604
 21
130.6764937995
  0
LINE
  5
53A
100
AcDbEntity
  8
0
100
AcDbLine
 62
7
  6
CONTINUOUS
 10
146.4826470267
 20
129.1764937995
 11
150.3647052978
 21
128.0558401056
  0
LINE
  5
53B
100
AcDbEntity
  8
0
100
AcDbLine
 62
7
  6
CONTINUOUS
 10
156.8903678632
 20
126.1720435862
 11
160.7720661892
 21
125.0514937995
  0
LINE
  5
53C
100
AcDbEntity
  8
0
100
AcDbLine
 62
7
  6
CONTINUOUS
 10
165.9682186119
 20
123.5514937995
 11
169.8499169379
 21
122.4309440128
  0
LINE
  5
53D
100
AcDbEntity
  8
0
100
AcDbLine
 62
7
  6
CONTINUOUS
 10
151.0347175769
 20
127.872957364
 11
150.1688609932
 21
128.1229086299
  0
LINE
  5
53E
100
AcDbEntity
  8
DRAFT
100
AcDbLine
 62
7
  6
CONTINUOUS
 10
149.7400137357
 20
128.5601774711
 11
149.3607519438
 21
128.6696609199
  0
LWPOLYLINE
  5
53F
100
AcDbEntity
  8
RACCORDO
100
AcDbPolyline
 62
7
  6
CONTINUOUS
 90
9
 70
0
 10
153.657482062
 20
128.2871288152
 10
153.6471089913
 20
128.2925676185
 10
153.6366832596
 20
128.2979720223
 10
153.6262052138
 20
128.3033419573
 10
153.6156751504
 20
128.3086773799
 10
153.6050934648
 20
128.3139781965
 10
153.5944606578
 20
128.3192442633
 10
153.5837771336
 20
128.3244754873
 10
153.5629553381
 20
128.3345018009
  0
LINE
  5
540
100
AcDbEntity
  8
0
100
AcDbLine
 62
7
  6
CONTINUOUS
 10
154.1726302237
 20
128.0154810034
 11
153.657482062
 21
128.2871288152
  0
LINE
  5
541
100
AcDbEntity
  8
0
100
AcDbLine
 62
7
  6
CONTINUOUS
 10
150.708738254
 20
127.5571618742
 11
150.7661463541
 21
127.5268415998
  0
LWPOLYLINE
  5
542
100
AcDbEntity
  8
RACCORDO
100
AcDbPolyline
 62
253
  6
CONTINUOUS
 90
15
 70
0
 10
153.657482062
 20
128.2871288152
 10
153.6685333413
 20
128.2812643174
 10
153.70328456
 20
128.2623278927
 10
153.7380876743
 20
128.2425700517
 10
153.7731577912
 20
128.2217991191
 10
153.8083956492
 20
128.1999893184
 10
153.8436966921
 20
128.1771158253
 10
153.8792148193
 20
128.1529711718
 10
153.9148083784
 20
128.1275232394
 10
153.9503265815
 20
128.1007422882
 10
153.9858448358
 20
128.0724081619
 10
154.0211647872
 20
128.042486064
 10
154.0560769987
 20
128.0109438634
 10
154.0905612305
 20
127.9775513655
 10
154.0946068342
 20
127.9733274005
  0
LWPOLYLINE
  5
543
100
AcDbEntity
  8
RACCORDO
100
AcDbPolyline
 62
7
  6
CONTINUOUS
 90
10
 70
0
 10
153.0988865684
 20
128.3129744718
 10
153.0299598828
 20
128.3520761695
 10
152.9623511394
 20
128.3903077568
 10
152.8960603383
 20
128.4276692336
 10
152.8310976737
 20
128.4641636442
 10
152.7674529514
 20
128.4997879443
 10
152.7050955888
 20
128.5345330011
 10
152.6440153915
 20
128.5683957705
 10
152.5842225538
 20
128.6013792965
 10
152.5257170757
 20
128.6334835792
  0
LINE
  5
544
100
AcDbEntity
  8
0
100
AcDbLine
 62
7
  6
CONTINUOUS
 10
167.7417957499
 20
114.8536638205
 11
168.2342380607
 21
114.2190656593
  0
LINE
  5
545
100
AcDbEntity
  8
RACCORDO
100
AcDbLine
 62
253
  6
CONTINUOUS
 10
157.9276191133
 20
129.996187138
 11
158.4414525093
 21
129.3340228173
  0
LINE
  5
546
100
AcDbEntity
  8
RACCORDO
100
AcDbLine
 62
7
  6
CONTINUOUS
 10
158.1379618533
 20
130.074143238
 11
158.5935799941
 21
129.4869994691
  0
LWPOLYLINE
  5
547
100
AcDbEntity
  8
RACCORDO
100
AcDbPolyline
 62
253
  6
CONTINUOUS
 90
13
 70
0
 10
158.4414525093
 20
129.3340228173
 10
158.504856632
 20
129.2480237309
 10
158.5636974791
 20
129.1593400621
 10
158.6177230849
 20
129.0683515679
 10
158.6667021035
 20
128.9754478745
 10
158.7104247988
 20
128.8810268102
 10
158.748703943
 20
128.7854927015
 10
158.7813756188
 20
128.6892546402
 10
158.8082999213
 20
128.5927247324
 10
158.8293615561
 20
128.4963163351
 10
158.8444703343
 20
128.4004422842
 10
158.8535615581
 20
128.3055131267
 10
158.8565962978
 20
128.2119353638
  0
LINE
  5
548
100
AcDbEntity
  8
0
100
AcDbLine
 62
7
  6
CONTINUOUS
 10
164.2506558562
 20
122.1978422852
 11
164.2507194688
 21
122.1977509616
  0
LWPOLYLINE
  5
549
100
AcDbEntity
  8
RACCORDO
100
AcDbPolyline
 62
253
  6
CONTINUOUS
 90
10
 70
0
 10
158.5935799941
 20
129.4869994691
 10
158.5938701775
 20
129.4864891312
 10
158.5926401819
 20
129.4808870225
 10
158.5861253062
 20
129.4712239601
 10
158.5743740376
 20
129.4575718613
 10
158.5574738353
 20
129.4400323325
 10
158.5355504792
 20
129.418735912
 10
158.5087671343
 20
129.3938410991
 10
158.4773231363
 20
129.365533174
 10
158.441452508
 20
129.3340228189
  0
LWPOLYLINE
  5
54A
100
AcDbEntity
  8
0
100
AcDbPolyline
 62
253
  6
CONTINUOUS
 90
12
 70
0
 10
166.754891248
 20
118.538862786
 10
166.7575844786
 20
118.532606705
 10
166.7597813557
 20
118.5265043786
 10
166.761476921
 20
118.5205695794
 10
166.7626673478
 20
118.5148157019
 10
166.7633499494
 20
118.5092557323
 10
166.7635231851
 20
118.5039022191
 10
166.763186664
 20
118.4987672448
 10
166.7623411455
 20
118.4938623989
 10
166.760988538
 20
118.4891987512
 10
166.7591318943
 20
118.4847868273
 10
166.7585844943
 20
118.4837150104
  0
LWPOLYLINE
  5
54B
100
AcDbEntity
  8
RACCORDO
100
AcDbPolyline
 62
7
  6
CONTINUOUS
 90
7
 70
0
 10
169.7599429663
 20
86.2926671112
 10
169.7598420249
 20
86.2921657947
 10
169.7593636936
 20
86.2912040981
 10
169.7584736362
 20
86.2899282871
 10
169.7571520622
 20
86.2883445343
 10
169.7553755295
 20
86.2863851007
 10
169.7531218188
 20
86.2840641471
  0
LINE
  5
54C
100
AcDbEntity
  8
RACCORDO
100
AcDbLine
 62
7
  6
CONTINUOUS
 10
169.2044663145
 20
86.4194810268
 11
168.2342380607
 21
85.6103676603
  0
LINE
  5
54D
100
AcDbEntity
  8
0
100
AcDbLine
 62
7
  6
CONTINUOUS
 10
141.5091445059
 20
129.684559265
 11
140.2727796672
 21
129.3932587696
  0
LWPOLYLINE
  5
54E
100
AcDbEntity
  8
RACCORDO
100
AcDbPolyline
 62
7
  6
CONTINUOUS
 90
5
 70
0
 10
138.7995432604
 20
128.0429106681
 10
138.8192845718
 20
128.0465877765
 10
138.8401069172
 20
128.0471597815
 10
138.8616413529
 20
128.0446075648
 10
138.883511502
 20
128.0389692304
  0
LWPOLYLINE
  5
54F
100
AcDbEntity
  8
0
100
AcDbPolyline
 62
7
  6
CONTINUOUS
 90
19
 70
0
 10
139.4921572078
 20
128.7172198891
 10
139.5212807289
 20
128.7170069123
 10
139.5503306606
 20
128.7163727821
 10
139.5793070028
 20
128.7153174983
 10
139.6082340919
 20
128.7138394662
 10
139.6370875916
 20
128.7119402806
 10
139.6657944928
 20
128.7096247259
 10
139.694354429
 20
128.7068917529
 10
139.7227677668
 20
128.7037424108
 10
139.7509625965
 20
128.7001846318
 10
139.7789384719
 20
128.696217363
 10
139.8066958392
 20
128.6918416573
 10
139.8341641276
 20
128.6870686059
 10
139.8613422154
 20
128.6818972996
 10
139.8882312243
 20
128.6763286475
 10
139.9147639486
 20
128.6703764687
 10
139.9409179863
 20
128.6640453695
 10
139.9667157394
 20
128.6573307436
 10
139.9921572078
 20
128.650232591
  0
LWPOLYLINE
  5
550
100
AcDbEntity
  8
RACCORDO
100
AcDbPolyline
 62
7
  6
CONTINUOUS
 90
8
 70
0
 10
152.5126155803
 20
128.6378991784
 10
152.5059692549
 20
128.6382953749
 10
152.498667532
 20
128.6375504396
 10
152.4910398318
 20
128.6356364835
 10
152.4832876371
 20
128.632585984
 10
152.4754781088
 20
128.628409767
 10
152.4675440862
 20
128.6230970067
 10
152.459485569
 20
128.616647703
  0
LWPOLYLINE
  5
551
100
AcDbEntity
  8
0
100
AcDbPolyline
 62
7
  6
CONTINUOUS
 90
6
 70
0
 10
138.1765979207
 20
130.8639888058
 10
138.1893219242
 20
130.862494235
 10
138.202565127
 20
130.8603137844
 10
138.2163087953
 20
130.8574301539
 10
138.2305780851
 20
130.8537891721
 10
138.2345506772
 20
130.8526634767
  0
LWPOLYLINE
  5
552
100
AcDbEntity
  8
RACCORDO
100
AcDbPolyline
 62
7
  6
CONTINUOUS
 90
22
 70
0
 10
152.5126094428
 20
128.6378756353
 10
152.3907520025
 20
128.6540309499
 10
152.26156247
 20
128.6676784852
 10
152.1312872222
 20
128.6779263785
 10
152.0002664864
 20
128.6847575475
 10
151.8688081705
 20
128.6881637938
 10
151.7371879741
 20
128.6881414835
 10
151.6057342643
 20
128.6846906758
 10
151.4747696548
 20
128.6778181881
 10
151.3445603455
 20
128.6675322408
 10
151.2154307185
 20
128.653848649
 10
151.0877013291
 20
128.6367896668
 10
150.9616272592
 20
128.6163728408
 10
150.8375253422
 20
128.5926278368
 10
150.7157107526
 20
128.5655906705
 10
150.5964259581
 20
128.5352846699
 10
150.4799687918
 20
128.50174755
 10
150.3666554843
 20
128.4650282206
 10
150.2567380055
 20
128.4251592001
 10
150.1504907484
 20
128.3821807792
 10
150.0482226524
 20
128.3361512368
 10
149.9502261123
 20
128.2871288152
  0
LINE
  5
553
100
AcDbEntity
  8
0
100
AcDbLine
 62
7
  6
CONTINUOUS
 10
153.1350832468
 20
128.0758994298
 11
153.2046413099
 21
128.0619715044
  0
LINE
  5
554
100
AcDbEntity
  8
RACCORDO
100
AcDbLine
 62
7
  6
CONTINUOUS
 10
154.3657901175
 20
128.6394153493
 11
152.4079258974
 21
129.2046020665
  0
LINE
  5
555
100
AcDbEntity
  8
DRAFT
100
AcDbLine
 62
7
  6
CONTINUOUS
 10
153.690088415
 20
128.9539386913
 11
153.3176197593
 21
129.0614611307
  0
LWPOLYLINE
  5
556
100
AcDbEntity
  8
DRAFT
100
AcDbPolyline
 62
7
  6
CONTINUOUS
 90
10
 70
0
 10
153.690088415
 20
128.9539386913
 10
153.650398593
 20
128.96731091
 10
153.6102755353
 20
128.9803295045
 10
153.5697192418
 20
128.9929944749
 10
153.5287172598
 20
129.0053094161
 10
153.4872820421
 20
129.0172707331
 10
153.4454509473
 20
129.0288676416
 10
153.4032364284
 20
129.0400965465
 10
153.3606260324
 20
129.0509610429
 10
153.3176197593
 20
129.0614611307
  0
LWPOLYLINE
  5
557
100
AcDbEntity
  8
RACCORDO
100
AcDbPolyline
 62
7
  6
CONTINUOUS
 90
3
 70
0
 10
152.5257170757
 20
128.6334835792
 10
152.5194604462
 20
128.6362565319
 10
152.5126155803
 20
128.6378991784
  0
LWPOLYLINE
  5
558
100
AcDbEntity
  8
RACCORDO
100
AcDbPolyline
 62
253
  6
CONTINUOUS
 90
18
 70
0
 10
153.498736486
 20
128.316665398
 10
153.5309526634
 20
128.300712151
 10
153.5632964029
 20
128.2839743662
 10
153.5957677044
 20
128.2664520435
 10
153.6283620016
 20
128.2482188894
 10
153.6610838609
 20
128.2292011974
 10
153.6939469819
 20
128.2091778487
 10
153.7269942241
 20
128.1881564402
 10
153.7601827281
 20
128.1661293751
 10
153.7933976148
 20
128.1428527436
 10
153.826695392
 20
128.1183321187
 10
153.8600195519
 20
128.0925619275
 10
153.8930856924
 20
128.065281542
 10
153.925964088
 20
128.0364931005
 10
153.9585844641
 20
128.0061944648
 10
153.9904515943
 20
127.9741185919
 10
154.0216526259
 20
127.9402606269
 10
154.0242462546
 20
127.9372251194
  0
LWPOLYLINE
  5
559
100
AcDbEntity
  8
RACCORDO
100
AcDbPolyline
 62
253
  6
CONTINUOUS
 90
14
 70
0
 10
158.9694385613
 20
127.2128442091
 10
158.9967107031
 20
127.1896444654
 10
159.1412773775
 20
127.0531302801
 10
159.2790375312
 20
126.9089345144
 10
159.4093486153
 20
126.7577297346
 10
159.5316028236
 20
126.6002212006
 10
159.6452299269
 20
126.4371435771
 10
159.749699936
 20
126.2692575049
 10
159.8445255735
 20
126.0973460518
 10
159.9292645466
 20
125.9222110603
 10
160.0035216092
 20
125.7446694086
 10
160.0669504057
 20
125.5655492001
 10
160.1192550864
 20
125.3856859017
 10
160.1547785755
 20
125.2296893845
  0
LWPOLYLINE
  5
55A
100
AcDbEntity
  8
RACCORDO
100
AcDbPolyline
 62
7
  6
CONTINUOUS
 90
14
 70
0
 10
158.9694385613
 20
127.2884543404
 10
159.1085045672
 20
127.1652555691
 10
159.2540687241
 20
127.0214186376
 10
159.3917996881
 20
126.8697513089
 10
159.5210759369
 20
126.7109692659
 10
159.6413034961
 20
126.5458166593
 10
159.7518918072
 20
126.3751093973
 10
159.852350378
 20
126.1995896343
 10
159.94217374
 20
126.0200996991
 10
160.0208502764
 20
125.8376356121
 10
160.0880371137
 20
125.6529577514
 10
160.1433779245
 20
125.4669676978
 10
160.1865137863
 20
125.2808805203
 10
160.1970361969
 20
125.21749066
  0
LINE
  5
55B
100
AcDbEntity
  8
0
100
AcDbLine
 62
253
  6
CONTINUOUS
 10
165.4095123518
 20
76.9527582577
 11
164.9676037619
 21
76.1376447938
  0
LINE
  5
55C
100
AcDbEntity
  8
0
100
AcDbLine
 62
253
  6
CONTINUOUS
 10
165.7509176209
 20
76.8727008958
 11
165.2458792325
 21
75.9411426514
  0
LWPOLYLINE
  5
55D
100
AcDbEntity
  8
RACCORDO
100
AcDbPolyline
 62
7
  6
CONTINUOUS
 90
6
 70
0
 10
169.7531218188
 20
86.2840641471
 10
169.7503716107
 20
86.281393752
 10
169.7471035927
 20
86.2783050956
 10
169.7432984552
 20
86.2747864829
 10
169.7389402305
 20
86.2708831778
 10
168.2342380607
 20
84.9642086823
  0
LINE
  5
55E
100
AcDbEntity
  8
0
100
AcDbLine
 62
7
  6
CONTINUOUS
 10
170.333009514
 20
84.9669297576
 11
168.2342380607
 21
83.073787793
  0
LINE
  5
55F
100
AcDbEntity
  8
RACCORDO
100
AcDbLine
 62
7
  6
CONTINUOUS
 10
169.7340141697
 20
85.3090194777
 11
168.2342380607
 21
83.9835968285
  0
LINE
  5
560
100
AcDbEntity
  8
0
100
AcDbLine
 62
7
  6
CONTINUOUS
 10
170.333009514
 20
84.3750615844
 11
168.2342380607
 21
82.5473500641
  0
LINE
  5
561
100
AcDbEntity
  8
0
100
AcDbLine
 62
7
  6
CONTINUOUS
 10
167.7417957499
 20
81.7190140018
 11
168.2342380607
 21
82.1466507314
  0
LINE
  5
562
100
AcDbEntity
  8
RACCORDO
100
AcDbLine
 62
253
  6
CONTINUOUS
 10
150.2347758007
 20
132.3652966913
 11
150.2348533651
 21
132.3652743335
  0
LINE
  5
563
100
AcDbEntity
  8
DRAFT
100
AcDbLine
 62
7
  6
CONTINUOUS
 10
156.323414459
 20
129.7633363458
 11
152.079114712
 21
130.9885601466
  0
LINE
  5
564
100
AcDbEntity
  8
RACCORDO
100
AcDbLine
 62
253
  6
CONTINUOUS
 10
157.9276191133
 20
129.996187138
 11
156.9408765416
 21
130.2810351827
  0
LINE
  5
565
100
AcDbEntity
  8
RACCORDO
100
AcDbLine
 62
253
  6
CONTINUOUS
 10
151.1825387985
 20
131.9433241057
 11
149.9931169976
 21
132.2866806042
  0
LINE
  5
566
100
AcDbEntity
  8
RACCORDO
100
AcDbLine
 62
7
  6
CONTINUOUS
 10
158.1142385616
 20
130.0906917535
 11
157.1080827907
 21
130.3811439061
  0
LINE
  5
567
100
AcDbEntity
  8
RACCORDO
100
AcDbLine
 62
7
  6
CONTINUOUS
 10
151.4988555602
 20
132.0003883318
 11
150.234878503
 21
132.3652670789
  0
LWPOLYLINE
  5
568
100
AcDbEntity
  8
RACCORDO
100
AcDbPolyline
 62
7
  6
CONTINUOUS
 90
3
 70
0
 10
158.1153195348
 20
130.0903796653
 10
158.1250762322
 20
130.0861861706
 10
158.1366003148
 20
130.0758352305
  0
LWPOLYLINE
  5
569
100
AcDbEntity
  8
0
100
AcDbPolyline
 62
7
  6
CONTINUOUS
 90
5
 70
0
 10
167.1635768943
 20
78.1140485162
 10
167.1537046203
 20
78.1040207927
 10
167.1433878118
 20
78.0945409962
 10
167.1326154938
 20
78.085593736
 10
167.1262029936
 20
78.0806793054
  0
LWPOLYLINE
  5
56A
100
AcDbEntity
  8
RACCORDO
100
AcDbPolyline
 62
253
  6
CONTINUOUS
 90
46
 70
0
 10
162.3327683267
 20
75.3097459213
 10
162.323594158
 20
75.3011051151
 10
162.3139283645
 20
75.2926277277
 10
162.3037823374
 20
75.2843237497
 10
162.293168034
 20
75.2762029675
 10
162.2820979635
 20
75.2682749517
 10
162.2705851722
 20
75.2605490456
 10
162.2586432281
 20
75.2530343543
 10
162.2462862049
 20
75.245739734
 10
162.2335286658
 20
75.2386737816
 10
162.2203856457
 20
75.2318448243
 10
162.2068726339
 20
75.2252609104
 10
162.1930055557
 20
75.2189297989
 10
162.1788007538
 20
75.2128589514
 10
162.1642749687
 20
75.2070555223
 10
162.1494453195
 20
75.2015263511
 10
162.134329283
 20
75.1962779541
 10
162.1189446739
 20
75.1913165166
 10
162.1033096232
 20
75.1866478857
 10
162.0874425571
 20
75.1822775635
 10
162.0713621752
 20
75.1782107006
 10
162.0550874286
 20
75.1744520898
 10
162.0386374974
 20
75.1710061606
 10
162.0220317681
 20
75.1678769742
 10
162.0052898109
 20
75.1650682184
 10
161.9884313564
 20
75.1625832034
 10
161.9714762728
 20
75.1604248578
 10
161.9544445419
 20
75.1585957252
 10
161.9373562359
 20
75.1570979613
 10
161.9202314937
 20
75.1559333313
 10
161.9030904972
 20
75.1551032077
 10
161.8859534472
 20
75.1546085688
 10
161.8688405403
 20
75.1544499975
 10
161.8517719441
 20
75.1546276808
 10
161.8347677745
 20
75.1551414092
 10
161.8178480711
 20
75.1559905773
 10
161.8010327742
 20
75.1571741843
 10
161.7843417008
 20
75.1586908353
 10
161.7677945218
 20
75.160538743
 10
161.7514107382
 20
75.1627157295
 10
161.7352096588
 20
75.1652192292
 10
161.7192103767
 20
75.1680462917
 10
161.7034317474
 20
75.1711935853
 10
161.6878923664
 20
75.1746574007
 10
161.672610547
 20
75.1784336559
 10
161.6576042992
 20
75.1825179004
  0
LWPOLYLINE
  5
56B
100
AcDbEntity
  8
0
100
AcDbPolyline
 62
7
  6
CONTINUOUS
 90
20
 70
0
 10
167.1469950604
 20
78.0964643877
 10
167.1548450823
 20
78.10375789
 10
167.1647216231
 20
78.11378232
 10
167.1741415384
 20
78.1243383135
 10
167.1830424309
 20
78.1353620403
 10
167.1914165569
 20
78.1468565417
 10
167.19927166
 20
78.1588187765
 10
167.206568574
 20
78.1711757908
 10
167.213295685
 20
78.1839079574
 10
167.2194646069
 20
78.1970349036
 10
167.2250710142
 20
78.2105425566
 10
167.2301223197
 20
78.2244483106
 10
167.2346111106
 20
78.2387347714
 10
167.2385108228
 20
78.2533356843
 10
167.241817486
 20
78.2682628083
 10
167.2445350704
 20
78.2835043844
 10
167.2466489232
 20
78.2989588807
 10
167.2481541601
 20
78.3145924532
 10
167.2490556654
 20
78.330438946
 10
167.2493534391
 20
78.346498359
  0
LINE
  5
56C
100
AcDbEntity
  8
0
100
AcDbLine
 62
253
  6
CONTINUOUS
 10
167.2493534391
 20
78.346498359
 11
167.7417957499
 21
78.7867311663
  0
LINE
  5
56D
100
AcDbEntity
  8
0
100
AcDbLine
 62
7
  6
CONTINUOUS
 10
167.1470021124
 20
78.0964731529
 11
167.6394444232
 21
78.5367059602
  0
LINE
  5
56E
100
AcDbEntity
  8
0
100
AcDbLine
 62
253
  6
CONTINUOUS
 10
166.4755449337
 20
77.7721447795
 11
167.2482197281
 21
78.3470384807
  0
LINE
  5
56F
100
AcDbEntity
  8
0
100
AcDbLine
 62
7
  6
CONTINUOUS
 10
166.3535143614
 20
77.5057754147
 11
167.1262012273
 21
78.0806780974
  0
LINE
  5
570
100
AcDbEntity
  8
RACCORDO
100
AcDbLine
 62
253
  6
CONTINUOUS
 10
162.5729050513
 20
75.1151815412
 11
164.6408659275
 21
76.5325799409
  0
LINE
  5
571
100
AcDbEntity
  8
RACCORDO
100
AcDbLine
 62
7
  6
CONTINUOUS
 10
162.4292544521
 20
74.8327819934
 11
164.5000310849
 21
76.2521103372
  0
LWPOLYLINE
  5
572
100
AcDbEntity
  8
0
100
AcDbPolyline
 62
7
  6
CONTINUOUS
 90
5
 70
0
 10
167.1109066868
 20
78.0690891215
 10
167.1225381046
 20
78.0769378111
 10
167.1337438002
 20
78.0853343589
 10
167.144522754
 20
78.0942803427
 10
167.1469950604
 20
78.0964643877
  0
LWPOLYLINE
  5
573
100
AcDbEntity
  8
0
100
AcDbPolyline
 62
7
  6
CONTINUOUS
 90
17
 70
0
 10
166.7036584079
 20
76.7666605335
 10
166.7121268387
 20
76.7745382177
 10
166.721267661
 20
76.7839238924
 10
166.7299196827
 20
76.7937941209
 10
166.7380567491
 20
76.8041249433
 10
166.745651017
 20
76.8148868897
 10
166.752682054
 20
76.8260576842
 10
166.7591265575
 20
76.8376085287
 10
166.7649616553
 20
76.8495070498
 10
166.77016848
 20
76.8617244607
 10
166.7747278125
 20
76.8742269593
 10
166.7786223672
 20
76.8869795781
 10
166.7818377541
 20
76.8999503988
 10
166.7843603195
 20
76.9131041154
 10
166.7861777491
 20
76.9264007586
 10
166.7872803808
 20
76.9398000267
 10
166.7876613446
 20
76.9535952173
  0
LINE
  5
574
100
AcDbEntity
  8
0
100
AcDbLine
 62
253
  6
CONTINUOUS
 10
166.3829501508
 20
76.5614587378
 11
166.754891248
 21
76.8917271299
  0
LINE
  5
575
100
AcDbEntity
  8
0
100
AcDbLine
 62
7
  6
CONTINUOUS
 10
166.3314198727
 20
76.4361280285
 11
166.7036551608
 21
76.7666576501
  0
LINE
  5
576
100
AcDbEntity
  8
0
100
AcDbLine
 62
7
  6
CONTINUOUS
 10
166.3314192278
 20
76.4361274559
 11
166.3287816003
 21
76.4338432417
  0
LINE
  5
577
100
AcDbEntity
  8
0
100
AcDbLine
 62
253
  6
CONTINUOUS
 10
165.2458792325
 20
75.6011687172
 11
166.3829501508
 21
76.5614587378
  0
LINE
  5
578
100
AcDbEntity
  8
0
100
AcDbLine
 62
7
  6
CONTINUOUS
 10
165.1914084579
 20
75.4732979839
 11
166.3287809703
 21
76.4338427096
  0
ELLIPSE
  5
579
100
AcDbEntity
  8
0
100
AcDbEllipse
 62
7
  6
CONTINUOUS
 10
151.6370682072
 20
129.0856845431
 30
0.0
 11
3.3311309222
 21
-0.0329078462
 31
0.0
 40
0.4868848129
 41
-1.8485459337
 42
-0.5174596551
  0
ELLIPSE
  5
57A
100
AcDbEntity
  8
DRAFT
100
AcDbEllipse
 62
7
  6
CONTINUOUS
 10
152.1288540872
 20
127.8705786611
 30
0.0
 11
2.758363154
 21
-0.0273265302
 31
0.0
 40
0.4868722452
 41
0.4057530735
 42
0.9162345548
  0
ELLIPSE
  5
57B
100
AcDbEntity
  8
DRAFT
100
AcDbEllipse
 62
7
  6
CONTINUOUS
 10
151.6538540872
 20
127.9065899993
 30
0.0
 11
2.7499680117
 21
-0.0272433613
 31
0.0
 40
0.4868722452
 41
2.6315438289
 42
2.7675012054
  0
ELLIPSE
  5
57C
100
AcDbEntity
  8
DRAFT
100
AcDbEllipse
 62
7
  6
CONTINUOUS
 10
152.1288540872
 20
127.8705786611
 30
0.0
 11
2.758363154
 21
-0.0273265302
 31
0.0
 40
0.4868722452
 41
1.187807157
 42
2.6228171827
  0
ELLIPSE
  5
57D
100
AcDbEntity
  8
RACCORDO
100
AcDbEllipse
 62
7
  6
CONTINUOUS
 10
156.4829556534
 20
129.6248528668
 30
0.0
 11
0.634164835
 21
0.7522013705
 31
0.0
 40
0.1262496287
 41
0.0574439813
 42
0.6267828571
  0
ELLIPSE
  5
57E
100
AcDbEntity
  8
RACCORDO
100
AcDbEllipse
 62
7
  6
CONTINUOUS
 10
151.6247525209
 20
131.02729531
 30
0.0
 11
-0.3445326374
 21
0.9721604164
 31
0.0
 40
0.5445339671
 41
4.9284629066
 42
6.4818059409
  0
ELLIPSE
  5
57F
100
AcDbEntity
  8
DRAFT
100
AcDbEllipse
 62
7
  6
CONTINUOUS
 10
152.1288540872
 20
129.8152893723
 30
0.0
 11
2.7559589574
 21
-1.0163420204
 31
0.0
 40
0.114043695
 41
-1.1409516105
 42
-1.0832046369
  0
ELLIPSE
  5
580
100
AcDbEntity
  8
DRAFT
100
AcDbEllipse
 62
7
  6
CONTINUOUS
 10
152.1288540872
 20
129.8152893723
 30
0.0
 11
2.7559589574
 21
-1.0163420204
 31
0.0
 40
0.114043695
 41
-0.927125982
 42
-0.8693790084
  0
ELLIPSE
  5
581
100
AcDbEntity
  8
0
100
AcDbEllipse
 62
7
  6
CONTINUOUS
 10
151.6370682072
 20
129.0856845431
 30
0.0
 11
3.3311309222
 21
-0.0329078462
 31
0.0
 40
0.4868848129
 41
2.6214304582
 42
3.4650279157
  0
ELLIPSE
  5
582
100
AcDbEntity
  8
DRAFT
100
AcDbEllipse
 62
7
  6
CONTINUOUS
 10
152.1288540872
 20
128.303591363
 30
0.0
 11
2.758363154
 21
-0.0273265302
 31
0.0
 40
0.4868722452
 41
0.1836028841
 42
2.6228171827
  0
ELLIPSE
  5
583
100
AcDbEntity
  8
ASSI
100
AcDbEllipse
 62
7
  6
CONTINUOUS
 10
137.5057031806
 20
131.8643853806
 30
0.0
 11
0.4997407816
 21
0.3758839594
 31
0.0
 40
0.0428275111
 41
1.9184371056
 42
2.5683386715
  0
ELLIPSE
  5
584
100
AcDbEntity
  8
0
100
AcDbEllipse
 62
7
  6
CONTINUOUS
 10
138.0411955835
 20
130.3880670246
 30
0.0
 11
0.1404028218
 21
0.4798850524
 31
0.0
 40
0.4373714979
 41
0.4902265354
 42
0.5837580666
  0
ELLIPSE
  5
585
100
AcDbEntity
  8
0
100
AcDbEllipse
 62
7
  6
CONTINUOUS
 10
137.5679902327
 20
127.0644544359
 30
0.0
 11
-0.1309273426
 21
0.1511906453
 31
0.0
 40
0.7500018128
 41
-2.4278383642
 42
-0.8570420374
  0
ELLIPSE
  5
586
100
AcDbEntity
  8
0
100
AcDbEllipse
 62
7
  6
CONTINUOUS
 10
139.6464512018
 20
126.4644544359
 30
0.0
 11
-0.1309273426
 21
0.1511906453
 31
0.0
 40
0.7500018128
 41
-0.8570420374
 42
-0.0043409904
  0
ELLIPSE
  5
587
100
AcDbEntity
  8
0
100
AcDbEllipse
 62
7
  6
CONTINUOUS
 10
147.8231949744
 20
122.4585791627
 30
0.0
 11
0.3273463761
 21
-0.3779501209
 31
0.0
 40
0.7500354192
 41
2.202857635
 42
2.2844449736
  0
ELLIPSE
  5
588
100
AcDbEntity
  8
0
100
AcDbEllipse
 62
7
  6
CONTINUOUS
 10
138.9964512018
 20
124.6805277373
 30
0.0
 11
0.1999702832
 21
0.0063972751
 31
0.0
 40
0.5389145921
 41
3.1243091473
 42
4.1715514265
  0
ELLIPSE
  5
589
100
AcDbEntity
  8
0
100
AcDbEllipse
 62
7
  6
CONTINUOUS
 10
136.9179902327
 20
125.2805277373
 30
0.0
 11
0.1999702832
 21
0.0063972751
 31
0.0
 40
0.5389145921
 41
-2.1116338807
 42
-0.5408375539
  0
ELLIPSE
  5
58A
100
AcDbEntity
  8
0
100
AcDbEllipse
 62
7
  6
CONTINUOUS
 10
180.2455371705
 20
158.2664190623
 30
0.0
 11
42.5377953771
 21
37.3409903942
 31
0.0
 40
0.0057492859
 41
2.5145763347
 42
2.685518984
  0
ELLIPSE
  5
58B
100
AcDbEntity
  8
0
100
AcDbEllipse
 62
7
  6
CONTINUOUS
 10
145.673245851
 20
128.1848838864
 30
0.0
 11
0.1369629412
 21
0.4808780972
 31
0.0
 40
0.428644886
 41
0.4871257459
 42
0.5806572771
  0
ELLIPSE
  5
58C
100
AcDbEntity
  8
0
100
AcDbEllipse
 62
7
  6
CONTINUOUS
 10
180.2455371705
 20
158.2664190623
 30
0.0
 11
42.5377953771
 21
37.3409903942
 31
0.0
 40
0.0057492859
 41
-2.6956126996
 42
-2.5246700503
  0
ELLIPSE
  5
58D
100
AcDbEntity
  8
0
100
AcDbEllipse
 62
7
  6
CONTINUOUS
 10
128.1575467479
 20
126.6285589093
 30
0.0
 11
-0.3268304148
 21
0.3791392952
 31
0.0
 40
0.7494504149
 41
-0.8542338891
 42
0.7156490482
  0
ELLIPSE
  5
58E
100
AcDbEntity
  8
0
100
AcDbEllipse
 62
7
  6
CONTINUOUS
 10
146.0495705652
 20
122.0528676552
 30
0.0
 11
0.249962854
 21
0.0079965939
 31
0.0
 40
0.5389145921
 41
-2.1116338807
 42
-0.5466553181
  0
ELLIPSE
  5
58F
100
AcDbEntity
  8
ASSI
100
AcDbEllipse
 62
7
  6
CONTINUOUS
 10
150.208738254
 20
128.197335021
 30
0.0
 11
-0.4247391249
 21
0.5646941216
 31
0.0
 40
0.4671764921
 41
-3.0919374471
 42
-2.4420358812
  0
ELLIPSE
  5
590
100
AcDbEntity
  8
0
100
AcDbEllipse
 62
7
  6
CONTINUOUS
 10
143.9837128952
 20
122.6492293961
 30
0.0
 11
0.249962854
 21
0.0079965939
 31
0.0
 40
0.5389145921
 41
3.1244039702
 42
4.1715514265
  0
ELLIPSE
  5
591
100
AcDbEntity
  8
0
100
AcDbEllipse
 62
7
  6
CONTINUOUS
 10
128.9148708694
 20
126.9992293961
 30
0.0
 11
0.249962854
 21
0.0079965939
 31
0.0
 40
0.5389145921
 41
3.1244039702
 42
4.1715514265
  0
ELLIPSE
  5
592
100
AcDbEntity
  8
0
100
AcDbEllipse
 62
7
  6
CONTINUOUS
 10
130.9807285394
 20
126.4028676552
 30
0.0
 11
0.249962854
 21
0.0079965939
 31
0.0
 40
0.5389145921
 41
-2.1116338807
 42
-0.5466553181
  0
ELLIPSE
  5
593
100
AcDbEntity
  8
0
100
AcDbEllipse
 62
7
  6
CONTINUOUS
 10
145.3041347714
 20
127.3656906759
 30
0.0
 11
0.4530420893
 21
-0.0015129667
 31
0.0
 40
0.4956324579
 41
-0.5161258126
 42
0.0016278692
  0
ELLIPSE
  5
594
100
AcDbEntity
  8
0
100
AcDbEllipse
 62
7
  6
CONTINUOUS
 10
139.4921572078
 20
128.787665114
 30
0.0
 11
0.9999986302
 21
-0.0033395675
 31
0.0
 40
0.4956324579
 41
1.5724515256
 42
2.6196490768
  0
ELLIPSE
  5
595
100
AcDbEntity
  8
0
100
AcDbEllipse
 62
7
  6
CONTINUOUS
 10
138.4572639533
 20
129.3422120309
 30
0.0
 11
0.4530420893
 21
-0.0015129667
 31
0.0
 40
0.4956324579
 41
-0.5219435768
 42
0.0016243395
  0
ELLIPSE
  5
596
100
AcDbEntity
  8
ASSI
100
AcDbEllipse
 62
7
  6
CONTINUOUS
 10
136.4070742074
 20
131.0442281395
 30
0.0
 11
0.9994815632
 21
0.7517679188
 31
0.0
 40
0.0428275111
 41
-0.5499829254
 42
0.3874230926
  0
ELLIPSE
  5
597
100
AcDbEntity
  8
ASSI
100
AcDbEllipse
 62
7
  6
CONTINUOUS
 10
150.8073672271
 20
126.8872216138
 30
0.0
 11
-0.8494782499
 21
1.1293882431
 31
0.0
 40
0.4671764921
 41
5.3721634389
 42
6.309569457
  0
ELLIPSE
  5
598
100
AcDbEntity
  8
0
100
AcDbEllipse
 62
7
  6
CONTINUOUS
 10
146.5568946866
 20
121.3171246667
 30
0.0
 11
-0.3266993775
 21
0.3786546485
 31
0.0
 40
0.7508075094
 41
-2.4254825658
 42
-0.8555996285
  0
ELLIPSE
  5
599
100
AcDbEntity
  8
0
100
AcDbEllipse
 62
7
  6
CONTINUOUS
 10
156.7898849444
 20
126.0961317931
 30
0.0
 11
0.4997407816
 21
0.3758839594
 31
0.0
 40
0.0428275111
 41
1.6697908327
 42
2.5683386715
  0
ELLIPSE
  5
59A
100
AcDbEntity
  8
0
100
AcDbEllipse
 62
7
  6
CONTINUOUS
 10
156.5166903919
 20
123.9100273126
 30
0.0
 11
0.1404028218
 21
0.4798850524
 31
0.0
 40
0.4373714979
 41
0.5018791404
 42
0.5837580666
  0
ELLIPSE
  5
59B
100
AcDbEntity
  8
0
100
AcDbEllipse
 62
7
  6
CONTINUOUS
 10
157.0535618179
 20
121.4394544359
 30
0.0
 11
-0.1309273426
 21
0.1511906453
 31
0.0
 40
0.7500018128
 41
-2.4278383642
 42
-0.8570420374
  0
ELLIPSE
  5
59C
100
AcDbEntity
  8
0
100
AcDbEllipse
 62
7
  6
CONTINUOUS
 10
167.3087665596
 20
116.8335791627
 30
0.0
 11
0.3273463761
 21
-0.3779501209
 31
0.0
 40
0.7500354192
 41
0.7136994154
 42
2.2844449736
  0
ELLIPSE
  5
59D
100
AcDbEntity
  8
0
100
AcDbEllipse
 62
7
  6
CONTINUOUS
 10
167.3087665596
 20
78.9117579099
 30
0.0
 11
-0.3273534212
 21
0.3779772567
 31
0.0
 40
0.7499600483
 41
-3.1298136693
 42
-2.4279180913
  0
ELLIPSE
  5
59E
100
AcDbEntity
  8
0
100
AcDbEllipse
 62
7
  6
CONTINUOUS
 10
159.132022787
 20
120.8394544359
 30
0.0
 11
-0.1309273426
 21
0.1511906453
 31
0.0
 40
0.7500018128
 41
-0.8570420374
 42
-0.0043409904
  0
ELLIPSE
  5
59F
100
AcDbEntity
  8
0
100
AcDbEllipse
 62
7
  6
CONTINUOUS
 10
169.8956996604
 20
84.0633172375
 30
0.0
 11
0.4997407816
 21
0.3758839594
 31
0.0
 40
0.0428275111
 41
-0.5383473971
 42
-0.0327369566
  0
ELLIPSE
  5
5A0
100
AcDbEntity
  8
0
100
AcDbEllipse
 62
7
  6
CONTINUOUS
 10
156.9348651173
 20
122.8602249677
 30
0.0
 11
0.4588768346
 21
-0.0015324523
 31
0.0
 40
0.4956324579
 41
-0.5219435768
 42
0.0016921171
  0
ELLIPSE
  5
5A1
100
AcDbEntity
  8
0
100
AcDbEllipse
 62
7
  6
CONTINUOUS
 10
163.7918420244
 20
120.8807862361
 30
0.0
 11
0.4588768346
 21
-0.0015324523
 31
0.0
 40
0.4956324579
 41
-0.5161258126
 42
0.0016850466
  0
ELLIPSE
  5
5A2
100
AcDbEntity
  8
0
100
AcDbEllipse
 62
7
  6
CONTINUOUS
 10
158.482022787
 20
119.0555277373
 30
0.0
 11
0.1999702832
 21
0.0063972751
 31
0.0
 40
0.5389145921
 41
3.1243091473
 42
4.1715514265
  0
ELLIPSE
  5
5A3
100
AcDbEntity
  8
0
100
AcDbEllipse
 62
7
  6
CONTINUOUS
 10
147.6431183331
 20
121.0035589093
 30
0.0
 11
-0.3268304148
 21
0.3791392952
 31
0.0
 40
0.7494504149
 41
-0.8542338891
 42
0.7156490482
  0
ELLIPSE
  5
5A4
100
AcDbEntity
  8
0
100
AcDbEllipse
 62
7
  6
CONTINUOUS
 10
156.4035618179
 20
119.6555277373
 30
0.0
 11
0.1999702832
 21
0.0063972751
 31
0.0
 40
0.5389145921
 41
-2.1116338807
 42
-0.5408375539
  0
ELLIPSE
  5
5A5
100
AcDbEntity
  8
0
100
AcDbEllipse
 62
7
  6
CONTINUOUS
 10
170.2929388123
 20
121.2622216138
 30
0.0
 11
-0.8494782499
 21
1.1293882431
 31
0.0
 40
0.4671764921
 41
5.203386954
 42
6.309569457
  0
ELLIPSE
  5
5A6
100
AcDbEntity
  8
0
100
AcDbEllipse
 62
7
  6
CONTINUOUS
 10
165.5351421504
 20
116.4278676552
 30
0.0
 11
0.249962854
 21
0.0079965939
 31
0.0
 40
0.5389145921
 41
-2.1116338807
 42
-0.5466553181
  0
ELLIPSE
  5
5A7
100
AcDbEntity
  8
0
100
AcDbEllipse
 62
7
  6
CONTINUOUS
 10
166.0424662718
 20
77.897559872
 30
0.0
 11
-0.3268304148
 21
0.3791392952
 31
0.0
 40
0.7494504149
 41
2.2873587644
 42
3.8572417018
  0
ELLIPSE
  5
5A8
100
AcDbEntity
  8
0
100
AcDbEllipse
 62
7
  6
CONTINUOUS
 10
166.0424662718
 20
115.6921246667
 30
0.0
 11
-0.3266993775
 21
0.3786546485
 31
0.0
 40
0.7508075094
 41
-2.4254825658
 42
-0.8555996285
  0
ELLIPSE
  5
5A9
100
AcDbEntity
  8
0
100
AcDbEllipse
 62
7
  6
CONTINUOUS
 10
169.8956996604
 20
122.3128089659
 30
0.0
 11
-0.4247391249
 21
0.5646941216
 31
0.0
 40
0.4671764921
 41
-3.0919374471
 42
-2.1933896083
  0
ELLIPSE
  5
5AA
100
AcDbEntity
  8
0
100
AcDbEllipse
 62
7
  6
CONTINUOUS
 10
163.4692844804
 20
117.0242293961
 30
0.0
 11
0.249962854
 21
0.0079965939
 31
0.0
 40
0.5389145921
 41
3.1244039702
 42
4.1715514265
  0
ELLIPSE
  5
5AB
100
AcDbEntity
  8
0
100
AcDbEllipse
 62
7
  6
CONTINUOUS
 10
148.4004424545
 20
121.3742293961
 30
0.0
 11
0.249962854
 21
0.0079965939
 31
0.0
 40
0.5389145921
 41
3.1244039702
 42
4.1715514265
  0
ELLIPSE
  5
5AC
100
AcDbEntity
  8
0
100
AcDbEllipse
 62
7
  6
CONTINUOUS
 10
150.4663001245
 20
120.7778676552
 30
0.0
 11
0.249962854
 21
0.0079965939
 31
0.0
 40
0.5389145921
 41
-2.1116338807
 42
-0.5466553181
  0
ELLIPSE
  5
5AD
100
AcDbEntity
  8
0
100
AcDbEllipse
 62
7
  6
CONTINUOUS
 10
164.168894213
 20
121.7010263445
 30
0.0
 11
0.1369629412
 21
0.4808780972
 31
0.0
 40
0.428644886
 41
0.4987783509
 42
0.5806572771
  0
ELLIPSE
  5
5AE
100
AcDbEntity
  8
0
100
AcDbEllipse
 62
7
  6
CONTINUOUS
 10
199.7311087556
 20
152.6414190623
 30
0.0
 11
42.5377953771
 21
37.3409903942
 31
0.0
 40
0.0057492859
 41
-2.6956126996
 42
-2.5658028962
  0
ELLIPSE
  5
5AF
100
AcDbEntity
  8
0
100
AcDbEllipse
 62
7
  6
CONTINUOUS
 10
199.7311087556
 20
152.6414190623
 30
0.0
 11
42.5377953771
 21
37.3409903942
 31
0.0
 40
0.0057492859
 41
2.5557091805
 42
2.685518984
  0
ELLIPSE
  5
5B0
100
AcDbEntity
  8
0
100
AcDbEllipse
 62
7
  6
CONTINUOUS
 10
155.8926457926
 20
125.4192281395
 30
0.0
 11
0.9994815632
 21
0.7517679188
 31
0.0
 40
0.0428275111
 41
-0.5499829254
 42
0.5561995775
  0
ELLIPSE
  5
5B1
100
AcDbEntity
  8
RACCORDO
100
AcDbEllipse
 62
7
  6
CONTINUOUS
 10
165.3381614454
 20
114.9976521089
 30
0.0
 11
-0.3063802613
 21
0.3951347243
 31
0.0
 40
0.7756704856
 41
-2.3862147028
 42
-0.8161036086
  0
ELLIPSE
  5
5B2
100
AcDbEntity
  8
RACCORDO
100
AcDbEllipse
 62
7
  6
CONTINUOUS
 10
164.2077137607
 20
76.6579269664
 30
0.0
 11
-0.3065261974
 21
0.3954544575
 31
0.0
 40
0.7746101301
 41
-3.1869305259
 42
-2.3867336104
  0
ELLIPSE
  5
5B3
100
AcDbEntity
  8
RACCORDO
100
AcDbEllipse
 62
7
  6
CONTINUOUS
 10
127.8395583285
 20
125.8225664108
 30
0.0
 11
-0.3065261974
 21
0.3954544575
 31
0.0
 40
0.7746101301
 41
-0.815252051
 42
0.0453669848
  0
ENDSEC
  0
SECTION
  2
OBJECTS
  0
DICTIONARY
  5
C
100
AcDbDictionary
280
0
281
1
  3
ACAD_GROUP
350
D
  3
ACAD_MLINESTYLE
350
17
  3
ACAD_LAYOUT
350
1A
  3
ACAD_PLOTSETTINGS
350
19
  3
ACAD_PLOTSTYLENAME
350
E
  0
DICTIONARY
  5
D
102
{ACAD_REACTORS
330
C
102
}
100
AcDbDictionary
280
0
281
1
  0
ACDBDICTIONARYWDFLT
  5
E
102
{ACAD_REACTORS
330
C
102
}
100
AcDbDictionary
281
1
  3
Normal
350
F
100
AcDbDictionaryWithDefault
340
F
  0
DICTIONARY
  5
17
102
{ACAD_REACTORS
330
C
102
}
100
AcDbDictionary
280
0
281
1
  3
Standard
350
18
  0
DICTIONARY
  5
19
102
{ACAD_REACTORS
330
C
102
}
100
AcDbDictionary
281
1
  0
DICTIONARY
  5
1A
102
{ACAD_REACTORS
330
C
102
}
100
AcDbDictionary
281
1
  3
Model
350
5B4
  3
Layout1
350
5B5
  0
ACDBPLACEHOLDER
  5
F
102
{ACAD_REACTORS
330
E
102
}
  0
MLINESTYLE
  5
18
102
{ACAD_REACTORS
330
17
102
}
100
AcDbMlineStyle
  2
STANDARD
 70
0
  3

 62
256
 51
90.0
 52
90.0
 71
2
 49
0.5
 62
256
  6
BYLAYER
 49
-0.5
 62
256
  6
BYLAYER
  0
LAYOUT
  5
5B4
102
{ACAD_REACTORS
330
1A
102
}
100
AcDbPlotSettings
  1

  2
none_device
  4
ISO_A4_(297.00_x_210.00_MM)
  6

 40
0.0
 41
0.0
 42
0.0
 43
0.0
 44
297.0
 45
210.0
 46
0.0
 47
0.0
 48
0.0
 49
0.0
140
0.0
141
0.0
142
1.0
143
1.0
 70
1024
 72
1
 73
0
 74
0
  7

 75
0
147
1.0
148
0.0
149
0.0
100
AcDbLayout
  1
Model
 70
0
 71
0
 10
0.0
 20
0.0
 11
297.0
 21
210.0
 12
0.0
 22
0.0
 32
0.0
 14
0.0
 24
0.0
 34
0.0
 15
0.0
 25
0.0
 35
0.0
146
0.0
 13
0.0
 23
0.0
 33
0.0
 16
1.0
 26
0.0
 36
0.0
 17
0.0
 27
1.0
 37
0.0
 76
0
330
21F
345
0
346
0
  0
LAYOUT
  5
5B5
102
{ACAD_REACTORS
330
1A
102
}
100
AcDbPlotSettings
  1

  2
none_device
  4
ISO_A4_(297.00_x_210.00_MM)
  6

 40
0.0
 41
0.0
 42
0.0
 43
0.0
 44
297.0
 45
210.0
 46
0.0
 47
0.0
 48
0.0
 49
0.0
140
0.0
141
0.0
142
1.0
143
1.0
 70
0
 72
1
 73
0
 74
0
  7

 75
0
147
1.0
148
0.0
149
0.0
100
AcDbLayout
  1
Layout1
 70
0
 71
1
 10
0.0
 20
0.0
 11
297.0
 21
210.0
 12
0.0
 22
0.0
 32
0.0
 14
0.0
 24
0.0
 34
0.0
 15
0.0
 25
0.0
 35
0.0
146
0.0
 13
0.0
 23
0.0
 33
0.0
 16
1.0
 26
0.0
 36
0.0
 17
0.0
 27
1.0
 37
0.0
 76
0
330
220
345
0
346
0
  0
ENDSEC
  0
EOF
