  0
SECTION
  2
HEADER
  9
$ACADVER
  1
AC1015
  9
$DWGCODEPAGE
  3
ANSI_1252
  9
$EXTMAX
 10
297.0
 20
210.0
 30
0.0
  9
$EXTMIN
 10
0.0
 20
0.0
 30
0.0
  9
$LIMMIN
 10
0.0
 20
0.0
  9
$LIMMAX
 10
297.0
 20
210.0
  9
$VIEWCTR
 10
148.5
 20
105.0
  9
$VIEWSIZE
 40
210.0
  9
$CLAYER
  8
0
  9
$LTSCALE
 40
16.335
  9
$CELTYPE
  6
BYLAYER
  9
$DIMSCALE
 40
1.0
  9
$DIMASZ
 40
3.0
  9
$DIMEXO
 40
0.5
  9
$DIMDLI
 40
11.286
  9
$DIMEXE
 40
1.5
  9
$DIMCEN
 40
2.673
  9
$DIMLFAC
 40
1.0
  9
$DIMBLK
  1
_FILLED
  9
$DIMTXT
 40
3.0
  9
$DIMTOL
 70
1
  9
$DIMLIM
 70
0
  9
$DIMTFAC
 40
1.0
  9
$DIMTP
 40
0.01
  9
$DIMTM
 40
0.01
  9
$DIMGAP
 40
0.625
  9
$DIMDSEP
 70
44
  9
$PDMODE
 70
3
  9
$PDSIZE
 40
3.0
  9
$HANDSEED
  5
6A8
  9
$TILEMODE
 70
1
  9
$MEASUREMENT
 70
1
  9
$INSUNITS
 70
4
  0
ENDSEC
  0
SECTION
  2
CLASSES
  0
CLASS
  1
ACDBDICTIONARYWDFLT
  2
AcDbDictionaryWithDefault
  3
AutoCAD 2000
 90
0
280
0
281
0
  0
CLASS
  1
ACDBPLACEHOLDER
  2
AcDbPlaceHolder
  3
AutoCAD 2000
 90
0
280
0
281
0
  0
CLASS
  1
LAYOUT
  2
AcDbLayout
  3
AutoCAD 2000
 90
0
280
0
281
0
  0
ENDSEC
  0
SECTION
  2
TABLES
  0
TABLE
  2
VPORT
  5
8
100
AcDbSymbolTable
 70
2
  0
VPORT
  5
1F4
100
AcDbSymbolTableRecord
100
AcDbViewportTableRecord
  2
*ACTIVE
 70
0
 10
0.0
 20
0.0
 11
1.0
 21
1.0
 12
148.5
 22
105.0
 13
0.0
 23
0.0
 14
1.0
 24
1.0
 15
0.0
 25
0.0
 16
0.0
 26
0.0
 36
1.0
 17
0.0
 27
0.0
 37
0.0
 40
210.0
 41
1.4142857143
 42
50.0
 43
0.0
 44
0.0
 50
0.0
 51
0.0
 71
0
 72
100
 73
1
 74
1
 75
0
 76
0
 77
0
 78
0
  0
ENDTAB
  0
TABLE
  2
LTYPE
  5
5
100
AcDbSymbolTable
 70
6
  0
LTYPE
  5
14
100
AcDbSymbolTableRecord
100
AcDbLinetypeTableRecord
  2
BYBLOCK
 70
0
  3

 72
65
 73
0
 40
0.0
  0
LTYPE
  5
15
100
AcDbSymbolTableRecord
100
AcDbLinetypeTableRecord
  2
BYLAYER
 70
0
  3

 72
65
 73
0
 40
0.0
  0
LTYPE
  5
16
100
AcDbSymbolTableRecord
100
AcDbLinetypeTableRecord
  2
CONTINUOUS
 70
64
  3
Solid line
 72
65
 73
0
 40
0.0
  0
LTYPE
  5
1F5
100
AcDbSymbolTableRecord
100
AcDbLinetypeTableRecord
  2
CENTER
 70
64
  3
____ _ ____ _ ____ _ ____ _ ____ _ ____ _ ____
 72
65
 73
4
 40
0.6
 49
0.375
 74
0
 49
-0.075
 74
0
 49
0.075
 74
0
 49
-0.075
 74
0
  0
LTYPE
  5
1F6
100
AcDbSymbolTableRecord
100
AcDbLinetypeTableRecord
  2
HIDDEN
 70
64
  3
- - - - - - - - - - - - - - - - - - - -
 72
65
 73
2
 40
0.2
 49
0.1
 74
0
 49
-0.1
 74
0
  0
LTYPE
  5
1F7
100
AcDbSymbolTableRecord
100
AcDbLinetypeTableRecord
  2
PHANTOM
 70
64
  3
_____ _ _ _____ _ _ _____ _ _ _____
 72
65
 73
6
 40
0.8
 49
0.45
 74
0
 49
-0.05
 74
0
 49
0.1
 74
0
 49
-0.05
 74
0
 49
0.1
 74
0
 49
-0.05
 74
0
  0
LTYPE
  5
1F8
100
AcDbSymbolTableRecord
100
AcDbLinetypeTableRecord
  2
DOT
 70
64
  3
. . . . . . . . . . . . . . . . . . . .
 72
65
 73
2
 40
0.2
 49
0.1
 74
0
 49
-0.1
 74
0
  0
LTYPE
  5
1F9
100
AcDbSymbolTableRecord
100
AcDbLinetypeTableRecord
  2
DASHED
 70
64
  3
- - - - - - - - - - - - - - - - - - - -
 72
65
 73
2
 40
0.2
 49
0.1
 74
0
 49
-0.1
 74
0
  0
ENDTAB
  0
TABLE
  2
LAYER
  5
2
100
AcDbSymbolTable
 70
36
  0
LAYER
  5
10
100
AcDbSymbolTableRecord
100
AcDbLayerTableRecord
  2
0
 70
0
 62
7
  6
CONTINUOUS
370
-3
390
F
  0
LAYER
  5
1FA
100
AcDbSymbolTableRecord
100
AcDbLayerTableRecord
  2
DEFAULT_1
 70
0
 62
7
  6
CENTER
370
-3
390
F
  0
LAYER
  5
1FB
100
AcDbSymbolTableRecord
100
AcDbLayerTableRecord
  2
DEFAULT_2
 70
0
 62
7
  6
HIDDEN
370
-3
390
F
  0
LAYER
  5
1FC
100
AcDbSymbolTableRecord
100
AcDbLayerTableRecord
  2
DEFAULT_3
 70
0
 62
7
  6
PHANTOM
370
-3
390
F
  0
LAYER
  5
1FD
100
AcDbSymbolTableRecord
100
AcDbLayerTableRecord
  2
ASSI
 70
0
 62
7
  6
CONTINUOUS
370
-3
390
F
  0
LAYER
  5
1FE
100
AcDbSymbolTableRecord
100
AcDbLayerTableRecord
  2
COLOR9
 70
0
 62
7
  6
CONTINUOUS
370
-3
390
F
  0
LAYER
  5
1FF
100
AcDbSymbolTableRecord
100
AcDbLayerTableRecord
  2
COLORE_TOP
 70
0
 62
7
  6
CONTINUOUS
370
-3
390
F
  0
LAYER
  5
200
100
AcDbSymbolTableRecord
100
AcDbLayerTableRecord
  2
COORDINATE
 70
0
 62
7
  6
CONTINUOUS
370
-3
390
F
  0
LAYER
  5
201
100
AcDbSymbolTableRecord
100
AcDbLayerTableRecord
  2
COORD_ORIGINE
 70
0
 62
7
  6
CONTINUOUS
370
-3
390
F
  0
LAYER
  5
202
100
AcDbSymbolTableRecord
100
AcDbLayerTableRecord
  2
COPY_PUBLISH
 70
0
 62
7
  6
CONTINUOUS
370
-3
390
F
  0
LAYER
  5
203
100
AcDbSymbolTableRecord
100
AcDbLayerTableRecord
  2
COSMETIC
 70
0
 62
7
  6
CONTINUOUS
370
-3
390
F
  0
LAYER
  5
204
100
AcDbSymbolTableRecord
100
AcDbLayerTableRecord
  2
COSMETICHE
 70
0
 62
7
  6
CONTINUOUS
370
-3
390
F
  0
LAYER
  5
205
100
AcDbSymbolTableRecord
100
AcDbLayerTableRecord
  2
COSMETICI
 70
0
 62
7
  6
CONTINUOUS
370
-3
390
F
  0
LAYER
  5
206
100
AcDbSymbolTableRecord
100
AcDbLayerTableRecord
  2
CURVE
 70
0
 62
7
  6
CONTINUOUS
370
-3
390
F
  0
LAYER
  5
207
100
AcDbSymbolTableRecord
100
AcDbLayerTableRecord
  2
DRAFT
 70
0
 62
7
  6
CONTINUOUS
370
-3
390
F
  0
LAYER
  5
208
100
AcDbSymbolTableRecord
100
AcDbLayerTableRecord
  2
IMPORTED
 70
0
 62
7
  6
CONTINUOUS
370
-3
390
F
  0
LAYER
  5
209
100
AcDbSymbolTableRecord
100
AcDbLayerTableRecord
  2
IMPORT_IGES
 70
0
 62
7
  6
CONTINUOUS
370
-3
390
F
  0
LAYER
  5
20A
100
AcDbSymbolTableRecord
100
AcDbLayerTableRecord
  2
INCISIONI_LASER
 70
0
 62
7
  6
CONTINUOUS
370
-3
390
F
  0
LAYER
  5
20B
100
AcDbSymbolTableRecord
100
AcDbLayerTableRecord
  2
INTF_1
 70
0
 62
7
  6
CONTINUOUS
370
-3
390
F
  0
LAYER
  5
20C
100
AcDbSymbolTableRecord
100
AcDbLayerTableRecord
  2
INTF_YELLOW
 70
0
 62
7
  6
CONTINUOUS
370
-3
390
F
  0
LAYER
  5
20D
100
AcDbSymbolTableRecord
100
AcDbLayerTableRecord
  2
NOTE
 70
0
 62
7
  6
CONTINUOUS
370
-3
390
F
  0
LAYER
  5
20E
100
AcDbSymbolTableRecord
100
AcDbLayerTableRecord
  2
PIANI
 70
0
 62
7
  6
CONTINUOUS
370
-3
390
F
  0
LAYER
  5
20F
100
AcDbSymbolTableRecord
100
AcDbLayerTableRecord
  2
PIANI_DI_RIFERIMENTO
 70
0
 62
7
  6
CONTINUOUS
370
-3
390
F
  0
LAYER
  5
210
100
AcDbSymbolTableRecord
100
AcDbLayerTableRecord
  2
PIANI_ORIGINE
 70
0
 62
7
  6
CONTINUOUS
370
-3
390
F
  0
LAYER
  5
211
100
AcDbSymbolTableRecord
100
AcDbLayerTableRecord
  2
PIANI_RIFERIMENTO
 70
0
 62
7
  6
CONTINUOUS
370
-3
390
F
  0
LAYER
  5
212
100
AcDbSymbolTableRecord
100
AcDbLayerTableRecord
  2
PIANI_SFORMO
 70
0
 62
7
  6
CONTINUOUS
370
-3
390
F
  0
LAYER
  5
213
100
AcDbSymbolTableRecord
100
AcDbLayerTableRecord
  2
PUNTI
 70
0
 62
7
  6
CONTINUOUS
370
-3
390
F
  0
LAYER
  5
214
100
AcDbSymbolTableRecord
100
AcDbLayerTableRecord
  2
RACCORDO
 70
0
 62
7
  6
CONTINUOUS
370
-3
390
F
  0
LAYER
  5
215
100
AcDbSymbolTableRecord
100
AcDbLayerTableRecord
  2
RINTRACCIABILITA
 70
0
 62
7
  6
CONTINUOUS
370
-3
390
F
  0
LAYER
  5
216
100
AcDbSymbolTableRecord
100
AcDbLayerTableRecord
  2
SIMBOLI
 70
0
 62
7
  6
CONTINUOUS
370
-3
390
F
  0
LAYER
  5
217
100
AcDbSymbolTableRecord
100
AcDbLayerTableRecord
  2
SMUSSO
 70
0
 62
7
  6
CONTINUOUS
370
-3
390
F
  0
LAYER
  5
218
100
AcDbSymbolTableRecord
100
AcDbLayerTableRecord
  2
SNAPLINE
 70
0
 62
7
  6
CONTINUOUS
370
-3
390
F
  0
LAYER
  5
219
100
AcDbSymbolTableRecord
100
AcDbLayerTableRecord
  2
SUPERFICI
 70
0
 62
7
  6
CONTINUOUS
370
-3
390
F
  0
LAYER
  5
21A
100
AcDbSymbolTableRecord
100
AcDbLayerTableRecord
  2
SUP_COLORE
 70
0
 62
7
  6
CONTINUOUS
370
-3
390
F
  0
LAYER
  5
21B
100
AcDbSymbolTableRecord
100
AcDbLayerTableRecord
  2
TRASH
 70
0
 62
7
  6
CONTINUOUS
370
-3
390
F
  0
LAYER
  5
21C
100
AcDbSymbolTableRecord
100
AcDbLayerTableRecord
  2
XSEC_DATUMS
 70
0
 62
7
  6
CONTINUOUS
370
-3
390
F
  0
ENDTAB
  0
TABLE
  2
STYLE
  5
3
100
AcDbSymbolTable
 70
1
  0
STYLE
  5
11
100
AcDbSymbolTableRecord
100
AcDbTextStyleTableRecord
  2
STANDARD
 70
0
 40
0.0
 41
0.8
 50
0.0
 71
0
 42
0.2
  3
txt
  4

  0
STYLE
  5
21D
100
AcDbSymbolTableRecord
100
AcDbTextStyleTableRecord
  2
TEXTSTYLE_1
 70
0
 40
0.0
 41
0.8
 50
0.0
 71
0
 42
0.2
  3
gdt
  4

  0
ENDTAB
  0
TABLE
  2
VIEW
  5
6
100
AcDbSymbolTable
 70
0
  0
ENDTAB
  0
TABLE
  2
UCS
  5
7
100
AcDbSymbolTable
 70
0
  0
ENDTAB
  0
TABLE
  2
APPID
  5
9
100
AcDbSymbolTable
 70
1
  0
APPID
  5
21E
100
AcDbSymbolTableRecord
100
AcDbRegAppTableRecord
  2
ACAD
 70
0
  0
ENDTAB
  0
TABLE
  2
BLOCK_RECORD
  5
1
100
AcDbSymbolTable
 70
0
  0
BLOCK_RECORD
  5
21F
100
AcDbSymbolTableRecord
100
AcDbBlockTableRecord
  2
*Model_Space
  0
BLOCK_RECORD
  5
220
100
AcDbSymbolTableRecord
100
AcDbBlockTableRecord
  2
*Paper_Space
  0
ENDTAB
  0
TABLE
  2
DIMSTYLE
  5
A
100
AcDbSymbolTable
 70
1
100
AcDbDimStyleTable
 71
0
  0
DIMSTYLE
105
221
100
AcDbSymbolTableRecord
100
AcDbDimStyleTableRecord
  2
STANDARD
 70
0
  3

  4

 40
1.0
 41
3.0
 42
0.5
 43
0.38
 44
1.5
 45
0.0
 46
0.0
 47
0.01
 48
0.01
140
3.0
141
0.09
142
0.0
143
25.4
144
1.0
145
0.0
146
1.0
147
0.625
 71
1.0
 72
0.0
 73
0
 74
0
 75
0
 76
0
 77
1
 78
8
170
0
171
2
172
0
173
0
174
0
175
0
176
0
177
0
178
0
270
2
271
2
272
2
273
2
274
2
275
0
280
0
281
0
282
0
283
1
284
8
285
0
286
0
287
3
288
0
340
11
278
44
  0
ENDTAB
  0
ENDSEC
  0
SECTION
  2
BLOCKS
  0
BLOCK
  5
20
100
AcDbEntity
  8
0
100
AcDbBlockBegin
  2
*Model_Space
 70
0
 10
0.0
 20
0.0
 30
0.0
  3
*Model_Space
  1

  0
ENDBLK
  5
21
100
AcDbEntity
  8
0
100
AcDbBlockEnd
  0
BLOCK
  5
1C
100
AcDbEntity
  8
0
100
AcDbBlockBegin
  2
*Paper_Space
 70
0
 10
0.0
 20
0.0
 30
0.0
  3
*Paper_Space
  1

  0
ENDBLK
  5
1D
100
AcDbEntity
  8
0
100
AcDbBlockEnd
  0
ENDSEC
  0
SECTION
  2
ENTITIES
  0
LWPOLYLINE
  5
222
100
AcDbEntity
  8
0
100
AcDbPolyline
 62
7
  6
CONTINUOUS
 90
8
 70
0
 10
114.6042536126
 20
72.1736489427
 10
114.6065696996
 20
72.1742585118
 10
114.610734707
 20
72.1760991338
 10
114.616535269
 20
72.1791418912
 10
114.6237524991
 20
72.1835476194
 10
114.6322917754
 20
72.1888747262
 10
114.6420233376
 20
72.1951246952
 10
114.6769403374
 20
72.2187450492
  0
LINE
  5
223
100
AcDbEntity
  8
0
100
AcDbLine
 62
253
  6
CONTINUOUS
 10
115.3031059977
 20
69.0511711379
 11
114.9135067447
 21
69.1014885497
  0
LINE
  5
224
100
AcDbEntity
  8
0
100
AcDbLine
 62
253
  6
CONTINUOUS
 10
115.1781820562
 20
69.2929533701
 11
114.9135067447
 21
69.3271366406
  0
LWPOLYLINE
  5
225
100
AcDbEntity
  8
0
100
AcDbPolyline
 62
7
  6
CONTINUOUS
 90
7
 70
0
 10
114.2420572515
 20
68.6410035016
 10
114.2314510697
 20
68.6424383122
 10
114.2193418848
 20
68.6445276428
 10
114.2057418547
 20
68.6471832687
 10
114.1906349905
 20
68.6502090051
 10
114.1741194312
 20
68.6535950982
 10
114.1564025866
 20
68.6575189901
  0
LINE
  5
226
100
AcDbEntity
  8
0
100
AcDbLine
 62
253
  6
CONTINUOUS
 10
115.1835611475
 20
69.2918320091
 11
115.1781820562
 21
69.2929533701
  0
LWPOLYLINE
  5
227
100
AcDbEntity
  8
0
100
AcDbPolyline
 62
7
  6
CONTINUOUS
 90
3
 70
0
 10
114.1564025866
 20
68.6575189901
 10
114.1177360051
 20
68.6664600244
 10
114.0971642088
 20
68.6715216478
  0
LWPOLYLINE
  5
228
100
AcDbEntity
  8
0
100
AcDbPolyline
 62
253
  6
CONTINUOUS
 90
19
 70
0
 10
114.5239448249
 20
69.4044529566
 10
114.5468374078
 20
69.3988887288
 10
114.5692281132
 20
69.3953728656
 10
114.5911169411
 20
69.3939053672
 10
114.6126652642
 20
69.3945056311
 10
114.6337117098
 20
69.3971542596
 10
114.6537721605
 20
69.4017930596
 10
114.6728209113
 20
69.4084673165
 10
114.6908836672
 20
69.4171317449
 10
114.7075534259
 20
69.4275922951
 10
114.722798323
 20
69.4398902495
 10
114.7366502228
 20
69.4539843256
 10
114.7487977165
 20
69.4695566262
 10
114.7592029963
 20
69.4866515398
 10
114.7679038699
 20
69.5052246778
 10
114.7747023507
 20
69.5248249766
 10
114.7795324429
 20
69.545302082
 10
114.7824601423
 20
69.5668063482
 10
114.7834854488
 20
69.5893377753
  0
LWPOLYLINE
  5
229
100
AcDbEntity
  8
0
100
AcDbPolyline
 62
253
  6
CONTINUOUS
 90
13
 70
0
 10
113.4555072617
 20
67.6772558331
 10
113.4787378431
 20
67.6715187065
 10
113.5032576392
 20
67.6673312051
 10
113.5286552121
 20
67.6647637628
 10
113.5545046434
 20
67.66385963
 10
113.5803717241
 20
67.6646341847
 10
113.6058212616
 20
67.6670744628
 10
113.6304427555
 20
67.6711428518
 10
113.653804422
 20
67.6767698146
 10
113.6754695056
 20
67.6838442184
 10
113.6950738522
 20
67.6922323188
 10
113.7123209583
 20
67.7017909412
 10
113.7269407219
 20
67.712354566
  0
LWPOLYLINE
  5
22A
100
AcDbEntity
  8
0
100
AcDbPolyline
 62
7
  6
CONTINUOUS
 90
5
 70
0
 10
114.0971642088
 20
68.6715216478
 10
114.0545013523
 20
68.6823867109
 10
114.0328020249
 20
68.6882287413
 10
114.0111735197
 20
68.6943399075
 10
113.9691121384
 20
68.7063411453
  0
LWPOLYLINE
  5
22B
100
AcDbEntity
  8
RACCORDO
100
AcDbPolyline
 62
7
  6
CONTINUOUS
 90
11
 70
0
 10
111.7422748922
 20
67.2267764933
 10
111.7575627745
 20
67.2225641972
 10
111.8187703017
 20
67.2099067183
 10
111.8806570156
 20
67.2036436498
 10
111.94293176
 20
67.2037215626
 10
112.0060986163
 20
67.2102470772
 10
112.0697207827
 20
67.2234540721
 10
112.1329960274
 20
67.243434746
 10
112.196056839
 20
67.2705622591
 10
112.2586916876
 20
67.3052396113
 10
112.3242340225
 20
67.3506420882
  0
LINE
  5
22C
100
AcDbEntity
  8
RACCORDO
100
AcDbLine
 62
7
  6
CONTINUOUS
 10
93.522670419
 20
72.4863077315
 11
93.522094718
 21
72.4864728839
  0
LINE
  5
22D
100
AcDbEntity
  8
ASSI
100
AcDbLine
 62
7
  6
CONTINUOUS
 10
111.7428489598
 20
67.2265942008
 11
93.5220551673
 21
72.4864843012
  0
LINE
  5
22E
100
AcDbEntity
  8
RACCORDO
100
AcDbLine
 62
253
  6
CONTINUOUS
 10
111.5208466217
 20
67.6312570368
 11
93.3099812392
 21
72.8882810522
  0
LINE
  5
22F
100
AcDbEntity
  8
0
100
AcDbLine
 62
7
  6
CONTINUOUS
 10
113.5000372421
 20
67.1868837488
 11
112.4897839949
 21
67.4785187409
  0
LINE
  5
230
100
AcDbEntity
  8
0
100
AcDbLine
 62
253
  6
CONTINUOUS
 10
113.4555072617
 20
67.292434993
 11
112.577133569
 21
67.545999637
  0
LINE
  5
231
100
AcDbEntity
  8
0
100
AcDbLine
 62
253
  6
CONTINUOUS
 10
113.4555072617
 20
67.6772558331
 11
112.9064327371
 21
67.8357599954
  0
LINE
  5
232
100
AcDbEntity
  8
0
100
AcDbLine
 62
253
  6
CONTINUOUS
 10
113.5055072617
 20
67.8705571033
 11
112.9441786205
 21
68.0325987243
  0
LINE
  5
233
100
AcDbEntity
  8
0
100
AcDbLine
 62
7
  6
CONTINUOUS
 10
112.9441786205
 20
69.0022139666
 11
113.9691121384
 21
68.7063411453
  0
LINE
  5
234
100
AcDbEntity
  8
RACCORDO
100
AcDbLine
 62
7
  6
CONTINUOUS
 10
111.7422527275
 20
67.2267672058
 11
111.7428068791
 21
67.2266063484
  0
LWPOLYLINE
  5
235
100
AcDbEntity
  8
RACCORDO
100
AcDbPolyline
 62
253
  6
CONTINUOUS
 90
12
 70
0
 10
93.522094718
 20
72.4864728839
 10
93.4989641178
 20
72.4949035781
 10
93.4696483748
 20
72.5111568116
 10
93.4422726647
 20
72.5330363894
 10
93.4170058844
 20
72.5604095614
 10
93.3939916487
 20
72.5931156192
 10
93.373370048
 20
72.6309592909
 10
93.3552695238
 20
72.6737122573
 10
93.3397944026
 20
72.7211186568
 10
93.3270373961
 20
72.7728938165
 10
93.3170792611
 20
72.8287263786
 10
93.3099812392
 20
72.8882810522
  0
LWPOLYLINE
  5
236
100
AcDbEntity
  8
0
100
AcDbPolyline
 62
253
  6
CONTINUOUS
 90
13
 70
0
 10
112.9717321374
 20
72.3979646547
 10
113.0007254484
 20
72.3908025847
 10
113.0313252094
 20
72.3855717222
 10
113.0630194043
 20
72.3823595937
 10
113.0952777039
 20
72.3812199467
 10
113.1275603401
 20
72.3821718505
 10
113.1593271376
 20
72.3851993772
 10
113.1900465525
 20
72.3902518684
 10
113.2192045663
 20
72.397244782
 10
113.246313287
 20
72.4060611073
 10
113.2709191128
 20
72.4165533232
 10
113.2926103221
 20
72.4285458669
 10
113.3110239625
 20
72.4418380709
  0
LWPOLYLINE
  5
237
100
AcDbEntity
  8
0
100
AcDbPolyline
 62
253
  6
CONTINUOUS
 90
13
 70
0
 10
114.7834854488
 20
69.5893377753
 10
114.8065458262
 20
69.5836360708
 10
114.8308792057
 20
69.5794615833
 10
114.8560829802
 20
69.5768833816
 10
114.8817401413
 20
69.5759441232
 10
114.9074261793
 20
69.5766593487
 10
114.9327161068
 20
69.5790172243
 10
114.95719149
 20
69.5829787378
 10
114.9804473723
 20
69.5884783442
 10
115.0020989742
 20
69.59542505
 10
115.0217880597
 20
69.6037039188
 10
115.0391888637
 20
69.6131779727
 10
115.0540134817
 20
69.6236904592
  0
LWPOLYLINE
  5
238
100
AcDbEntity
  8
0
100
AcDbPolyline
 62
7
  6
CONTINUOUS
 90
10
 70
0
 10
114.5685390416
 20
69.2988906225
 10
114.5862434678
 20
69.2941340667
 10
114.634211095
 20
69.284814924
 10
114.6817317418
 20
69.2806918363
 10
114.7284575735
 20
69.2817045309
 10
114.7740784925
 20
69.2878154422
 10
114.818071854
 20
69.2989085534
 10
114.8599773882
 20
69.3148402963
 10
114.8994651071
 20
69.3354874555
 10
114.9271897573
 20
69.3538981162
  0
LINE
  5
239
100
AcDbEntity
  8
0
100
AcDbLine
 62
7
  6
CONTINUOUS
 10
114.158047804
 20
69.4173817822
 11
114.5684748056
 21
69.2989017123
  0
LINE
  5
23A
100
AcDbEntity
  8
0
100
AcDbLine
 62
253
  6
CONTINUOUS
 10
113.9706237914
 20
69.5641829804
 11
114.5239448249
 21
69.4044529566
  0
LINE
  5
23B
100
AcDbEntity
  8
0
100
AcDbLine
 62
253
  6
CONTINUOUS
 10
115.1781820562
 20
69.2929533701
 11
114.9385059384
 21
69.3621419057
  0
LINE
  5
23C
100
AcDbEntity
  8
0
100
AcDbLine
 62
7
  6
CONTINUOUS
 10
115.1836520758
 20
69.2918058845
 11
114.9389299777
 21
69.3624510691
  0
LINE
  5
23D
100
AcDbEntity
  8
0
100
AcDbLine
 62
253
  6
CONTINUOUS
 10
112.9441786205
 20
70.6475996035
 11
114.703783056
 21
70.1396455563
  0
LINE
  5
23E
100
AcDbEntity
  8
0
100
AcDbLine
 62
253
  6
CONTINUOUS
 10
112.9441786205
 20
70.9342331278
 11
114.603783056
 21
70.455146594
  0
LINE
  5
23F
100
AcDbEntity
  8
0
100
AcDbLine
 62
7
  6
CONTINUOUS
 10
112.9441786205
 20
71.7065079606
 11
114.603783056
 21
71.2274214268
  0
LWPOLYLINE
  5
240
100
AcDbEntity
  8
0
100
AcDbPolyline
 62
253
  6
CONTINUOUS
 90
3
 70
0
 10
115.1781820562
 20
69.2929533701
 10
115.2004408348
 20
69.284791488
 10
115.2214741859
 20
69.2734872425
  0
LINE
  5
241
100
AcDbEntity
  8
0
100
AcDbLine
 62
7
  6
CONTINUOUS
 10
96.254737342
 20
114.4994156122
 11
97.3723163334
 21
115.5423397352
  0
LINE
  5
242
100
AcDbEntity
  8
0
100
AcDbLine
 62
253
  6
CONTINUOUS
 10
96.3894452902
 20
114.5248620735
 11
97.5063697487
 21
115.5671753867
  0
LINE
  5
243
100
AcDbEntity
  8
0
100
AcDbLine
 62
7
  6
CONTINUOUS
 10
97.372351123
 20
115.5423721283
 11
97.3786781527
 21
115.5478507052
  0
LINE
  5
244
100
AcDbEntity
  8
0
100
AcDbLine
 62
7
  6
CONTINUOUS
 10
97.3786971434
 20
115.5478659508
 11
97.7933112132
 21
115.8807155955
  0
LINE
  5
245
100
AcDbEntity
  8
0
100
AcDbLine
 62
253
  6
CONTINUOUS
 10
97.5063697487
 20
115.5671753867
 11
97.920260977
 21
115.8994447386
  0
LINE
  5
246
100
AcDbEntity
  8
0
100
AcDbLine
 62
253
  6
CONTINUOUS
 10
97.7933112132
 20
115.8807155955
 11
97.7985463148
 21
115.8846735249
  0
LWPOLYLINE
  5
247
100
AcDbEntity
  8
0
100
AcDbPolyline
 62
7
  6
CONTINUOUS
 90
4
 70
0
 10
97.3786781527
 20
115.5478507052
 10
97.3839107157
 20
115.5518065967
 10
97.4009431569
 20
115.5618266759
 10
97.4197797418
 20
115.5689747279
  0
LWPOLYLINE
  5
248
100
AcDbEntity
  8
0
100
AcDbPolyline
 62
253
  6
CONTINUOUS
 90
6
 70
0
 10
97.920260977
 20
115.8994447386
 10
97.9328743247
 20
115.9085998229
 10
97.9453416815
 20
115.9148431083
 10
97.9574537941
 20
115.9180111715
 10
97.9690250704
 20
115.9179841767
 10
97.9739430217
 20
115.9169207086
  0
LWPOLYLINE
  5
249
100
AcDbEntity
  8
0
100
AcDbPolyline
 62
7
  6
CONTINUOUS
 90
3
 70
0
 10
97.7933112132
 20
115.8807155955
 10
97.8100405758
 20
115.8927814581
 10
97.8281972767
 20
115.9031992735
  0
LINE
  5
24A
100
AcDbEntity
  8
RACCORDO
100
AcDbLine
 62
7
  6
CONTINUOUS
 10
113.8898521097
 20
125.1199848689
 11
113.9112522286
 21
125.134068541
  0
LWPOLYLINE
  5
24B
100
AcDbEntity
  8
0
100
AcDbPolyline
 62
253
  6
CONTINUOUS
 90
7
 70
0
 10
97.7985463148
 20
115.8846735249
 10
97.8155553188
 20
115.8946750645
 10
97.8343253219
 20
115.9017703439
 10
97.8545352885
 20
115.905838008
 10
97.8758395545
 20
115.9068084847
 10
97.8978737389
 20
115.9046651755
 10
97.920260977
 20
115.8994447386
  0
LWPOLYLINE
  5
24C
100
AcDbEntity
  8
RACCORDO
100
AcDbPolyline
 62
7
  6
CONTINUOUS
 90
7
 70
0
 10
113.9112522286
 20
125.134068541
 10
113.9559461658
 20
125.1568225182
 10
114.0022718748
 20
125.1719400478
 10
114.0496483607
 20
125.1793280179
 10
114.0976857548
 20
125.179086558
 10
114.1461920893
 20
125.1715011499
 10
114.1647896664
 20
125.1666905475
  0
LWPOLYLINE
  5
24D
100
AcDbEntity
  8
0
100
AcDbPolyline
 62
7
  6
CONTINUOUS
 90
7
 70
0
 10
97.8281972767
 20
115.9031992735
 10
97.8475770543
 20
115.9117511482
 10
97.8679063153
 20
115.918245403
 10
97.888925925
 20
115.9225535704
 10
97.9104246007
 20
115.9245908819
 10
97.9321370732
 20
115.9242902064
 10
97.9536723439
 20
115.9216403716
  0
LINE
  5
24E
100
AcDbEntity
  8
0
100
AcDbLine
 62
7
  6
CONTINUOUS
 10
112.9441786205
 20
72.5402319564
 11
112.9717321374
 21
72.5322779412
  0
LINE
  5
24F
100
AcDbEntity
  8
0
100
AcDbLine
 62
7
  6
CONTINUOUS
 10
114.6056405962
 20
72.1734191396
 11
113.686778002
 21
72.4386719226
  0
LINE
  5
250
100
AcDbEntity
  8
0
100
AcDbLine
 62
253
  6
CONTINUOUS
 10
114.703783056
 20
72.2377843979
 11
113.7038029529
 21
72.5264537887
  0
LINE
  5
251
100
AcDbEntity
  8
0
100
AcDbLine
 62
7
  6
CONTINUOUS
 10
114.7834854488
 20
72.6942802213
 11
113.7511205185
 21
72.9922983065
  0
LINE
  5
252
100
AcDbEntity
  8
0
100
AcDbLine
 62
7
  6
CONTINUOUS
 10
116.2589085516
 20
73.8252041021
 11
115.0670965832
 21
74.1692505824
  0
LINE
  5
253
100
AcDbEntity
  8
0
100
AcDbLine
 62
7
  6
CONTINUOUS
 10
115.1970003937
 20
74.2316008125
 11
115.5434105553
 21
74.1316008125
  0
LWPOLYLINE
  5
254
100
AcDbEntity
  8
0
100
AcDbPolyline
 62
7
  6
CONTINUOUS
 90
10
 70
0
 10
95.9748131584
 20
113.2058495864
 10
95.9562526892
 20
113.1856087424
 10
95.9353493592
 20
113.1586378072
 10
95.91677254
 20
113.1295362007
 10
95.9007294423
 20
113.0985022578
 10
95.8873999733
 20
113.0657705926
 10
95.8768951859
 20
113.031547643
 10
95.869313729
 20
112.9960518588
 10
95.8647433647
 20
112.9595211622
 10
95.8632256067
 20
112.9223335746
  0
LWPOLYLINE
  5
255
100
AcDbEntity
  8
RACCORDO
100
AcDbPolyline
 62
7
  6
CONTINUOUS
 90
15
 70
0
 10
93.4389797494
 20
110.7586866383
 10
93.3953190717
 20
110.7132549297
 10
93.349732826
 20
110.6584733512
 10
93.305180825
 20
110.5964591632
 10
93.2626949939
 20
110.5280348115
 10
93.2248017052
 20
110.4576276176
 10
93.1918564827
 20
110.3873909562
 10
93.1626436795
 20
110.3159757116
 10
93.1369997441
 20
110.2436902501
 10
93.1150057408
 20
110.1715145479
 10
93.0963862105
 20
110.0991091061
 10
93.0807859469
 20
110.0249547529
 10
93.0683921794
 20
109.948590714
 10
93.0596819621
 20
109.8708164629
 10
93.0586530642
 20
109.8582146485
  0
LINE
  5
256
100
AcDbEntity
  8
0
100
AcDbLine
 62
7
  6
CONTINUOUS
 10
95.9742322478
 20
113.2052623446
 11
96.4918519086
 21
113.7311489186
  0
LINE
  5
257
100
AcDbEntity
  8
0
100
AcDbLine
 62
253
  6
CONTINUOUS
 10
96.317519372
 20
113.2756375181
 11
96.6760740012
 21
113.6399186299
  0
LWPOLYLINE
  5
258
100
AcDbEntity
  8
0
100
AcDbPolyline
 62
253
  6
CONTINUOUS
 90
13
 70
0
 10
98.4849199953
 20
113.919950631
 10
98.4723066475
 20
113.907258756
 10
98.4598392907
 20
113.891907946
 10
98.4477271781
 20
113.8740972148
 10
98.4361559019
 20
113.8540281817
 10
98.4253620421
 20
113.8320353113
 10
98.4156083497
 20
113.808618171
 10
98.4070769726
 20
113.7842250731
 10
98.399891431
 20
113.7592217358
 10
98.3941758425
 20
113.734042127
 10
98.3900257476
 20
113.7091155653
 10
98.3875086273
 20
113.6848589489
 10
98.3866652359
 20
113.6616808125
  0
LINE
  5
259
100
AcDbEntity
  8
RACCORDO
100
AcDbLine
 62
7
  6
CONTINUOUS
 10
93.4389710557
 20
110.7586956152
 11
93.8965719155
 21
111.2018343441
  0
LINE
  5
25A
100
AcDbEntity
  8
0
100
AcDbLine
 62
253
  6
CONTINUOUS
 10
93.7803662376
 20
110.8268128813
 11
94.2353834913
 21
111.2674496016
  0
LWPOLYLINE
  5
25B
100
AcDbEntity
  8
RACCORDO
100
AcDbPolyline
 62
253
  6
CONTINUOUS
 90
10
 70
0
 10
93.4390785346
 20
110.758799753
 10
93.4560962826
 20
110.7739854143
 10
93.4881314115
 20
110.7967727982
 10
93.5234371736
 20
110.8152126416
 10
93.5616270888
 20
110.8291030898
 10
93.6022831048
 20
110.8382920888
 10
93.6449601741
 20
110.8426790496
 10
93.689191125
 20
110.8422159495
 10
93.7344917765
 20
110.8369078582
 10
93.7803662376
 20
110.8268128813
  0
LINE
  5
25C
100
AcDbEntity
  8
0
100
AcDbLine
 62
253
  6
CONTINUOUS
 10
99.6714860181
 20
114.9421601562
 11
100.061085271
 21
115.2814419974
  0
LINE
  5
25D
100
AcDbEntity
  8
0
100
AcDbLine
 62
253
  6
CONTINUOUS
 10
99.8446647188
 20
114.7189890707
 11
100.2342639718
 21
115.0582709119
  0
LINE
  5
25E
100
AcDbEntity
  8
0
100
AcDbLine
 62
253
  6
CONTINUOUS
 10
98.4849199953
 20
113.919950631
 11
99.6714860181
 21
114.9421601562
  0
LINE
  5
25F
100
AcDbEntity
  8
0
100
AcDbLine
 62
253
  6
CONTINUOUS
 10
98.658098696
 20
113.6967795454
 11
99.8446647188
 21
114.7189890707
  0
LINE
  5
260
100
AcDbEntity
  8
0
100
AcDbLine
 62
253
  6
CONTINUOUS
 10
104.1583739105
 20
117.4821816828
 11
99.8446647188
 21
113.8421898249
  0
LINE
  5
261
100
AcDbEntity
  8
0
100
AcDbLine
 62
253
  6
CONTINUOUS
 10
104.4645484697
 20
117.5206183556
 11
99.856565635
 21
113.6323126645
  0
LINE
  5
262
100
AcDbEntity
  8
RACCORDO
100
AcDbLine
 62
7
  6
CONTINUOUS
 10
100.0159381736
 20
114.1800468334
 11
102.6875362041
 21
116.4313057633
  0
LINE
  5
263
100
AcDbEntity
  8
0
100
AcDbLine
 62
253
  6
CONTINUOUS
 10
100.0113978502
 20
114.1712694827
 11
102.76050673
 21
116.4878439988
  0
LINE
  5
264
100
AcDbEntity
  8
RACCORDO
100
AcDbLine
 62
7
  6
CONTINUOUS
 10
113.868657666
 20
125.1037597536
 11
108.3930818399
 21
120.6034668567
  0
LINE
  5
265
100
AcDbEntity
  8
DRAFT
100
AcDbLine
 62
7
  6
CONTINUOUS
 10
109.314940059
 20
121.2592075302
 11
104.6877460102
 21
117.4561867755
  0
LINE
  5
266
100
AcDbEntity
  8
DRAFT
100
AcDbLine
 62
7
  6
CONTINUOUS
 10
113.3041992757
 20
124.6995494591
 11
104.5341674947
 21
117.5005210742
  0
LINE
  5
267
100
AcDbEntity
  8
RACCORDO
100
AcDbLine
 62
253
  6
CONTINUOUS
 10
113.3548242701
 20
124.7382572824
 11
104.5372075789
 21
117.4996434775
  0
LINE
  5
268
100
AcDbEntity
  8
0
100
AcDbLine
 62
7
  6
CONTINUOUS
 10
100.0300940897
 20
113.5822193145
 11
100.4723852861
 21
113.943778186
  0
LINE
  5
269
100
AcDbEntity
  8
RACCORDO
100
AcDbLine
 62
7
  6
CONTINUOUS
 10
113.3120215353
 20
124.7059204138
 11
113.3041992757
 21
124.6995494591
  0
LINE
  5
26A
100
AcDbEntity
  8
0
100
AcDbLine
 62
7
  6
CONTINUOUS
 10
102.6870367495
 20
116.4307642576
 11
102.76050673
 21
116.4878439988
  0
LINE
  5
26B
100
AcDbEntity
  8
RACCORDO
100
AcDbLine
 62
7
  6
CONTINUOUS
 10
113.868657666
 20
125.1037597536
 11
113.8898521097
 21
125.1199848689
  0
LINE
  5
26C
100
AcDbEntity
  8
RACCORDO
100
AcDbLine
 62
253
  6
CONTINUOUS
 10
113.3548242701
 20
124.7382572824
 11
113.3041992757
 21
124.6995494591
  0
LINE
  5
26D
100
AcDbEntity
  8
RACCORDO
100
AcDbLine
 62
253
  6
CONTINUOUS
 10
113.3763464209
 20
124.7547155814
 11
113.3548242701
 21
124.7382572824
  0
LWPOLYLINE
  5
26E
100
AcDbEntity
  8
0
100
AcDbPolyline
 62
7
  6
CONTINUOUS
 90
3
 70
0
 10
98.9794833457
 20
112.303747365
 10
98.9596019006
 20
112.289102217
 10
98.9204723181
 20
112.2608823038
  0
LWPOLYLINE
  5
26F
100
AcDbEntity
  8
0
100
AcDbPolyline
 62
7
  6
CONTINUOUS
 90
11
 70
0
 10
110.9050478314
 20
121.451073167
 10
110.8587109932
 20
121.4169539567
 10
110.8125974757
 20
121.3828180812
 10
110.7667947925
 20
121.3487318424
 10
110.721538464
 20
121.3148702915
 10
110.6770825386
 20
121.2814232838
 10
110.6336022574
 20
121.2485205081
 10
110.5913834992
 20
121.216374548
 10
110.5507618441
 20
121.1852378177
 10
110.5120393504
 20
121.1553391545
 10
110.4755433804
 20
121.1269264828
  0
LINE
  5
270
100
AcDbEntity
  8
0
100
AcDbLine
 62
7
  6
CONTINUOUS
 10
110.95143752
 20
121.4850455296
 11
110.9050478314
 21
121.451073167
  0
LINE
  5
271
100
AcDbEntity
  8
0
100
AcDbLine
 62
253
  6
CONTINUOUS
 10
110.9227695333
 20
121.4638761358
 11
110.9604865022
 21
121.491444471
  0
LINE
  5
272
100
AcDbEntity
  8
0
100
AcDbLine
 62
7
  6
CONTINUOUS
 10
98.9204723181
 20
112.2608823038
 11
98.9017817655
 21
112.2472306965
  0
LWPOLYLINE
  5
273
100
AcDbEntity
  8
RACCORDO
100
AcDbPolyline
 62
7
  6
CONTINUOUS
 90
8
 70
0
 10
113.3681391615
 20
124.7488300251
 10
113.3599786696
 20
124.7428826952
 10
113.3518654302
 20
124.7368739687
 10
113.3438001329
 20
124.7308043863
 10
113.3357830386
 20
124.7246741777
 10
113.3278139921
 20
124.7184832452
 10
113.3198932635
 20
124.7122318072
 10
113.3120215353
 20
124.7059204138
  0
LINE
  5
274
100
AcDbEntity
  8
0
100
AcDbLine
 62
7
  6
CONTINUOUS
 10
111.0010019678
 20
121.5211302891
 11
110.95143752
 21
121.4850455296
  0
LINE
  5
275
100
AcDbEntity
  8
0
100
AcDbLine
 62
253
  6
CONTINUOUS
 10
110.9604865022
 20
121.491444471
 11
111.0129815291
 21
121.5295480196
  0
LINE
  5
276
100
AcDbEntity
  8
0
100
AcDbLine
 62
7
  6
CONTINUOUS
 10
111.0231626482
 20
121.5371399074
 11
111.0009770593
 21
121.5211119326
  0
LWPOLYLINE
  5
277
100
AcDbEntity
  8
0
100
AcDbPolyline
 62
253
  6
CONTINUOUS
 90
13
 70
0
 10
98.658098696
 20
113.3119587053
 10
98.6433677838
 20
113.3013249407
 10
98.6260148165
 20
113.2917309048
 10
98.606330156
 20
113.2833371316
 10
98.5846431795
 20
113.2762840715
 10
98.5613167686
 20
113.2706897411
 10
98.5367412367
 20
113.2666477488
 10
98.5113277987
 20
113.2642257278
 10
98.4855016896
 20
113.2634642051
 10
98.4596950498
 20
113.2643759231
 10
98.4343396938
 20
113.2669456262
 10
98.4098598848
 20
113.2711303163
 10
98.3866652359
 20
113.2768599724
  0
LINE
  5
278
100
AcDbEntity
  8
0
100
AcDbLine
 62
253
  6
CONTINUOUS
 10
111.0129815291
 20
121.5295480196
 11
111.0418792783
 21
121.5502233083
  0
LINE
  5
279
100
AcDbEntity
  8
RACCORDO
100
AcDbLine
 62
7
  6
CONTINUOUS
 10
113.3681391615
 20
124.7488300251
 11
113.8681149285
 21
125.1045227489
  0
LINE
  5
27A
100
AcDbEntity
  8
RACCORDO
100
AcDbLine
 62
253
  6
CONTINUOUS
 10
113.3548242701
 20
124.7382572824
 11
113.868657666
 21
125.1037597536
  0
LINE
  5
27B
100
AcDbEntity
  8
DRAFT
100
AcDbLine
 62
7
  6
CONTINUOUS
 10
108.3930818399
 20
120.6034668567
 11
109.314940059
 21
121.2592075302
  0
LINE
  5
27C
100
AcDbEntity
  8
0
100
AcDbLine
 62
7
  6
CONTINUOUS
 10
104.1583739105
 20
117.4821816828
 11
102.76050673
 21
116.4878439988
  0
LWPOLYLINE
  5
27D
100
AcDbEntity
  8
0
100
AcDbPolyline
 62
7
  6
CONTINUOUS
 90
3
 70
0
 10
111.0582649147
 20
121.5621373985
 10
111.0414235919
 20
121.5502075973
 10
111.0231626482
 20
121.5371399074
  0
LINE
  5
27E
100
AcDbEntity
  8
0
100
AcDbLine
 62
253
  6
CONTINUOUS
 10
111.119770742
 20
121.6039793971
 11
111.1040018231
 21
121.5928080861
  0
LWPOLYLINE
  5
27F
100
AcDbEntity
  8
0
100
AcDbPolyline
 62
253
  6
CONTINUOUS
 90
6
 70
0
 10
111.0418792783
 20
121.5502233083
 10
111.0549004096
 20
121.5594152525
 10
111.0669429396
 20
121.5678261891
 10
111.0778863935
 20
121.5753786842
 10
111.0876906128
 20
121.5820469264
 10
111.096395756
 20
121.5878567271
  0
LWPOLYLINE
  5
280
100
AcDbEntity
  8
0
100
AcDbPolyline
 62
7
  6
CONTINUOUS
 90
3
 70
0
 10
111.0879756067
 20
121.5827960711
 10
111.073787981
 20
121.5730039269
 10
111.0582649147
 20
121.5621373985
  0
LINE
  5
281
100
AcDbEntity
  8
0
100
AcDbLine
 62
253
  6
CONTINUOUS
 10
111.096395756
 20
121.5878567271
 11
111.104001823
 21
121.5928080862
  0
LWPOLYLINE
  5
282
100
AcDbEntity
  8
0
100
AcDbPolyline
 62
7
  6
CONTINUOUS
 90
4
 70
0
 10
111.1201183558
 20
121.604200021
 10
111.112817946
 20
121.5994698427
 10
111.1008578326
 20
121.5915345248
 10
111.0879756067
 20
121.5827960711
  0
LINE
  5
283
100
AcDbEntity
  8
0
100
AcDbLine
 62
7
  6
CONTINUOUS
 10
97.1260475158
 20
110.9138252376
 11
96.608263034
 21
110.5824582802
  0
LWPOLYLINE
  5
284
100
AcDbEntity
  8
0
100
AcDbPolyline
 62
253
  6
CONTINUOUS
 90
12
 70
0
 10
111.104001823
 20
121.5928080862
 10
111.1123154972
 20
121.5980291256
 10
111.1188915678
 20
121.6019602382
 10
111.1237300346
 20
121.6046014241
 10
111.1267927907
 20
121.6059191367
 10
111.1281179431
 20
121.6059469226
 10
111.1278198128
 20
121.6047854211
 10
111.1258658382
 20
121.6024094374
 10
111.1222885809
 20
121.5988441663
 10
111.1173000475
 20
121.5942658314
 10
111.1109709068
 20
121.5887331741
 10
111.1032304899
 20
121.582187453
  0
LWPOLYLINE
  5
285
100
AcDbEntity
  8
0
100
AcDbPolyline
 62
253
  6
CONTINUOUS
 90
5
 70
0
 10
106.6878288597
 20
116.7097293981
 10
106.6721264037
 20
116.7017734529
 10
106.6562722923
 20
116.6922247553
 10
106.6403118298
 20
116.6811105914
 10
106.6242906242
 20
116.6684627205
  0
LWPOLYLINE
  5
286
100
AcDbEntity
  8
0
100
AcDbPolyline
 62
253
  6
CONTINUOUS
 90
3
 70
0
 10
106.3342704862
 20
116.8184604809
 10
106.3098243968
 20
116.8072252948
 10
106.2850034615
 20
116.7922491219
  0
LWPOLYLINE
  5
287
100
AcDbEntity
  8
0
100
AcDbPolyline
 62
7
  6
CONTINUOUS
 90
3
 70
0
 10
106.2363032256
 20
116.8153030513
 10
106.1991275112
 20
116.7984859445
 10
106.1613921259
 20
116.7758623063
  0
LWPOLYLINE
  5
288
100
AcDbEntity
  8
RACCORDO
100
AcDbPolyline
 62
7
  6
CONTINUOUS
 90
3
 70
0
 10
111.7235012146
 20
118.3794423812
 10
111.6546763236
 20
118.3492900676
 10
111.5898803906
 20
118.3149749941
  0
LINE
  5
289
100
AcDbEntity
  8
0
100
AcDbLine
 62
7
  6
CONTINUOUS
 10
113.0252726849
 20
119.6320379768
 11
114.1752726849
 21
120.0702468311
  0
LWPOLYLINE
  5
28A
100
AcDbEntity
  8
RACCORDO
100
AcDbPolyline
 62
253
  6
CONTINUOUS
 90
8
 70
0
 10
122.1495699432
 20
122.7132662874
 10
122.2115264522
 20
122.7366284697
 10
122.2727529105
 20
122.7539087641
 10
122.3329447268
 20
122.7648812066
 10
122.392086763
 20
122.7693229244
 10
122.4495845174
 20
122.7671214233
 10
122.5042968635
 20
122.7584222056
 10
122.5289412695
 20
122.7521281188
  0
LINE
  5
28B
100
AcDbEntity
  8
0
100
AcDbLine
 62
7
  6
CONTINUOUS
 10
114.7834854488
 20
75.7189892339
 11
113.6594463534
 21
76.043471371
  0
LINE
  5
28C
100
AcDbEntity
  8
0
100
AcDbLine
 62
253
  6
CONTINUOUS
 10
114.703783056
 20
76.2018233827
 11
113.7511205185
 21
76.476833369
  0
LINE
  5
28D
100
AcDbEntity
  8
RACCORDO
100
AcDbLine
 62
253
  6
CONTINUOUS
 10
111.001497173
 20
77.3712372095
 11
92.8354587661
 21
82.6153207917
  0
LINE
  5
28E
100
AcDbEntity
  8
0
100
AcDbLine
 62
253
  6
CONTINUOUS
 10
114.603783056
 20
76.5173244205
 11
113.8523458198
 21
76.7342456658
  0
LWPOLYLINE
  5
28F
100
AcDbEntity
  8
0
100
AcDbPolyline
 62
7
  6
CONTINUOUS
 90
9
 70
0
 10
113.685613749
 20
72.4390081361
 10
113.6841545043
 20
72.4396768511
 10
113.681509306
 20
72.4435322574
 10
113.6808812488
 20
72.4503256889
 10
113.6823780501
 20
72.4599779536
 10
113.6853575039
 20
72.4726107677
 10
113.6897068231
 20
72.4881280557
 10
113.6958219389
 20
72.5061820898
 10
113.7038029529
 20
72.5264537887
  0
LWPOLYLINE
  5
290
100
AcDbEntity
  8
RACCORDO
100
AcDbPolyline
 62
7
  6
CONTINUOUS
 90
15
 70
0
 10
93.0592276684
 20
73.1219060189
 10
93.0611444776
 20
73.1026217601
 10
93.072398433
 20
73.0258062714
 10
93.0889141803
 20
72.9536038285
 10
93.1106097878
 20
72.8857437906
 10
93.1374656413
 20
72.8220327917
 10
93.1693404077
 20
72.7627042418
 10
93.2059500188
 20
72.7080850521
 10
93.247096855
 20
72.6582754188
 10
93.2924323011
 20
72.613571657
 10
93.3413412382
 20
72.5744138002
 10
93.3933837983
 20
72.5409621941
 10
93.4482964564
 20
72.5132650185
 10
93.5055726571
 20
72.4915242256
 10
93.5226970053
 20
72.4863156073
  0
LINE
  5
291
100
AcDbEntity
  8
RACCORDO
100
AcDbLine
 62
7
  6
CONTINUOUS
 10
93.0591969609
 20
73.122133944
 11
93.0592177442
 21
73.1219051169
  0
LWPOLYLINE
  5
292
100
AcDbEntity
  8
RACCORDO
100
AcDbPolyline
 62
253
  6
CONTINUOUS
 90
10
 70
0
 10
93.3099812392
 20
72.8882810522
 10
93.2210654152
 20
73.9290639112
 10
93.1411634758
 20
74.9803738034
 10
93.0702931244
 20
76.0419878775
 10
93.008470592
 20
77.1136809141
 10
92.9557090416
 20
78.1952260112
 10
92.9120185704
 20
79.2863946384
 10
92.8774083284
 20
80.3869558309
 10
92.8518865103
 20
81.4966762334
 10
92.8354587661
 20
82.6153207917
  0
LWPOLYLINE
  5
293
100
AcDbEntity
  8
0
100
AcDbPolyline
 62
7
  6
CONTINUOUS
 90
15
 70
0
 10
99.1732152257
 20
113.240607641
 10
99.1625985749
 20
113.2229531458
 10
99.1503911407
 20
113.2059622163
 10
99.1366658869
 20
113.1897210431
 10
99.1215304917
 20
113.1742266321
 10
99.1050842514
 20
113.1596458447
 10
99.0874075126
 20
113.1463219814
 10
99.0686487511
 20
113.1343286988
 10
99.0489695222
 20
113.1237445489
 10
99.0284863786
 20
113.1149286812
 10
99.0073713761
 20
113.107946279
 10
98.985885315
 20
113.1028622548
 10
98.9643058413
 20
113.1000263011
 10
98.9429097814
 20
113.0995672156
 10
98.9245981478
 20
113.1010365375
  0
LWPOLYLINE
  5
294
100
AcDbEntity
  8
0
100
AcDbPolyline
 62
253
  6
CONTINUOUS
 90
5
 70
0
 10
100.2342639718
 20
115.0582709119
 10
100.2453167363
 20
115.0699664663
 10
100.2532576103
 20
115.0822775395
 10
100.2579537218
 20
115.0949981342
 10
100.2593400304
 20
115.1067518739
  0
LWPOLYLINE
  5
295
100
AcDbEntity
  8
0
100
AcDbPolyline
 62
253
  6
CONTINUOUS
 90
13
 70
0
 10
102.2673096616
 20
112.9875228819
 10
102.2547037801
 20
112.9748393487
 10
102.2422412352
 20
112.9594967506
 10
102.2301312156
 20
112.941692432
 10
102.2185588225
 20
112.921625344
 10
102.2077617959
 20
112.8996298535
 10
102.1980051308
 20
112.876209027
 10
102.1894715114
 20
112.8518126364
 10
102.182284038
 20
112.8268054251
 10
102.176567036
 20
112.8016221342
 10
102.1724160429
 20
112.776692456
 10
102.1698984373
 20
112.7524332267
 10
102.1690549023
 20
112.7292530634
  0
LINE
  5
296
100
AcDbEntity
  8
0
100
AcDbLine
 62
7
  6
CONTINUOUS
 10
97.4306036603
 20
110.3450689893
 11
97.9186549724
 21
110.8005182152
  0
LINE
  5
297
100
AcDbEntity
  8
0
100
AcDbLine
 62
253
  6
CONTINUOUS
 10
97.8408868605
 20
110.2266304312
 11
98.5887959835
 21
110.9245788288
  0
LINE
  5
298
100
AcDbEntity
  8
0
100
AcDbLine
 62
7
  6
CONTINUOUS
 10
102.308661135
 20
113.6843270333
 11
101.6759656139
 21
113.0938959081
  0
LINE
  5
299
100
AcDbEntity
  8
0
100
AcDbLine
 62
253
  6
CONTINUOUS
 10
102.4427145502
 20
113.7091626848
 11
101.8106735621
 21
113.1193423694
  0
LINE
  5
29A
100
AcDbEntity
  8
0
100
AcDbLine
 62
7
  6
CONTINUOUS
 10
99.1732152257
 20
112.4556137868
 11
99.8446647188
 21
113.0735144235
  0
LINE
  5
29B
100
AcDbEntity
  8
0
100
AcDbLine
 62
253
  6
CONTINUOUS
 10
102.2673096616
 20
112.9875228819
 11
102.7673096616
 21
113.4356521134
  0
LINE
  5
29C
100
AcDbEntity
  8
0
100
AcDbLine
 62
253
  6
CONTINUOUS
 10
102.442259983
 20
112.7658556038
 11
102.842259983
 21
113.1243589891
  0
LINE
  5
29D
100
AcDbEntity
  8
0
100
AcDbLine
 62
7
  6
CONTINUOUS
 10
105.4984596242
 20
117.2221539139
 11
102.0666152552
 21
114.2419414698
  0
LINE
  5
29E
100
AcDbEntity
  8
0
100
AcDbLine
 62
7
  6
CONTINUOUS
 10
102.3086959246
 20
113.6843594264
 11
102.3150229543
 21
113.6898380033
  0
LINE
  5
29F
100
AcDbEntity
  8
0
100
AcDbLine
 62
7
  6
CONTINUOUS
 10
100.2915595286
 20
110.7240967469
 11
100.5020828851
 21
110.905459584
  0
LWPOLYLINE
  5
2A0
100
AcDbEntity
  8
0
100
AcDbPolyline
 62
7
  6
CONTINUOUS
 90
7
 70
0
 10
99.1695158791
 20
112.4523370425
 10
99.1578726302
 20
112.4424850635
 10
99.1446066829
 20
112.431535257
 10
99.1298249717
 20
112.419573781
 10
99.1136019189
 20
112.4065588883
 10
99.0961271501
 20
112.3926953543
 10
99.0777373465
 20
112.3784062315
  0
LINE
  5
2A1
100
AcDbEntity
  8
0
100
AcDbLine
 62
253
  6
CONTINUOUS
 10
103.3208001429
 20
113.9074306661
 11
106.6242906242
 21
116.6684627205
  0
LINE
  5
2A2
100
AcDbEntity
  8
0
100
AcDbLine
 62
253
  6
CONTINUOUS
 10
106.7957504643
 20
116.4437725969
 11
103.6773845899
 21
113.8374662718
  0
LINE
  5
2A3
100
AcDbEntity
  8
0
100
AcDbLine
 62
253
  6
CONTINUOUS
 10
100.9407062115
 20
113.3193482376
 11
110.3759846785
 21
121.0473006101
  0
LINE
  5
2A4
100
AcDbEntity
  8
0
100
AcDbLine
 62
253
  6
CONTINUOUS
 10
111.1032304899
 20
121.582187453
 11
100.9956169942
 21
113.3034968601
  0
LINE
  5
2A5
100
AcDbEntity
  8
0
100
AcDbLine
 62
253
  6
CONTINUOUS
 10
111.2470339506
 20
121.593748647
 11
101.0914511151
 21
113.2758319323
  0
LINE
  5
2A6
100
AcDbEntity
  8
0
100
AcDbLine
 62
7
  6
CONTINUOUS
 10
110.382855774
 20
121.053286111
 11
100.9403280339
 21
113.3194574081
  0
LWPOLYLINE
  5
2A7
100
AcDbEntity
  8
0
100
AcDbPolyline
 62
253
  6
CONTINUOUS
 90
3
 70
0
 10
110.3759846785
 20
121.0473006101
 10
110.3959111616
 20
121.0635173173
 10
110.4181769939
 20
121.0813962183
  0
LINE
  5
2A8
100
AcDbEntity
  8
0
100
AcDbLine
 62
253
  6
CONTINUOUS
 10
100.8655740506
 20
113.3863992421
 11
100.905767734
 21
113.4186664858
  0
LINE
  5
2A9
100
AcDbEntity
  8
0
100
AcDbLine
 62
253
  6
CONTINUOUS
 10
106.2599708835
 20
116.7736327706
 11
102.4427145502
 21
113.7091626848
  0
LINE
  5
2AA
100
AcDbEntity
  8
0
100
AcDbLine
 62
7
  6
CONTINUOUS
 10
106.133536588
 20
116.7553149698
 11
102.315041945
 21
113.6898532489
  0
LINE
  5
2AB
100
AcDbEntity
  8
0
100
AcDbLine
 62
253
  6
CONTINUOUS
 10
110.4181769939
 20
121.0813962183
 11
110.4427821754
 21
121.1009373133
  0
LWPOLYLINE
  5
2AC
100
AcDbEntity
  8
0
100
AcDbPolyline
 62
253
  6
CONTINUOUS
 90
14
 70
0
 10
110.4427821754
 20
121.1009373133
 10
110.4697660255
 20
121.1221793113
 10
110.4990892248
 20
121.1450835033
 10
110.5306338156
 20
121.1695337617
 10
110.5645753005
 20
121.1956620103
 10
110.6007381769
 20
121.2233363254
 10
110.6384779791
 20
121.2520448089
 10
110.67805505
 20
121.2819744427
 10
110.7192090468
 20
121.3129382448
 10
110.7605144742
 20
121.3438633719
 10
110.8019262171
 20
121.3747039649
 10
110.8434893908
 20
121.4055058828
 10
110.8839138461
 20
121.4353338583
 10
110.9227695333
 20
121.4638761358
  0
LWPOLYLINE
  5
2AD
100
AcDbEntity
  8
0
100
AcDbPolyline
 62
7
  6
CONTINUOUS
 90
4
 70
0
 10
110.4755433804
 20
121.1269264828
 10
110.441664474
 20
121.1003021578
 10
110.4106992367
 20
121.0757005856
 10
110.382855774
 20
121.053286111
  0
LINE
  5
2AE
100
AcDbEntity
  8
0
100
AcDbLine
 62
253
  6
CONTINUOUS
 10
111.0009770593
 20
121.5211119326
 11
110.9970647528
 21
121.5180388638
  0
LWPOLYLINE
  5
2AF
100
AcDbEntity
  8
0
100
AcDbPolyline
 62
7
  6
CONTINUOUS
 90
4
 70
0
 10
99.0777373465
 20
112.3784062315
 10
99.0391558129
 20
112.3486438816
 10
99.0192747818
 20
112.333606884
 10
98.9794833457
 20
112.303747365
  0
LINE
  5
2B0
100
AcDbEntity
  8
0
100
AcDbLine
 62
253
  6
CONTINUOUS
 10
110.3683486853
 20
121.0414652763
 11
110.3759846785
 21
121.0473006101
  0
LWPOLYLINE
  5
2B1
100
AcDbEntity
  8
0
100
AcDbPolyline
 62
7
  6
CONTINUOUS
 90
4
 70
0
 10
102.3150229543
 20
113.6898380033
 10
102.3202555173
 20
113.6937938948
 10
102.3372879585
 20
113.703813974
 10
102.3561245434
 20
113.710962026
  0
LWPOLYLINE
  5
2B2
100
AcDbEntity
  8
0
100
AcDbPolyline
 62
253
  6
CONTINUOUS
 90
7
 70
0
 10
113.8564307058
 20
120.8404806875
 10
113.8822461989
 20
120.8597370103
 10
113.9077383495
 20
120.8741078062
 10
113.9326340269
 20
120.883439102
 10
113.956666491
 20
120.8876309192
 10
113.9795782508
 20
120.8866383453
 10
113.9907426532
 20
120.8841398401
  0
LWPOLYLINE
  5
2B3
100
AcDbEntity
  8
0
100
AcDbPolyline
 62
7
  6
CONTINUOUS
 90
3
 70
0
 10
102.2675422167
 20
111.3761031008
 10
102.2521074764
 20
111.3645928814
 10
102.2223276066
 20
111.342562281
  0
LWPOLYLINE
  5
2B4
100
AcDbEntity
  8
0
100
AcDbPolyline
 62
253
  6
CONTINUOUS
 90
8
 70
0
 10
114.0278905459
 20
120.615790564
 10
114.0434856412
 20
120.6273953985
 10
114.0586269366
 20
120.6359594156
 10
114.073314432
 20
120.6414826154
 10
114.0877197751
 20
120.643972495
 10
114.1016713182
 20
120.6434215571
 10
114.1146541191
 20
120.6398073108
 10
114.1266072275
 20
120.6330231431
  0
LINE
  5
2B5
100
AcDbEntity
  8
0
100
AcDbLine
 62
253
  6
CONTINUOUS
 10
106.2850034615
 20
116.7922491219
 11
106.2599708835
 21
116.7736327706
  0
LINE
  5
2B6
100
AcDbEntity
  8
0
100
AcDbLine
 62
7
  6
CONTINUOUS
 10
106.1613921259
 20
116.7758623063
 11
106.133543689
 21
116.7553060528
  0
LWPOLYLINE
  5
2B7
100
AcDbEntity
  8
0
100
AcDbPolyline
 62
7
  6
CONTINUOUS
 90
4
 70
0
 10
102.2223276066
 20
111.342562281
 10
102.2081402122
 20
111.3322057758
 10
102.1944936504
 20
111.3223990263
 10
102.1690549023
 20
111.3040501839
  0
LINE
  5
2B8
100
AcDbEntity
  8
0
100
AcDbLine
 62
7
  6
CONTINUOUS
 10
101.223752656
 20
110.7551656802
 11
101.2587796251
 21
110.7797165968
  0
LINE
  5
2B9
100
AcDbEntity
  8
0
100
AcDbLine
 62
7
  6
CONTINUOUS
 10
101.2130898146
 20
110.7478544907
 11
101.223752656
 21
110.7551656802
  0
LINE
  5
2BA
100
AcDbEntity
  8
RACCORDO
100
AcDbLine
 62
7
  6
CONTINUOUS
 10
111.5898803906
 20
118.3149749941
 11
111.5309846268
 21
118.2772858214
  0
LWPOLYLINE
  5
2BB
100
AcDbEntity
  8
RACCORDO
100
AcDbPolyline
 62
7
  6
CONTINUOUS
 90
3
 70
0
 10
111.530984719
 20
118.2772858965
 10
111.5473513944
 20
118.2867794531
 10
111.5656714394
 20
118.2934982713
  0
LWPOLYLINE
  5
2BC
100
AcDbEntity
  8
0
100
AcDbPolyline
 62
7
  6
CONTINUOUS
 90
7
 70
0
 10
107.4843805289
 20
112.6826865716
 10
107.5037603065
 20
112.6912384463
 10
107.5240895674
 20
112.6977327011
 10
107.5451091772
 20
112.7020408685
 10
107.5666078529
 20
112.70407818
 10
107.5883203254
 20
112.7037775045
 10
107.6098555961
 20
112.7011276697
  0
LWPOLYLINE
  5
2BD
100
AcDbEntity
  8
RACCORDO
100
AcDbPolyline
 62
253
  6
CONTINUOUS
 90
12
 70
0
 10
117.0845518341
 20
117.103904905
 10
117.0947647781
 20
117.1075310446
 10
117.1049402492
 20
117.1103983197
 10
117.1150343294
 20
117.1124921271
 10
117.1250071528
 20
117.113801496
 10
117.1348111845
 20
117.1143174444
 10
117.1443922039
 20
117.114036189
 10
117.1537131131
 20
117.1129587494
 10
117.1627293494
 20
117.1110902051
 10
117.1713804428
 20
117.1084468618
 10
117.1796148351
 20
117.105054607
 10
117.1874196555
 20
117.100929301
  0
LINE
  5
2BE
100
AcDbEntity
  8
0
100
AcDbLine
 62
7
  6
CONTINUOUS
 10
114.603783056
 20
77.2895992533
 11
114.523795313
 21
77.3126897258
  0
LWPOLYLINE
  5
2BF
100
AcDbEntity
  8
0
100
AcDbPolyline
 62
253
  6
CONTINUOUS
 90
4
 70
0
 10
115.2214741859
 20
69.2734872425
 10
115.2409249722
 20
69.2592321174
 10
115.258463095
 20
69.2422674487
 10
115.2737902948
 20
69.2228810922
  0
LWPOLYLINE
  5
2C0
100
AcDbEntity
  8
0
100
AcDbPolyline
 62
7
  6
CONTINUOUS
 90
6
 70
0
 10
115.2709121177
 20
69.2397525171
 10
115.2542447825
 20
69.254920205
 10
115.235890951
 20
69.2681715172
 10
115.2160718829
 20
69.2793054291
 10
115.1950961924
 20
69.288125989
 10
115.1835611475
 20
69.2918320091
  0
LWPOLYLINE
  5
2C1
100
AcDbEntity
  8
RACCORDO
100
AcDbPolyline
 62
253
  6
CONTINUOUS
 90
11
 70
0
 10
93.0592177442
 20
73.1219051169
 10
93.0623562075
 20
73.1009225585
 10
93.0713846455
 20
73.0705403013
 10
93.0855616848
 20
73.0411808986
 10
93.1047370715
 20
73.0131555128
 10
93.1287075773
 20
72.9867611681
 10
93.1572191534
 20
72.9622776021
 10
93.1899696229
 20
72.939964301
 10
93.2266118834
 20
72.9200577501
 10
93.2667575859
 20
72.9027689267
 10
93.3099812503
 20
72.8882810646
  0
LWPOLYLINE
  5
2C2
100
AcDbEntity
  8
RACCORDO
100
AcDbPolyline
 62
253
  6
CONTINUOUS
 90
12
 70
0
 10
92.585441598
 20
82.8347275826
 10
92.5855110254
 20
82.8316186617
 10
92.5890600452
 20
82.8052360806
 10
92.5978676486
 20
82.7792219654
 10
92.6118405242
 20
82.7538519211
 10
92.6308306372
 20
82.7293947287
 10
92.6546367982
 20
82.7061094983
 10
92.6830067945
 20
82.6842429236
 10
92.7156400621
 20
82.6640266685
 10
92.7521908703
 20
82.6456749128
 10
92.7922719838
 20
82.6293820829
 10
92.8354587663
 20
82.6153207919
  0
LWPOLYLINE
  5
2C3
100
AcDbEntity
  8
RACCORDO
100
AcDbPolyline
 62
7
  6
CONTINUOUS
 90
10
 70
0
 10
92.5854416134
 20
82.8347278033
 10
92.6009322154
 20
81.7666495332
 10
92.6263933925
 20
80.6441297523
 10
92.6611660598
 20
79.5308368647
 10
92.7052459422
 20
78.4270453112
 10
92.758626091
 20
77.332978724
 10
92.821299668
 20
76.2488415852
 10
92.8932580548
 20
75.1748560305
 10
92.9744855079
 20
74.1112849339
 10
93.0591969609
 20
73.122133944
  0
LWPOLYLINE
  5
2C4
100
AcDbEntity
  8
RACCORDO
100
AcDbPolyline
 62
253
  6
CONTINUOUS
 90
12
 70
0
 10
92.5854405487
 20
99.2832300451
 10
92.5855110362
 20
99.277752227
 10
92.5890600573
 20
99.2527993362
 10
92.5978676618
 20
99.2281138929
 10
92.611840538
 20
99.2039574253
 10
92.6308306514
 20
99.1805858575
 10
92.6546368126
 20
99.1582467978
 10
92.6830068087
 20
99.1371769159
 10
92.7156400759
 20
99.1175994352
 10
92.7521908833
 20
99.0997217678
 10
92.7922719959
 20
99.0837333176
 10
92.8354587772
 20
99.0698034729
  0
LWPOLYLINE
  5
2C5
100
AcDbEntity
  8
RACCORDO
100
AcDbPolyline
 62
253
  6
CONTINUOUS
 90
10
 70
0
 10
92.8354587661
 20
82.6153207917
 10
92.8184375098
 20
84.4278456598
 10
92.8056717218
 20
86.2443658758
 10
92.7971613678
 20
88.0648488059
 10
92.7929063641
 20
89.8892369753
 10
92.7929063664
 20
91.7175222879
 10
92.7971613739
 20
93.5497465503
 10
92.8056717298
 20
95.3859022619
 10
92.8184375162
 20
97.2259320915
 10
92.8354587661
 20
99.0698034636
  0
LWPOLYLINE
  5
2C6
100
AcDbEntity
  8
RACCORDO
100
AcDbPolyline
 62
253
  6
CONTINUOUS
 90
12
 70
0
 10
93.0586530642
 20
109.8582146485
 10
93.0585787406
 20
109.8485870153
 10
93.0623638193
 20
109.828747644
 10
93.0713930227
 20
109.8088143806
 10
93.0855706584
 20
109.7889984802
 10
93.1047464699
 20
109.7695099541
 10
93.1287172296
 20
109.7505553441
 10
93.1572288926
 20
109.7323355335
 10
93.1899792889
 20
109.7150436184
 10
93.2266213257
 20
109.6988628605
 10
93.2667666662
 20
109.6839647456
 10
93.3099898454
 20
109.6705071656
  0
LWPOLYLINE
  5
2C7
100
AcDbEntity
  8
RACCORDO
100
AcDbPolyline
 62
7
  6
CONTINUOUS
 90
10
 70
0
 10
92.5854405399
 20
99.2832301901
 10
92.568829184
 20
97.4896611541
 10
92.5558671839
 20
95.6353155333
 10
92.547227867
 20
93.7848566071
 10
92.5429115171
 20
91.9383223445
 10
92.5429182256
 20
90.095744257
 10
92.5472480482
 20
88.2571514372
 10
92.5559010024
 20
86.4225753963
 10
92.5688769138
 20
84.592053752
 10
92.585441598
 20
82.8347275826
  0
LWPOLYLINE
  5
2C8
100
AcDbEntity
  8
RACCORDO
100
AcDbPolyline
 62
253
  6
CONTINUOUS
 90
10
 70
0
 10
92.8354587661
 20
99.0698034636
 10
92.8518865097
 20
100.2186950636
 10
92.8774083273
 20
101.3754043059
 10
92.9120185692
 20
102.5396863504
 10
92.9557090407
 20
103.7112948648
 10
93.0084705918
 20
104.8899818196
 10
93.0702931246
 20
106.075497544
 10
93.141163476
 20
107.2675911204
 10
93.2210654154
 20
108.4660104335
 10
93.3099812392
 20
109.6705019687
  0
LWPOLYLINE
  5
2C9
100
AcDbEntity
  8
RACCORDO
100
AcDbPolyline
 62
7
  6
CONTINUOUS
 90
10
 70
0
 10
93.0586643832
 20
109.8584441466
 10
92.9736771164
 20
108.7092749507
 10
92.8926237186
 20
107.4980786471
 10
92.8208068879
 20
106.2932540828
 10
92.7582471
 20
105.0950966116
 10
92.7049577752
 20
103.903849737
 10
92.6609506658
 20
102.7197381426
 10
92.6262374116
 20
101.5430045523
 10
92.6008269211
 20
100.3739363016
 10
92.5854405487
 20
99.2832300451
  0
LWPOLYLINE
  5
2CA
100
AcDbEntity
  8
RACCORDO
100
AcDbPolyline
 62
253
  6
CONTINUOUS
 90
19
 70
0
 10
93.3099812392
 20
109.6705019687
 10
93.3170792211
 20
109.7427376525
 10
93.3270373503
 20
109.8163506809
 10
93.3397944377
 20
109.8908997088
 10
93.3552698569
 20
109.9659395155
 10
93.3733708784
 20
110.0410188242
 10
93.3939929225
 20
110.1156830248
 10
93.4170073422
 20
110.1894833516
 10
93.4422741692
 20
110.2619798541
 10
93.469649947
 20
110.3327389675
 10
93.4989658629
 20
110.4013374771
 10
93.5300428094
 20
110.4673648537
 10
93.5627046366
 20
110.5304254231
 10
93.5967514912
 20
110.5901433133
 10
93.6319742195
 20
110.646159207
 10
93.6681700946
 20
110.6981321269
 10
93.7051213857
 20
110.7457495065
 10
93.7425967981
 20
110.7887286769
 10
93.7803662376
 20
110.8268128813
  0
LWPOLYLINE
  5
2CB
100
AcDbEntity
  8
0
100
AcDbPolyline
 62
7
  6
CONTINUOUS
 90
4
 70
0
 10
100.2369809627
 20
114.6073666361
 10
100.2468067513
 20
114.6295699371
 10
100.2538357886
 20
114.6526582711
 10
100.2580223026
 20
114.676335622
  0
LINE
  5
2CC
100
AcDbEntity
  8
0
100
AcDbLine
 62
253
  6
CONTINUOUS
 10
100.2342639718
 20
114.6507752773
 11
99.8446647188
 21
113.8976022078
  0
LINE
  5
2CD
100
AcDbEntity
  8
0
100
AcDbLine
 62
7
  6
CONTINUOUS
 10
100.2369809627
 20
114.6073666361
 11
99.8473817097
 21
113.8541935666
  0
LWPOLYLINE
  5
2CE
100
AcDbEntity
  8
0
100
AcDbPolyline
 62
253
  6
CONTINUOUS
 90
5
 70
0
 10
105.6469227455
 20
113.06275821
 10
105.65797551
 20
113.0744537644
 10
105.665916384
 20
113.0867648376
 10
105.6706124954
 20
113.0994854323
 10
105.671998804
 20
113.111239172
  0
LWPOLYLINE
  5
2CF
100
AcDbEntity
  8
0
100
AcDbPolyline
 62
253
  6
CONTINUOUS
 90
13
 70
0
 10
104.9278118282
 20
112.8119688597
 10
104.9151984805
 20
112.7992769848
 10
104.9027311237
 20
112.7839261748
 10
104.890619011
 20
112.7661154436
 10
104.8790477348
 20
112.7460464105
 10
104.8682538751
 20
112.72405354
 10
104.8585001826
 20
112.7006363997
 10
104.8499688055
 20
112.6762433018
 10
104.8427832639
 20
112.6512399646
 10
104.8370676755
 20
112.6260603557
 10
104.8329175806
 20
112.601133794
 10
104.8304004603
 20
112.5768771776
 10
104.8295570689
 20
112.5536990413
  0
LINE
  5
2D0
100
AcDbEntity
  8
0
100
AcDbLine
 62
7
  6
CONTINUOUS
 10
102.442259983
 20
111.5140955024
 11
102.842259983
 21
111.8968148385
  0
LINE
  5
2D1
100
AcDbEntity
  8
0
100
AcDbLine
 62
7
  6
CONTINUOUS
 10
105.100990529
 20
111.3671491907
 11
105.2573234925
 21
111.5110144235
  0
LWPOLYLINE
  5
2D2
100
AcDbEntity
  8
0
100
AcDbPolyline
 62
7
  6
CONTINUOUS
 90
4
 70
0
 10
102.4367890159
 20
111.50915653
 10
102.4239980098
 20
111.4979686426
 10
102.4099566894
 20
111.486486025
 10
102.3795299777
 20
111.4624641741
  0
LINE
  5
2D3
100
AcDbEntity
  8
0
100
AcDbLine
 62
253
  6
CONTINUOUS
 10
105.0841447917
 20
112.9466474543
 11
105.4737440447
 21
113.2859292955
  0
LINE
  5
2D4
100
AcDbEntity
  8
0
100
AcDbLine
 62
253
  6
CONTINUOUS
 10
105.2573234925
 20
112.7234763688
 11
105.6469227455
 21
113.06275821
  0
LINE
  5
2D5
100
AcDbEntity
  8
0
100
AcDbLine
 62
7
  6
CONTINUOUS
 10
105.2573234925
 20
111.5110144235
 11
105.6469227455
 21
111.8502962647
  0
LWPOLYLINE
  5
2D6
100
AcDbEntity
  8
RACCORDO
100
AcDbPolyline
 62
7
  6
CONTINUOUS
 90
5
 70
0
 10
111.4263654849
 20
118.1921172024
 10
111.4222793049
 20
118.18856859
 10
111.4166228095
 20
118.182936266
 10
111.4116064546
 20
118.1770762736
 10
111.4082730318
 20
118.1726176532
  0
LINE
  5
2D7
100
AcDbEntity
  8
0
100
AcDbLine
 62
7
  6
CONTINUOUS
 10
105.3120416586
 20
113.3655814224
 11
108.842259983
 21
116.4228401723
  0
LINE
  5
2D8
100
AcDbEntity
  8
0
100
AcDbLine
 62
7
  6
CONTINUOUS
 10
112.2582853868
 20
118.9678074923
 11
113.0252726849
 21
119.6320379768
  0
LINE
  5
2D9
100
AcDbEntity
  8
0
100
AcDbLine
 62
253
  6
CONTINUOUS
 10
104.9278118282
 20
112.8119688597
 11
105.0841447917
 21
112.9466474543
  0
LINE
  5
2DA
100
AcDbEntity
  8
0
100
AcDbLine
 62
253
  6
CONTINUOUS
 10
105.100990529
 20
112.5887977741
 11
105.2573234925
 21
112.7234763688
  0
LINE
  5
2DB
100
AcDbEntity
  8
0
100
AcDbLine
 62
7
  6
CONTINUOUS
 10
103.1001590964
 20
110.155459584
 11
101.9651229935
 21
109.1776423419
  0
LINE
  5
2DC
100
AcDbEntity
  8
0
100
AcDbLine
 62
7
  6
CONTINUOUS
 10
111.392259983
 20
119.0730908827
 11
106.8879021379
 21
115.3083830789
  0
LINE
  5
2DD
100
AcDbEntity
  8
0
100
AcDbLine
 62
253
  6
CONTINUOUS
 10
112.0091390256
 20
119.2965284432
 11
113.8564307058
 21
120.8404806875
  0
LINE
  5
2DE
100
AcDbEntity
  8
0
100
AcDbLine
 62
253
  6
CONTINUOUS
 10
112.2582853868
 20
119.1367681193
 11
114.0278905459
 21
120.615790564
  0
LINE
  5
2DF
100
AcDbEntity
  8
RACCORDO
100
AcDbLine
 62
7
  6
CONTINUOUS
 10
111.5248501199
 20
118.2726263105
 11
111.4265679589
 21
118.1922837952
  0
LINE
  5
2E0
100
AcDbEntity
  8
RACCORDO
100
AcDbLine
 62
253
  6
CONTINUOUS
 10
111.649639681
 20
118.2895568336
 11
111.5520676052
 21
118.2097947901
  0
LINE
  5
2E1
100
AcDbEntity
  8
0
100
AcDbLine
 62
7
  6
CONTINUOUS
 10
107.4494944654
 20
112.6602028936
 11
107.0348803956
 21
112.3273532489
  0
LINE
  5
2E2
100
AcDbEntity
  8
0
100
AcDbLine
 62
253
  6
CONTINUOUS
 10
107.5764442292
 20
112.6789320367
 11
107.1625530008
 21
112.3466626848
  0
LWPOLYLINE
  5
2E3
100
AcDbEntity
  8
0
100
AcDbPolyline
 62
7
  6
CONTINUOUS
 90
4
 70
0
 10
102.3795299777
 20
111.4624641741
 10
102.3637487603
 20
111.449854975
 10
102.3476709458
 20
111.4372957368
 10
102.3153222273
 20
111.4123031614
  0
LWPOLYLINE
  5
2E4
100
AcDbEntity
  8
RACCORDO
100
AcDbPolyline
 62
253
  6
CONTINUOUS
 90
9
 70
0
 10
112.4242153527
 20
118.449228166
 10
112.4306446932
 20
118.454340359
 10
112.4370501432
 20
118.4587150895
 10
112.4434049978
 20
118.4623319663
 10
112.4496849459
 20
118.4651745712
 10
112.4558611449
 20
118.4672272299
 10
112.4619007902
 20
118.4684780561
 10
112.4677816738
 20
118.4689221439
 10
112.4734761631
 20
118.4685570919
  0
LINE
  5
2E5
100
AcDbEntity
  8
RACCORDO
100
AcDbLine
 62
7
  6
CONTINUOUS
 10
112.0448854769
 20
116.4600146244
 11
111.1364348076
 21
115.760568946
  0
LWPOLYLINE
  5
2E6
100
AcDbEntity
  8
0
100
AcDbPolyline
 62
7
  6
CONTINUOUS
 90
3
 70
0
 10
102.3153222273
 20
111.4123031614
 10
102.2992149533
 20
111.4000285129
 10
102.2675422167
 20
111.3761031008
  0
LINE
  5
2E7
100
AcDbEntity
  8
RACCORDO
100
AcDbLine
 62
7
  6
CONTINUOUS
 10
111.5248739291
 20
118.2726457737
 11
111.530984719
 21
118.2772858965
  0
LINE
  5
2E8
100
AcDbEntity
  8
0
100
AcDbLine
 62
253
  6
CONTINUOUS
 10
107.4494944654
 20
112.6602028936
 11
107.454729567
 21
112.664160823
  0
LWPOLYLINE
  5
2E9
100
AcDbEntity
  8
0
100
AcDbPolyline
 62
7
  6
CONTINUOUS
 90
4
 70
0
 10
107.0348614049
 20
112.3273380033
 10
107.0400939679
 20
112.3312938948
 10
107.0571264091
 20
112.341313974
 10
107.075962994
 20
112.348462026
  0
LWPOLYLINE
  5
2EA
100
AcDbEntity
  8
0
100
AcDbPolyline
 62
253
  6
CONTINUOUS
 90
6
 70
0
 10
107.5764442292
 20
112.6789320367
 10
107.5890575769
 20
112.688087121
 10
107.6015249337
 20
112.6943304064
 10
107.6136370463
 20
112.6974984696
 10
107.6252083226
 20
112.6974714748
 10
107.6301262739
 20
112.6964080067
  0
LWPOLYLINE
  5
2EB
100
AcDbEntity
  8
0
100
AcDbPolyline
 62
7
  6
CONTINUOUS
 90
3
 70
0
 10
107.4494944654
 20
112.6602028936
 10
107.466223828
 20
112.6722687562
 10
107.4843805289
 20
112.6826865716
  0
LWPOLYLINE
  5
2EC
100
AcDbEntity
  8
0
100
AcDbPolyline
 62
7
  6
CONTINUOUS
 90
3
 70
0
 10
112.9539554647
 20
114.8338873008
 10
112.9282033338
 20
114.8168806884
 10
112.9028739242
 20
114.7972311065
  0
LWPOLYLINE
  5
2ED
100
AcDbEntity
  8
0
100
AcDbPolyline
 62
7
  6
CONTINUOUS
 90
3
 70
0
 10
119.3265783191
 20
119.2586725903
 10
119.2974238163
 20
119.2408137009
 10
119.268988602
 20
119.2192490735
  0
LWPOLYLINE
  5
2EE
100
AcDbEntity
  8
0
100
AcDbPolyline
 62
253
  6
CONTINUOUS
 90
3
 70
0
 10
119.2931920694
 20
119.2348196284
 10
119.2760076337
 20
119.224670474
 10
119.2689886019
 20
119.2192490735
  0
LWPOLYLINE
  5
2EF
100
AcDbEntity
  8
0
100
AcDbPolyline
 62
253
  6
CONTINUOUS
 90
7
 70
0
 10
107.454729567
 20
112.664160823
 10
107.471738571
 20
112.6741623626
 10
107.4905085741
 20
112.6812576421
 10
107.5107185407
 20
112.6853253061
 10
107.5320228066
 20
112.6862957828
 10
107.5540569911
 20
112.6841524736
 10
107.5764442292
 20
112.6789320367
  0
LWPOLYLINE
  5
2F0
100
AcDbEntity
  8
0
100
AcDbPolyline
 62
253
  6
CONTINUOUS
 90
4
 70
0
 10
113.0964168462
 20
114.8597293975
 10
113.0807143901
 20
114.851773452
 10
113.064860279
 20
114.8422247545
 10
113.048899817
 20
114.8311105908
  0
LWPOLYLINE
  5
2F1
100
AcDbEntity
  8
0
100
AcDbPolyline
 62
253
  6
CONTINUOUS
 90
4
 70
0
 10
113.4685603141
 20
114.7589671994
 10
113.4450719536
 20
114.7474554178
 10
113.4212302316
 20
114.7321969135
 10
113.3971983529
 20
114.7132926703
  0
LWPOLYLINE
  5
2F2
100
AcDbEntity
  8
0
100
AcDbPolyline
 62
7
  6
CONTINUOUS
 90
3
 70
0
 10
113.0065998995
 20
114.8601086503
 10
112.9800881988
 20
114.8482819362
 10
112.9539554647
 20
114.8338873008
  0
LINE
  5
2F3
100
AcDbEntity
  8
0
100
AcDbLine
 62
7
  6
CONTINUOUS
 10
95.8632123437
 20
112.9223174175
 11
95.8632123437
 21
110.7975358886
  0
LINE
  5
2F4
100
AcDbEntity
  8
0
100
AcDbLine
 62
253
  6
CONTINUOUS
 10
95.9632123437
 20
112.8357148765
 11
95.9632123437
 21
110.7686683751
  0
LINE
  5
2F5
100
AcDbEntity
  8
0
100
AcDbLine
 62
253
  6
CONTINUOUS
 10
96.0429147365
 20
110.7456602761
 11
96.0429147365
 21
112.2854070956
  0
LINE
  5
2F6
100
AcDbEntity
  8
0
100
AcDbLine
 62
7
  6
CONTINUOUS
 10
96.1911905308
 20
113.9683739554
 11
96.1911905308
 21
114.3531947954
  0
LINE
  5
2F7
100
AcDbEntity
  8
0
100
AcDbLine
 62
253
  6
CONTINUOUS
 10
96.2911905308
 20
113.881771415
 11
96.2911905308
 21
114.2665922551
  0
LINE
  5
2F8
100
AcDbEntity
  8
0
100
AcDbLine
 62
253
  6
CONTINUOUS
 10
96.3005168873
 20
110.6712969406
 11
96.3005168873
 21
112.1183472139
  0
LINE
  5
2F9
100
AcDbEntity
  8
0
100
AcDbLine
 62
7
  6
CONTINUOUS
 10
96.6760740012
 20
113.0957425142
 11
96.6760740012
 21
113.6779685813
  0
LINE
  5
2FA
100
AcDbEntity
  8
0
100
AcDbLine
 62
253
  6
CONTINUOUS
 10
96.7760740012
 20
112.8608696714
 11
96.7760740012
 21
113.6491010678
  0
LWPOLYLINE
  5
2FB
100
AcDbEntity
  8
0
100
AcDbPolyline
 62
253
  6
CONTINUOUS
 90
13
 70
0
 10
96.2227529676
 20
113.0205996953
 10
96.2235524208
 20
113.0431496301
 10
96.2259380158
 20
113.0667238507
 10
96.229871637
 20
113.0909454383
 10
96.2352904148
 20
113.1154271078
 10
96.2421077315
 20
113.1397774112
 10
96.2502146077
 20
113.1636069961
 10
96.2594814463
 20
113.1865348315
 10
96.269760083
 20
113.208194254
 10
96.2808861523
 20
113.2282388518
 10
96.2926817436
 20
113.2463480643
 10
96.3049582517
 20
113.262232298
 10
96.3175193694
 20
113.2756375188
  0
LWPOLYLINE
  5
2FC
100
AcDbEntity
  8
0
100
AcDbPolyline
 62
253
  6
CONTINUOUS
 90
13
 70
0
 10
96.2911905308
 20
114.2665922551
 10
96.2919913936
 20
114.2891626025
 10
96.2944028731
 20
114.3129224502
 10
96.2984181154
 20
114.3375031846
 10
96.304016433
 20
114.3625645871
 10
96.3111270015
 20
114.387633917
 10
96.3195976307
 20
114.4121206519
 10
96.3292637359
 20
114.4355617363
 10
96.3399782145
 20
114.4576115552
 10
96.3515556223
 20
114.4778895228
 10
96.3637980162
 20
114.4960523441
 10
96.3764994879
 20
114.51179775
 10
96.3894452902
 20
114.5248620735
  0
LWPOLYLINE
  5
2FD
100
AcDbEntity
  8
0
100
AcDbPolyline
 62
7
  6
CONTINUOUS
 90
8
 70
0
 10
96.1911905308
 20
114.3531947954
 10
96.1925985609
 20
114.3768825579
 10
96.1968162595
 20
114.4002964705
 10
96.203808319
 20
114.4231083613
 10
96.2136009895
 20
114.4451835761
 10
96.2260450032
 20
114.4660085915
 10
96.2406784702
 20
114.4848994636
 10
96.2548094608
 20
114.4994828541
  0
LWPOLYLINE
  5
2FE
100
AcDbEntity
  8
RACCORDO
100
AcDbPolyline
 62
253
  6
CONTINUOUS
 90
16
 70
0
 10
111.8495876277
 20
117.5220215702
 10
111.8808144566
 20
117.556333899
 10
111.9152494496
 20
117.5880541508
 10
111.9528926069
 20
117.6171823259
 10
111.994250755
 20
117.6439447243
 10
112.0388170673
 20
117.6681150458
 10
112.0850710637
 20
117.6890143902
 10
112.1330322758
 20
117.7065146018
 10
112.1826811721
 20
117.7207438361
 10
112.2324386778
 20
117.7314076602
 10
112.2821926367
 20
117.7384039974
 10
112.3320552052
 20
117.7418349244
 10
112.3807837775
 20
117.7417122379
 10
112.4279641517
 20
117.7380398701
 10
112.4740105298
 20
117.730813889
 10
112.5189229117
 20
117.7200342944
  0
LINE
  5
2FF
100
AcDbEntity
  8
0
100
AcDbLine
 62
7
  6
CONTINUOUS
 10
107.0284995856
 20
112.3218270333
 11
106.8806875349
 21
112.1838889059
  0
LINE
  5
300
100
AcDbEntity
  8
0
100
AcDbLine
 62
253
  6
CONTINUOUS
 10
107.1625530008
 20
112.3466626848
 11
107.0153954831
 21
112.2093353671
  0
LINE
  5
301
100
AcDbEntity
  8
0
100
AcDbLine
 62
7
  6
CONTINUOUS
 10
108.5441581027
 20
111.1147911989
 11
108.9683137841
 21
111.4949443181
  0
LINE
  5
302
100
AcDbEntity
  8
0
100
AcDbLine
 62
253
  6
CONTINUOUS
 10
109.1758976496
 20
111.5856521134
 11
108.6758976496
 21
111.1375228819
  0
LINE
  5
303
100
AcDbEntity
  8
RACCORDO
100
AcDbLine
 62
253
  6
CONTINUOUS
 10
118.1616781496
 20
119.2404175591
 11
122.1495699432
 21
122.7132662874
  0
LINE
  5
304
100
AcDbEntity
  8
0
100
AcDbLine
 62
253
  6
CONTINUOUS
 10
113.3971983529
 20
114.7132926703
 11
109.8039832423
 21
111.5841474543
  0
LINE
  5
305
100
AcDbEntity
  8
0
100
AcDbLine
 62
7
  6
CONTINUOUS
 10
107.0285343752
 20
112.3218594264
 11
107.0348614049
 21
112.3273380033
  0
LINE
  5
306
100
AcDbEntity
  8
0
100
AcDbLine
 62
253
  6
CONTINUOUS
 10
109.1325337492
 20
111.0057033944
 11
109.8039832423
 21
111.5841474543
  0
LINE
  5
307
100
AcDbEntity
  8
0
100
AcDbLine
 62
7
  6
CONTINUOUS
 10
112.9028739241
 20
114.7972311065
 11
109.6851216937
 21
112.1078584258
  0
LINE
  5
308
100
AcDbEntity
  8
0
100
AcDbLine
 62
253
  6
CONTINUOUS
 10
113.0328786122
 20
114.8184627205
 11
109.7293881309
 21
112.0574306661
  0
LINE
  5
309
100
AcDbEntity
  8
0
100
AcDbLine
 62
7
  6
CONTINUOUS
 10
119.2689886019
 20
119.2192490735
 11
117.4819405436
 21
117.7256479871
  0
LINE
  5
30A
100
AcDbEntity
  8
0
100
AcDbLine
 62
253
  6
CONTINUOUS
 10
119.39899329
 20
119.2404806875
 11
117.5517016098
 21
117.6965284432
  0
LWPOLYLINE
  5
30B
100
AcDbEntity
  8
RACCORDO
100
AcDbPolyline
 62
253
  6
CONTINUOUS
 90
10
 70
0
 10
117.0845518341
 20
117.103904905
 10
117.0909811746
 20
117.109017098
 10
117.0973866246
 20
117.1133918285
 10
117.1037414792
 20
117.1170087053
 10
117.1100214272
 20
117.1198513102
 10
117.1161976262
 20
117.1219039689
 10
117.1222372716
 20
117.123154795
 10
117.1281181552
 20
117.1235988829
 10
117.1338126445
 20
117.1232338309
 10
117.1391374594
 20
117.122107851
  0
LINE
  5
30C
100
AcDbEntity
  8
0
100
AcDbLine
 62
253
  6
CONTINUOUS
 10
113.048899817
 20
114.8311105908
 11
113.0328786122
 21
114.8184627205
  0
LINE
  5
30D
100
AcDbEntity
  8
RACCORDO
100
AcDbLine
 62
7
  6
CONTINUOUS
 10
114.4697566075
 20
115.7600146244
 11
113.5613059382
 21
115.060568946
  0
LINE
  5
30E
100
AcDbEntity
  8
RACCORDO
100
AcDbLine
 62
253
  6
CONTINUOUS
 10
123.3696366316
 20
120.0926491863
 11
123.3536534724
 21
120.0811948765
  0
LWPOLYLINE
  5
30F
100
AcDbEntity
  8
RACCORDO
100
AcDbPolyline
 62
253
  6
CONTINUOUS
 90
54
 70
0
 10
123.3536534724
 20
120.0811948765
 10
123.3429088649
 20
120.0736047384
 10
123.3374348091
 20
120.0698185084
 10
123.3318750282
 20
120.0660400569
 10
123.3262265787
 20
120.0622661144
 10
123.3204181296
 20
120.0584827212
 10
123.3144291659
 20
120.0546710743
 10
123.3082802025
 20
120.0508499768
 10
123.301961453
 20
120.0470618773
 10
123.2954754305
 20
120.0432910152
 10
123.2888196218
 20
120.0395531512
 10
123.2819767011
 20
120.0359380163
 10
123.2749630032
 20
120.0324536914
 10
123.2677621932
 20
120.0290920956
 10
123.2603079406
 20
120.025918717
 10
123.2525715896
 20
120.0229281611
 10
123.244581796
 20
120.0201258223
 10
123.2363581966
 20
120.0175933715
 10
123.2278374697
 20
120.0153093556
 10
123.2190829369
 20
120.0132952277
 10
123.2103042006
 20
120.0116970171
 10
123.2014827456
 20
120.0105234218
 10
123.192637087
 20
120.009765744
 10
123.1840323724
 20
120.0095439197
 10
123.1756964593
 20
120.009932583
 10
123.1676014902
 20
120.0108570998
 10
123.1599290406
 20
120.0122135043
 10
123.1527509637
 20
120.0140051674
 10
123.1459954063
 20
120.0162287182
 10
123.1396283844
 20
120.0187700776
 10
123.1336582195
 20
120.0216014119
 10
123.1280765901
 20
120.0247505548
 10
123.122824547
 20
120.0281869287
 10
123.1178926092
 20
120.031916146
 10
123.1132902578
 20
120.0359325943
 10
123.1089869869
 20
120.040188859
 10
123.1049941139
 20
120.0446732371
 10
123.1013003215
 20
120.0493974315
 10
123.0978411514
 20
120.0543491364
 10
123.0946039435
 20
120.0595011289
 10
123.0916013579
 20
120.0648806319
 10
123.088806916
 20
120.0705570082
 10
123.0862120498
 20
120.076537062
 10
123.0838253272
 20
120.0828139891
 10
123.081645974
 20
120.0894367398
 10
123.0796715731
 20
120.0964153308
 10
123.0779045414
 20
120.1037397455
 10
123.0763513558
 20
120.1114288848
 10
123.0750043802
 20
120.1195063951
 10
123.0738712505
 20
120.1279486301
 10
123.0729813514
 20
120.1367035519
 10
123.0723444779
 20
120.1457538145
 10
123.0719508351
 20
120.1551167639
 10
123.0718004229
 20
120.1647924001
  0
LWPOLYLINE
  5
310
100
AcDbEntity
  8
RACCORDO
100
AcDbPolyline
 62
253
  6
CONTINUOUS
 90
3
 70
0
 10
123.3856904181
 20
120.1039589479
 10
123.3803313084
 20
120.1002050883
 10
123.3696366316
 20
120.0926491863
  0
LWPOLYLINE
  5
311
100
AcDbEntity
  8
RACCORDO
100
AcDbPolyline
 62
253
  6
CONTINUOUS
 90
24
 70
0
 10
123.3856904181
 20
120.1039589479
 10
123.4501700798
 20
120.1447590183
 10
123.5134831066
 20
120.1778422174
 10
123.5756294985
 20
120.2032085451
 10
123.6368247415
 20
120.2208916601
 10
123.6968533497
 20
120.2308579037
 10
123.7550688649
 20
120.2330063004
 10
123.811453129
 20
120.2272530734
 10
123.8660243001
 20
120.2136819995
 10
123.9181903951
 20
120.1924434336
 10
123.9679250209
 20
120.1634557153
 10
124.0152545704
 20
120.1268005049
 10
124.0596662391
 20
120.0828731388
 10
124.1011297296
 20
120.03159446
 10
124.1396753392
 20
119.9730436253
 10
124.1748811557
 20
119.9078534417
 10
124.2067112474
 20
119.835949684
 10
124.2352015459
 20
119.7574065773
 10
124.2600379337
 20
119.673079604
 10
124.2811800446
 20
119.5829209552
 10
124.2986682446
 20
119.4869784398
 10
124.3123095148
 20
119.3862509676
 10
124.3220395154
 20
119.2810715084
 10
124.3279225862
 20
119.1711070923
  0
LWPOLYLINE
  5
312
100
AcDbEntity
  8
RACCORDO
100
AcDbPolyline
 62
253
  6
CONTINUOUS
 90
8
 70
0
 10
123.1470285986
 20
120.4537609718
 10
123.2244884323
 20
120.502023705
 10
123.3068239045
 20
120.542805112
 10
123.3876948987
 20
120.5722118844
 10
123.4666987869
 20
120.5901067833
 10
123.5434516285
 20
120.5963987205
 10
123.6175916254
 20
120.5910505915
 10
123.672988792
 20
120.5789270269
  0
LWPOLYLINE
  5
313
100
AcDbEntity
  8
0
100
AcDbPolyline
 62
253
  6
CONTINUOUS
 90
7
 70
0
 10
112.8673883406
 20
111.5346735249
 10
112.8843973446
 20
111.5446750645
 10
112.9031673477
 20
111.5517703439
 10
112.9233773144
 20
111.555838008
 10
112.9446815803
 20
111.5568084847
 10
112.9667157648
 20
111.5546651755
 10
112.9891030028
 20
111.5494447386
  0
LWPOLYLINE
  5
314
100
AcDbEntity
  8
0
100
AcDbPolyline
 62
7
  6
CONTINUOUS
 90
7
 70
0
 10
112.8970393026
 20
111.5531992735
 10
112.9164190802
 20
111.5617511482
 10
112.9367483411
 20
111.568245403
 10
112.9577679509
 20
111.5725535704
 10
112.9792666266
 20
111.5745908819
 10
113.000979099
 20
111.5742902064
 10
113.0225143698
 20
111.5716403716
  0
LINE
  5
315
100
AcDbEntity
  8
0
100
AcDbLine
 62
7
  6
CONTINUOUS
 10
113.4935622537
 20
83.8468408459
 11
114.1733143658
 21
83.6506133135
  0
LINE
  5
316
100
AcDbEntity
  8
0
100
AcDbLine
 62
7
  6
CONTINUOUS
 10
114.703783056
 20
83.7785970627
 11
114.5532181764
 21
83.8220613996
  0
LINE
  5
317
100
AcDbEntity
  8
SUPERFICI
100
AcDbLine
 62
7
  6
CONTINUOUS
 10
104.9919198412
 20
86.8483151611
 11
103.9078791039
 21
87.1612507668
  0
LINE
  5
318
100
AcDbEntity
  8
DRAFT
100
AcDbLine
 62
7
  6
CONTINUOUS
 10
104.9919198412
 20
86.8483151611
 11
103.9078791039
 21
87.1612507668
  0
LINE
  5
319
100
AcDbEntity
  8
SUPERFICI
100
AcDbLine
 62
7
  6
CONTINUOUS
 10
102.5237474404
 20
87.5608151611
 11
101.2232003522
 21
87.9362507668
  0
LINE
  5
31A
100
AcDbEntity
  8
DRAFT
100
AcDbLine
 62
7
  6
CONTINUOUS
 10
102.5237474404
 20
87.5608151611
 11
101.2232003522
 21
87.9362507668
  0
LINE
  5
31B
100
AcDbEntity
  8
SUPERFICI
100
AcDbLine
 62
7
  6
CONTINUOUS
 10
99.8390686887
 20
88.3358151611
 11
98.7550279514
 21
88.6487507668
  0
LINE
  5
31C
100
AcDbEntity
  8
DRAFT
100
AcDbLine
 62
7
  6
CONTINUOUS
 10
99.8390686887
 20
88.3358151611
 11
98.7550279514
 21
88.6487507668
  0
LINE
  5
31D
100
AcDbEntity
  8
0
100
AcDbLine
 62
7
  6
CONTINUOUS
 10
114.1733143658
 20
84.4561725986
 11
113.4935622537
 21
84.6524001311
  0
LINE
  5
31E
100
AcDbEntity
  8
0
100
AcDbLine
 62
7
  6
CONTINUOUS
 10
114.703783056
 20
84.5992728775
 11
114.5532181764
 21
84.6427372144
  0
LINE
  5
31F
100
AcDbEntity
  8
SUPERFICI
100
AcDbLine
 62
7
  6
CONTINUOUS
 10
104.9919198412
 20
87.7143405649
 11
103.9078791039
 21
88.0272761706
  0
LINE
  5
320
100
AcDbEntity
  8
DRAFT
100
AcDbLine
 62
7
  6
CONTINUOUS
 10
104.9919198412
 20
87.7143405649
 11
103.9078791039
 21
88.0272761706
  0
LINE
  5
321
100
AcDbEntity
  8
SUPERFICI
100
AcDbLine
 62
7
  6
CONTINUOUS
 10
102.5237474404
 20
88.4268405649
 11
101.2232003522
 21
88.8022761706
  0
LINE
  5
322
100
AcDbEntity
  8
DRAFT
100
AcDbLine
 62
7
  6
CONTINUOUS
 10
102.5237474404
 20
88.4268405649
 11
101.2232003522
 21
88.8022761706
  0
LINE
  5
323
100
AcDbEntity
  8
SUPERFICI
100
AcDbLine
 62
7
  6
CONTINUOUS
 10
99.8390686887
 20
89.2018405649
 11
98.7550279514
 21
89.5147761706
  0
LINE
  5
324
100
AcDbEntity
  8
DRAFT
100
AcDbLine
 62
7
  6
CONTINUOUS
 10
99.8390686887
 20
89.2018405649
 11
98.7550279514
 21
89.5147761706
  0
LINE
  5
325
100
AcDbEntity
  8
0
100
AcDbLine
 62
253
  6
CONTINUOUS
 10
112.9441786205
 20
85.5051793942
 11
112.9668085388
 21
85.4986466995
  0
LINE
  5
326
100
AcDbEntity
  8
0
100
AcDbLine
 62
7
  6
CONTINUOUS
 10
114.603783056
 20
85.5168405892
 11
114.523795313
 21
85.5399310617
  0
LINE
  5
327
100
AcDbEntity
  8
0
100
AcDbLine
 62
7
  6
CONTINUOUS
 10
112.9441786205
 20
85.995927123
 11
113.08097499
 21
85.9564374127
  0
LWPOLYLINE
  5
328
100
AcDbEntity
  8
0
100
AcDbPolyline
 62
253
  6
CONTINUOUS
 90
16
 70
0
 10
112.9668085388
 20
85.4986466995
 10
113.0027916679
 20
85.4861010113
 10
113.0383775669
 20
85.4698949063
 10
113.0731778649
 20
85.4502072174
 10
113.1068141268
 20
85.4272560082
 10
113.138917882
 20
85.4012928133
 10
113.1691346525
 20
85.3725998802
 10
113.1971343794
 20
85.3414924161
 10
113.2226117924
 20
85.3083125007
 10
113.2452856411
 20
85.273421974
 10
113.2649081343
 20
85.237203657
 10
113.2812655248
 20
85.2000553398
 10
113.2941772167
 20
85.1623828097
 10
113.3035016182
 20
85.1245986691
 10
113.3091376947
 20
85.0871178095
 10
113.3110239625
 20
85.0503510663
  0
LWPOLYLINE
  5
329
100
AcDbEntity
  8
0
100
AcDbPolyline
 62
7
  6
CONTINUOUS
 90
11
 70
0
 10
113.9706237914
 20
69.5641829804
 10
113.9893143439
 20
69.5410105013
 10
114.0086661252
 20
69.5196196698
 10
114.0284439264
 20
69.5000149831
 10
114.0483253715
 20
69.4821183286
 10
114.0681879191
 20
69.4659701667
 10
114.0881168076
 20
69.4517783564
 10
114.1079978387
 20
69.4394979548
 10
114.1275430964
 20
69.4291774533
 10
114.1465793723
 20
69.421196987
 10
114.1592481862
 20
69.417112696
  0
LINE
  5
32A
100
AcDbEntity
  8
DRAFT
100
AcDbLine
 62
7
  6
CONTINUOUS
 10
98.7550279514
 20
88.6487507668
 11
98.7400913765
 21
88.6871915443
  0
LWPOLYLINE
  5
32B
100
AcDbEntity
  8
DRAFT
100
AcDbPolyline
 62
7
  6
CONTINUOUS
 90
22
 70
0
 10
98.7400913765
 20
88.6871915443
 10
98.7264166518
 20
88.725702056
 10
98.714003837
 20
88.7642823534
 10
98.7028394116
 20
88.802987756
 10
98.692937023
 20
88.8417630539
 10
98.6843374617
 20
88.8804424865
 10
98.6770464018
 20
88.919018065
 10
98.6710582496
 20
88.9574978472
 10
98.6663968529
 20
88.9957401065
 10
98.6630682673
 20
89.0337456629
 10
98.6610664799
 20
89.071513733
 10
98.6603971949
 20
89.1089001491
 10
98.6610640807
 20
89.1459040245
 10
98.6630634691
 20
89.1825262457
 10
98.6663900172
 20
89.2186252687
 10
98.6710497632
 20
89.2541969346
 10
98.6770366265
 20
89.2892453651
 10
98.6843270444
 20
89.3236414012
 10
98.6929267013
 20
89.3573893873
 10
98.7028298326
 20
89.3904849091
 10
98.7139956602
 20
89.422785633
 10
98.7264105409
 20
89.4542440708
  0
LWPOLYLINE
  5
32C
100
AcDbEntity
  8
0
100
AcDbPolyline
 62
253
  6
CONTINUOUS
 90
10
 70
0
 10
98.3866652359
 20
113.2768599724
 10
98.3873212807
 20
113.2576206582
 10
98.3892939919
 20
113.2396837532
 10
98.3925768557
 20
113.2233099156
 10
98.3971536264
 20
113.2087226225
 10
98.4029764089
 20
113.1961779478
 10
98.4099462872
 20
113.1859246603
 10
98.4179541069
 20
113.1781144
 10
98.4269011111
 20
113.1728357261
 10
98.431194799
 20
113.1713088487
  0
LINE
  5
32D
100
AcDbEntity
  8
0
100
AcDbLine
 62
7
  6
CONTINUOUS
 10
97.1260475158
 20
111.8800370486
 11
97.1260475158
 21
110.9138252376
  0
LINE
  5
32E
100
AcDbEntity
  8
0
100
AcDbLine
 62
253
  6
CONTINUOUS
 10
98.3866652359
 20
113.2768599724
 11
98.3866652359
 21
113.6616808125
  0
LINE
  5
32F
100
AcDbEntity
  8
0
100
AcDbLine
 62
253
  6
CONTINUOUS
 10
98.658098696
 20
113.3119587053
 11
98.658098696
 21
113.6967795454
  0
LINE
  5
330
100
AcDbEntity
  8
0
100
AcDbLine
 62
253
  6
CONTINUOUS
 10
98.9017817655
 20
113.1055089081
 11
98.9017817655
 21
112.2472306965
  0
LINE
  5
331
100
AcDbEntity
  8
0
100
AcDbLine
 62
253
  6
CONTINUOUS
 10
99.1732152257
 20
113.240607641
 11
99.1732152257
 21
112.4556137868
  0
LINE
  5
332
100
AcDbEntity
  8
0
100
AcDbLine
 62
253
  6
CONTINUOUS
 10
99.6129758783
 20
111.1621226689
 11
99.6129758783
 21
110.6289235598
  0
LINE
  5
333
100
AcDbEntity
  8
0
100
AcDbLine
 62
7
  6
CONTINUOUS
 10
100.2580223026
 20
114.676335622
 11
100.2593399998
 21
114.6993115024
  0
LWPOLYLINE
  5
334
100
AcDbEntity
  8
0
100
AcDbPolyline
 62
253
  6
CONTINUOUS
 90
5
 70
0
 10
100.259340027
 20
114.6992379042
 10
100.2579097342
 20
114.6873181416
 10
100.2531832914
 20
114.6746351602
 10
100.2452508248
 20
114.662387633
 10
100.2342639718
 20
114.6507752773
  0
LWPOLYLINE
  5
335
100
AcDbEntity
  8
RACCORDO
100
AcDbPolyline
 62
253
  6
CONTINUOUS
 90
10
 70
0
 10
112.5189229117
 20
117.7200342944
 10
112.5054589703
 20
117.6998350582
 10
112.4928384892
 20
117.6771189635
 10
112.4813209244
 20
117.6523530149
 10
112.4711430577
 20
117.626046359
 10
112.4625141289
 20
117.5987398166
 10
112.4556115344
 20
117.5709947643
 10
112.45057718
 20
117.543381594
 10
112.4475145635
 20
117.5164679862
 10
112.4464866473
 20
117.4908072396
  0
LINE
  5
336
100
AcDbEntity
  8
RACCORDO
100
AcDbLine
 62
7
  6
CONTINUOUS
 10
111.4082936763
 20
118.1726468905
 11
109.9457037844
 21
116.1043033844
  0
LINE
  5
337
100
AcDbEntity
  8
RACCORDO
100
AcDbLine
 62
253
  6
CONTINUOUS
 10
111.5512606521
 20
118.2100277374
 11
110.0424821287
 21
116.0763658828
  0
LWPOLYLINE
  5
338
100
AcDbEntity
  8
RACCORDO
100
AcDbPolyline
 62
253
  6
CONTINUOUS
 90
16
 70
0
 10
112.0448854769
 20
117.3249331523
 10
112.0632073214
 20
117.3505971394
 10
112.0839722153
 20
117.3746975292
 10
112.1069319187
 20
117.3971216909
 10
112.1318267982
 20
117.4178849619
 10
112.1583666521
 20
117.4367903056
 10
112.1862292965
 20
117.4534329784
 10
112.2151053136
 20
117.4677298758
 10
112.2446848003
 20
117.4796870326
 10
112.2746331533
 20
117.4890650453
 10
112.3045876006
 20
117.4958300441
 10
112.3343012073
 20
117.5000472299
 10
112.3636194215
 20
117.5016314967
 10
112.3922983136
 20
117.5005695727
 10
112.4200109149
 20
117.4969425374
 10
112.4464866473
 20
117.4908072396
  0
LINE
  5
339
100
AcDbEntity
  8
RACCORDO
100
AcDbLine
 62
253
  6
CONTINUOUS
 10
110.5501107332
 20
115.9298261271
 11
111.8495876277
 21
117.5220215702
  0
LINE
  5
33A
100
AcDbEntity
  8
RACCORDO
100
AcDbLine
 62
253
  6
CONTINUOUS
 10
110.8383523932
 20
115.8466179271
 11
112.0448854769
 21
117.3249331523
  0
LINE
  5
33B
100
AcDbEntity
  8
RACCORDO
100
AcDbLine
 62
253
  6
CONTINUOUS
 10
112.9749818638
 20
115.2298261271
 11
114.2744587583
 21
116.8220215702
  0
LINE
  5
33C
100
AcDbEntity
  8
RACCORDO
100
AcDbLine
 62
253
  6
CONTINUOUS
 10
113.2632235238
 20
115.1466179271
 11
114.4697566075
 21
116.6249331523
  0
LWPOLYLINE
  5
33D
100
AcDbEntity
  8
RACCORDO
100
AcDbPolyline
 62
253
  6
CONTINUOUS
 90
16
 70
0
 10
114.2744587583
 20
116.8220215702
 10
114.3056855872
 20
116.856333899
 10
114.3401205802
 20
116.8880541508
 10
114.3777637375
 20
116.9171823259
 10
114.4191218856
 20
116.9439447243
 10
114.4636881979
 20
116.9681150458
 10
114.5099421943
 20
116.9890143902
 10
114.5579034064
 20
117.0065146018
 10
114.6075523027
 20
117.0207438361
 10
114.6573098084
 20
117.0314076602
 10
114.7070637673
 20
117.0384039974
 10
114.7569263358
 20
117.0418349244
 10
114.8056549081
 20
117.0417122379
 10
114.8528352823
 20
117.0380398701
 10
114.8988816604
 20
117.030813889
 10
114.9437940423
 20
117.0200342944
  0
LWPOLYLINE
  5
33E
100
AcDbEntity
  8
0
100
AcDbPolyline
 62
7
  6
CONTINUOUS
 90
8
 70
0
 10
117.482606447
 20
117.7262424305
 10
117.4758937399
 20
117.7193191022
 10
117.4695842152
 20
117.7097016395
 10
117.4641373994
 20
117.6978813135
 10
117.4598272253
 20
117.6845920545
 10
117.4567837205
 20
117.6700892849
 10
117.4549792323
 20
117.6541456904
 10
117.4544378095
 20
117.6367681193
  0
LWPOLYLINE
  5
33F
100
AcDbEntity
  8
0
100
AcDbPolyline
 62
253
  6
CONTINUOUS
 90
13
 70
0
 10
109.1325337492
 20
111.0057033944
 10
109.1199204014
 20
110.9930115195
 10
109.1074530446
 20
110.9776607095
 10
109.095340932
 20
110.9598499782
 10
109.0837696558
 20
110.9397809451
 10
109.072975796
 20
110.9177880747
 10
109.0632221036
 20
110.8943709344
 10
109.0546907265
 20
110.8699778365
 10
109.0475051849
 20
110.8449744992
 10
109.0417895964
 20
110.8197948904
 10
109.0376395015
 20
110.7948683287
 10
109.0351223813
 20
110.7706117123
 10
109.0342789898
 20
110.7474335759
  0
LINE
  5
340
100
AcDbEntity
  8
0
100
AcDbLine
 62
7
  6
CONTINUOUS
 10
112.4411583592
 20
111.1923397352
 11
111.3235793679
 21
110.1494156122
  0
LINE
  5
341
100
AcDbEntity
  8
0
100
AcDbLine
 62
253
  6
CONTINUOUS
 10
112.5752117745
 20
111.2171753867
 11
111.458287316
 21
110.1748620735
  0
LINE
  5
342
100
AcDbEntity
  8
0
100
AcDbLine
 62
7
  6
CONTINUOUS
 10
109.9771619431
 20
110.1485144235
 11
109.30571245
 21
109.5306137868
  0
LWPOLYLINE
  5
343
100
AcDbEntity
  8
0
100
AcDbPolyline
 62
7
  6
CONTINUOUS
 90
24
 70
0
 10
113.4074575377
 20
113.6168055509
 10
113.4120542324
 20
113.6208982274
 10
113.4299368165
 20
113.6387668932
 10
113.4462419669
 20
113.6584028098
 10
113.4608995078
 20
113.6797039935
 10
113.4736989115
 20
113.7023644935
 10
113.4846133609
 20
113.7264039276
 10
113.4936696732
 20
113.7518026778
 10
113.5007377715
 20
113.7781959396
 10
113.5057889616
 20
113.8055980658
 10
113.5088519378
 20
113.8339947035
 10
113.5098827063
 20
113.8629779891
 10
113.5088519378
 20
113.8925563891
 10
113.5057889616
 20
113.922721437
 10
113.5007377715
 20
113.9530398691
 10
113.4936696732
 20
113.9835138994
 10
113.4846133609
 20
114.0141413139
 10
113.4736989115
 20
114.0444822083
 10
113.4608995078
 20
114.0745324474
 10
113.4462419669
 20
114.1042961664
 10
113.4299368165
 20
114.133345866
 10
113.4120542324
 20
114.1615390466
 10
113.3925240387
 20
114.1890182078
 10
113.3713462356
 20
114.2157833497
  0
LWPOLYLINE
  5
344
100
AcDbEntity
  8
0
100
AcDbPolyline
 62
7
  6
CONTINUOUS
 90
4
 70
0
 10
109.3020131034
 20
109.5273370425
 10
109.2892220974
 20
109.5161491551
 10
109.275180777
 20
109.5046665375
 10
109.2447540652
 20
109.4806446866
  0
LINE
  5
345
100
AcDbEntity
  8
0
100
AcDbLine
 62
253
  6
CONTINUOUS
 10
113.5703770537
 20
114.4901215847
 11
109.9771619431
 21
111.3609763688
  0
LINE
  5
346
100
AcDbEntity
  8
RACCORDO
100
AcDbLine
 62
253
  6
CONTINUOUS
 10
119.9922599646
 20
119.1516510225
 11
123.0718004229
 21
121.8334635484
  0
LINE
  5
347
100
AcDbEntity
  8
0
100
AcDbLine
 62
7
  6
CONTINUOUS
 10
109.9771619431
 20
110.1485144235
 11
113.6615089325
 21
113.3570216797
  0
LINE
  5
348
100
AcDbEntity
  8
DRAFT
100
AcDbLine
 62
7
  6
CONTINUOUS
 10
113.4073259014
 20
113.6166693008
 11
112.1278243372
 21
112.5026665283
  0
LINE
  5
349
100
AcDbEntity
  8
0
100
AcDbLine
 62
7
  6
CONTINUOUS
 10
112.4411931489
 20
111.1923721283
 11
112.4475201786
 21
111.1978507052
  0
LINE
  5
34A
100
AcDbEntity
  8
0
100
AcDbLine
 62
253
  6
CONTINUOUS
 10
109.30571245
 20
110.7825323088
 11
109.9771619431
 21
111.3609763688
  0
LINE
  5
34B
100
AcDbEntity
  8
0
100
AcDbLine
 62
253
  6
CONTINUOUS
 10
113.680256294
 20
111.3828986381
 11
122.0083900451
 21
118.487212728
  0
LINE
  5
34C
100
AcDbEntity
  8
0
100
AcDbLine
 62
253
  6
CONTINUOUS
 10
113.8888956366
 20
111.3226696478
 11
122.1616094542
 21
118.3797077661
  0
LINE
  5
34D
100
AcDbEntity
  8
0
100
AcDbLine
 62
7
  6
CONTINUOUS
 10
113.7127538254
 20
114.1958200533
 11
117.4544378095
 21
117.3230908827
  0
LINE
  5
34E
100
AcDbEntity
  8
0
100
AcDbLine
 62
7
  6
CONTINUOUS
 10
112.8621532391
 20
111.5307155955
 11
112.4475391693
 21
111.1978659508
  0
LINE
  5
34F
100
AcDbEntity
  8
0
100
AcDbLine
 62
253
  6
CONTINUOUS
 10
112.9891030028
 20
111.5494447386
 11
112.5752117745
 21
111.2171753867
  0
LWPOLYLINE
  5
350
100
AcDbEntity
  8
0
100
AcDbPolyline
 62
7
  6
CONTINUOUS
 90
4
 70
0
 10
109.2447540652
 20
109.4806446866
 10
109.2289728478
 20
109.4680354875
 10
109.2128950334
 20
109.4554762493
 10
109.1805463148
 20
109.4304836739
  0
LWPOLYLINE
  5
351
100
AcDbEntity
  8
0
100
AcDbPolyline
 62
7
  6
CONTINUOUS
 90
3
 70
0
 10
109.1805463148
 20
109.4304836739
 10
109.1644390409
 20
109.4182090254
 10
109.1327663043
 20
109.3942836133
  0
LINE
  5
352
100
AcDbEntity
  8
0
100
AcDbLine
 62
253
  6
CONTINUOUS
 10
112.8621532391
 20
111.5307155955
 11
112.8673883406
 21
111.5346735249
  0
LWPOLYLINE
  5
353
100
AcDbEntity
  8
0
100
AcDbPolyline
 62
7
  6
CONTINUOUS
 90
4
 70
0
 10
112.4475201786
 20
111.1978507052
 10
112.4527527416
 20
111.2018065967
 10
112.4697851828
 20
111.2118266759
 10
112.4886217677
 20
111.2189747279
  0
LWPOLYLINE
  5
354
100
AcDbEntity
  8
0
100
AcDbPolyline
 62
7
  6
CONTINUOUS
 90
3
 70
0
 10
109.1327663043
 20
109.3942836133
 10
109.117331564
 20
109.3827733939
 10
109.0875516942
 20
109.3607427935
  0
LWPOLYLINE
  5
355
100
AcDbEntity
  8
0
100
AcDbPolyline
 62
253
  6
CONTINUOUS
 90
9
 70
0
 10
122.0083900451
 20
118.487212728
 10
122.028179015
 20
118.5018938465
 10
122.0492639621
 20
118.5135697744
 10
122.0715244619
 20
118.5221132397
 10
122.0948195296
 20
118.5274074829
 10
122.119042194
 20
118.5293641447
 10
122.1441155618
 20
118.5278991965
 10
122.1699469585
 20
118.5229163319
 10
122.1757203914
 20
118.5213401193
  0
LWPOLYLINE
  5
356
100
AcDbEntity
  8
0
100
AcDbPolyline
 62
7
  6
CONTINUOUS
 90
4
 70
0
 10
109.0875516942
 20
109.3607427935
 10
109.0733642998
 20
109.3503862883
 10
109.059717738
 20
109.3405795388
 10
109.0342789898
 20
109.3222306965
  0
LWPOLYLINE
  5
357
100
AcDbEntity
  8
0
100
AcDbPolyline
 62
253
  6
CONTINUOUS
 90
6
 70
0
 10
112.9891030028
 20
111.5494447386
 10
113.0017163506
 20
111.5585998229
 10
113.0141837074
 20
111.5648431083
 10
113.02629582
 20
111.5680111715
 10
113.0378670962
 20
111.5679841767
 10
113.0427850476
 20
111.5669207086
  0
LWPOLYLINE
  5
358
100
AcDbEntity
  8
0
100
AcDbPolyline
 62
253
  6
CONTINUOUS
 90
13
 70
0
 10
122.1616094542
 20
118.3797077661
 10
122.1717585954
 20
118.3870395882
 10
122.1831151892
 20
118.3925783722
 10
122.1956792357
 20
118.3963241182
 10
122.2095132558
 20
118.3983267494
 10
122.2245547286
 20
118.3985363426
 10
122.2406160905
 20
118.3968031283
 10
122.2577269563
 20
118.3930970466
 10
122.2758577112
 20
118.3874481574
 10
122.2947319481
 20
118.3797968707
 10
122.3142575312
 20
118.3701233232
 10
122.3345265962
 20
118.3584473783
 10
122.3555391432
 20
118.3447690359
  0
LWPOLYLINE
  5
359
100
AcDbEntity
  8
0
100
AcDbPolyline
 62
7
  6
CONTINUOUS
 90
3
 70
0
 10
112.8621532391
 20
111.5307155955
 10
112.8788826016
 20
111.5427814581
 10
112.8970393026
 20
111.5531992735
  0
LINE
  5
35A
100
AcDbEntity
  8
0
100
AcDbLine
 62
7
  6
CONTINUOUS
 10
109.0179812901
 20
108.5051656802
 11
109.0530082592
 21
108.5297165968
  0
LINE
  5
35B
100
AcDbEntity
  8
0
100
AcDbLine
 62
7
  6
CONTINUOUS
 10
109.0073184487
 20
108.4978544907
 11
109.0179812901
 21
108.5051656802
  0
LINE
  5
35C
100
AcDbEntity
  8
0
100
AcDbLine
 62
7
  6
CONTINUOUS
 10
114.0474813409
 20
86.5434564655
 11
114.1773323835
 21
86.5059716983
  0
LWPOLYLINE
  5
35D
100
AcDbEntity
  8
0
100
AcDbPolyline
 62
253
  6
CONTINUOUS
 90
3
 70
0
 10
115.2737902948
 20
69.2228810922
 10
115.2866455718
 20
69.2014028937
 10
115.2968167214
 20
69.1781811254
  0
LWPOLYLINE
  5
35E
100
AcDbEntity
  8
0
100
AcDbPolyline
 62
253
  6
CONTINUOUS
 90
13
 70
0
 10
113.7269407219
 20
67.712354566
 10
113.7188056144
 20
67.7266992298
 10
113.707907341
 20
67.7416726622
 10
113.694430311
 20
67.7570214984
 10
113.6786025689
 20
67.772486021
 10
113.6606919352
 20
67.7878045555
 10
113.6410014752
 20
67.8027178975
 10
113.6198643705
 20
67.8169736988
 10
113.5976382813
 20
67.8303307375
 10
113.5746992946
 20
67.8425629995
 10
113.5514355602
 20
67.8534635033
 10
113.5282407229
 20
67.8628478016
 10
113.5055072617
 20
67.8705571033
  0
LINE
  5
35F
100
AcDbEntity
  8
DRAFT
100
AcDbLine
 62
7
  6
CONTINUOUS
 10
101.2232003522
 20
87.9362507668
 11
101.2082637773
 21
87.9746915443
  0
LWPOLYLINE
  5
360
100
AcDbEntity
  8
DRAFT
100
AcDbPolyline
 62
7
  6
CONTINUOUS
 90
25
 70
0
 10
99.8390686887
 20
89.2018405649
 10
99.8539673846
 20
89.1633669833
 10
99.8676069202
 20
89.1248259969
 10
99.8799873552
 20
89.0862176577
 10
99.891122291
 20
89.0474867164
 10
99.9009982531
 20
89.0086885324
 10
99.9095746662
 20
88.9699890529
 10
99.9168459401
 20
88.9313963393
 10
99.9228177452
 20
88.8929024002
 10
99.9274663558
 20
88.8546490677
 10
99.930785758
 20
88.8166355582
 10
99.9327820083
 20
88.7788626929
 10
99.9334494451
 20
88.7414746762
 10
99.9327844004
 20
88.7044723952
 10
99.9307905425
 20
88.6678549635
 10
99.9274731721
 20
88.6317638887
 10
99.922826208
 20
88.5962032922
 10
99.9168556892
 20
88.5611690165
 10
99.9095850563
 20
88.5267901147
 10
99.9010085477
 20
88.4930621756
 10
99.8911318447
 20
88.4599895414
 10
99.8799955102
 20
88.4277143592
 10
99.8676130146
 20
88.3962839678
 10
99.8539707607
 20
88.365650919
 10
99.8390686887
 20
88.3358151611
  0
LWPOLYLINE
  5
361
100
AcDbEntity
  8
DRAFT
100
AcDbPolyline
 62
7
  6
CONTINUOUS
 90
25
 70
0
 10
102.5237474404
 20
88.4268405649
 10
102.5386461364
 20
88.3883669832
 10
102.5522856719
 20
88.3498259969
 10
102.5646661069
 20
88.3112176577
 10
102.5758010427
 20
88.2724867164
 10
102.5856770048
 20
88.2336885324
 10
102.5942534179
 20
88.1949890529
 10
102.6015246918
 20
88.1563963393
 10
102.607496497
 20
88.1179024002
 10
102.6121451075
 20
88.0796490677
 10
102.6154645097
 20
88.0416355582
 10
102.61746076
 20
88.0038626929
 10
102.6181281968
 20
87.9664746762
 10
102.6174631521
 20
87.9294723952
 10
102.6154692942
 20
87.8928549635
 10
102.6121519239
 20
87.8567638887
 10
102.6075049598
 20
87.8212032922
 10
102.6015344409
 20
87.7861690165
 10
102.594263808
 20
87.7517901147
 10
102.5856872994
 20
87.7180621756
 10
102.5758105965
 20
87.6849895414
 10
102.5646742619
 20
87.6527143592
 10
102.5522917663
 20
87.6212839678
 10
102.5386495124
 20
87.590650919
 10
102.5237474404
 20
87.5608151611
  0
LINE
  5
362
100
AcDbEntity
  8
SUPERFICI
100
AcDbLine
 62
7
  6
CONTINUOUS
 10
99.8560260073
 20
89.1577555788
 11
99.8390686887
 21
89.2018405649
  0
LINE
  5
363
100
AcDbEntity
  8
SUPERFICI
100
AcDbLine
 62
7
  6
CONTINUOUS
 10
102.5407047591
 20
88.3827555788
 11
102.5237474404
 21
88.4268405649
  0
LWPOLYLINE
  5
364
100
AcDbEntity
  8
DRAFT
100
AcDbPolyline
 62
7
  6
CONTINUOUS
 90
22
 70
0
 10
101.2082637773
 20
87.9746915443
 10
101.1945890525
 20
88.013202056
 10
101.1821762377
 20
88.0517823534
 10
101.1710118124
 20
88.090487756
 10
101.1611094237
 20
88.1292630539
 10
101.1525098625
 20
88.1679424865
 10
101.1452188026
 20
88.206518065
 10
101.1392306504
 20
88.2449978472
 10
101.1345692537
 20
88.2832401065
 10
101.1312406681
 20
88.3212456629
 10
101.1292388807
 20
88.359013733
 10
101.1285695957
 20
88.3964001491
 10
101.1292364815
 20
88.4334040245
 10
101.1312358699
 20
88.4700262457
 10
101.134562418
 20
88.5061252687
 10
101.139222164
 20
88.5416969346
 10
101.1452090272
 20
88.5767453651
 10
101.1524994451
 20
88.6111414012
 10
101.1610991021
 20
88.6448893873
 10
101.1710022334
 20
88.6779849091
 10
101.182168061
 20
88.710285633
 10
101.1945829417
 20
88.7417440708
  0
LWPOLYLINE
  5
365
100
AcDbEntity
  8
0
100
AcDbPolyline
 62
253
  6
CONTINUOUS
 90
9
 70
0
 10
96.1911905308
 20
114.3531947954
 10
96.1931776104
 20
114.3391334715
 10
96.1984644402
 20
114.3264709578
 10
96.2069760958
 20
114.3142556059
 10
96.2185701544
 20
114.3026918113
 10
96.2330526161
 20
114.2919730674
 10
96.2501811504
 20
114.2822787277
 10
96.2696691508
 20
114.2737710046
 10
96.2911905308
 20
114.2665922551
  0
LWPOLYLINE
  5
366
100
AcDbEntity
  8
0
100
AcDbPolyline
 62
253
  6
CONTINUOUS
 90
13
 70
0
 10
98.658098696
 20
113.6967795454
 10
98.6563980569
 20
113.7196248014
 10
98.6517943668
 20
113.7429602232
 10
98.6443663654
 20
113.76638669
 10
98.6342410989
 20
113.7895035236
 10
98.6215917462
 20
113.8119153418
 10
98.6066346574
 20
113.8332388206
 10
98.5896256535
 20
113.8531092507
 10
98.5708556504
 20
113.8711867751
 10
98.5506456837
 20
113.8871622022
 10
98.5293414178
 20
113.9007622937
 10
98.5073072333
 20
113.9117544386
 10
98.4849199953
 20
113.919950631
  0
LWPOLYLINE
  5
367
100
AcDbEntity
  8
0
100
AcDbPolyline
 62
7
  6
CONTINUOUS
 90
13
 70
0
 10
99.8446647188
 20
114.7189890707
 10
99.8431876331
 20
114.742025246
 10
99.8387679958
 20
114.7655179404
 10
99.831484313
 20
114.789068102
 10
99.8214644017
 20
114.812276197
 10
99.8088802053
 20
114.8347456348
 10
99.793945051
 20
114.8560896106
 10
99.7769126098
 20
114.8759414802
 10
99.7580760249
 20
114.8939632219
 10
99.7377601939
 20
114.9098480437
 10
99.7163121827
 20
114.9233237019
 10
99.6940951695
 20
114.9341569966
 10
99.6714860181
 20
114.9421601562
  0
LWPOLYLINE
  5
368
100
AcDbEntity
  8
0
100
AcDbPolyline
 62
7
  6
CONTINUOUS
 90
3
 70
0
 10
100.2593400304
 20
115.1067518739
 10
100.2581237603
 20
115.12877357
 10
100.2544623207
 20
115.1506522609
  0
LINE
  5
369
100
AcDbEntity
  8
0
100
AcDbLine
 62
253
  6
CONTINUOUS
 10
100.2330478692
 20
115.0809779598
 11
100.2342639718
 21
115.0582709119
  0
LWPOLYLINE
  5
36A
100
AcDbEntity
  8
0
100
AcDbPolyline
 62
7
  6
CONTINUOUS
 90
15
 70
0
 10
101.6123922088
 20
111.6717995646
 10
101.6125285721
 20
111.666731086
 10
101.6138479847
 20
111.6491321789
 10
101.6165761737
 20
111.6311014467
 10
101.6207944805
 20
111.6128120718
 10
101.6261144259
 20
111.5943358983
 10
101.6325030679
 20
111.5757818488
 10
101.6399930519
 20
111.5572789734
 10
101.6483103944
 20
111.5388940853
 10
101.6574426691
 20
111.5206908364
 10
101.6673892903
 20
111.502777474
 10
101.6779002392
 20
111.4852728714
 10
101.6888819729
 20
111.4682576784
 10
101.7003951786
 20
111.4517736294
 10
101.7124188027
 20
111.4358696714
  0
LINE
  5
36B
100
AcDbEntity
  8
0
100
AcDbLine
 62
7
  6
CONTINUOUS
 10
99.8446647188
 20
113.0735144235
 11
99.8446647188
 21
114.7189890707
  0
LINE
  5
36C
100
AcDbEntity
  8
0
100
AcDbLine
 62
253
  6
CONTINUOUS
 10
100.2342639718
 20
115.0582709119
 11
100.2342639718
 21
114.6507752773
  0
LINE
  5
36D
100
AcDbEntity
  8
0
100
AcDbLine
 62
7
  6
CONTINUOUS
 10
100.2593400304
 20
115.1067518739
 11
100.2593400304
 21
114.6992562393
  0
LINE
  5
36E
100
AcDbEntity
  8
0
100
AcDbLine
 62
253
  6
CONTINUOUS
 10
100.2915595286
 20
110.9662324423
 11
100.2915595286
 21
110.7240967469
  0
LINE
  5
36F
100
AcDbEntity
  8
0
100
AcDbLine
 62
7
  6
CONTINUOUS
 10
100.4723852861
 20
113.7202489697
 11
100.4723852861
 21
113.943778186
  0
LINE
  5
370
100
AcDbEntity
  8
0
100
AcDbLine
 62
7
  6
CONTINUOUS
 10
100.8620967178
 20
113.831278186
 11
100.8620967178
 21
113.6077489697
  0
LINE
  5
371
100
AcDbEntity
  8
0
100
AcDbLine
 62
7
  6
CONTINUOUS
 10
101.1587796251
 20
110.7177258051
 11
101.1587796251
 21
109.3532610279
  0
LINE
  5
372
100
AcDbEntity
  8
0
100
AcDbLine
 62
253
  6
CONTINUOUS
 10
101.2587796251
 20
110.7797165968
 11
101.2587796251
 21
109.2651207434
  0
LINE
  5
373
100
AcDbEntity
  8
0
100
AcDbLine
 62
7
  6
CONTINUOUS
 10
101.6124188027
 20
112.9476750913
 11
101.6124188027
 21
111.6710500433
  0
LINE
  5
374
100
AcDbEntity
  8
0
100
AcDbLine
 62
253
  6
CONTINUOUS
 10
101.6936895334
 20
109.1395730671
 11
101.6936895334
 21
110.6541689205
  0
LINE
  5
375
100
AcDbEntity
  8
0
100
AcDbLine
 62
253
  6
CONTINUOUS
 10
101.7124188027
 20
112.8610725509
 11
101.7124188027
 21
111.4358696714
  0
LINE
  5
376
100
AcDbEntity
  8
0
100
AcDbLine
 62
253
  6
CONTINUOUS
 10
101.9651229935
 20
109.1776423419
 11
101.9651229935
 21
110.4831162838
  0
LINE
  5
377
100
AcDbEntity
  8
0
100
AcDbLine
 62
253
  6
CONTINUOUS
 10
102.1690549023
 20
111.3040501839
 11
102.1690549023
 21
112.7292530634
  0
LWPOLYLINE
  5
378
100
AcDbEntity
  8
0
100
AcDbPolyline
 62
253
  6
CONTINUOUS
 90
13
 70
0
 10
101.7124188027
 20
112.8610725509
 10
101.7132196655
 20
112.8836428984
 10
101.715631145
 20
112.9074027461
 10
101.7196463874
 20
112.9319834805
 10
101.7252447049
 20
112.957044883
 10
101.7323552734
 20
112.9821142128
 10
101.7408259026
 20
113.0066009478
 10
101.7504920078
 20
113.0300420322
 10
101.7612064865
 20
113.052091851
 10
101.7727838942
 20
113.0723698187
 10
101.7850262881
 20
113.0905326399
 10
101.7977277598
 20
113.1062780459
 10
101.8106735621
 20
113.1193423694
  0
LWPOLYLINE
  5
379
100
AcDbEntity
  8
0
100
AcDbPolyline
 62
7
  6
CONTINUOUS
 90
8
 70
0
 10
101.6124188027
 20
112.9476750913
 10
101.6138268328
 20
112.9713628538
 10
101.6180445314
 20
112.9947767664
 10
101.6250365909
 20
113.0175886572
 10
101.6348292614
 20
113.039663872
 10
101.6472732751
 20
113.0604888874
 10
101.6619067422
 20
113.0793797595
 10
101.6760377327
 20
113.09396315
  0
LWPOLYLINE
  5
37A
100
AcDbEntity
  8
DRAFT
100
AcDbPolyline
 62
7
  6
CONTINUOUS
 90
3
 70
0
 10
98.7264105409
 20
89.4542440708
 10
98.7400879913
 20
89.4849076006
 10
98.7550279514
 20
89.5147761706
  0
LINE
  5
37B
100
AcDbEntity
  8
RACCORDO
100
AcDbLine
 62
253
  6
CONTINUOUS
 10
113.6432795412
 20
117.0042273157
 11
112.560084752
 21
115.3495966067
  0
LINE
  5
37C
100
AcDbEntity
  8
RACCORDO
100
AcDbLine
 62
7
  6
CONTINUOUS
 10
113.5035554695
 20
116.9712147434
 11
112.4607452572
 21
115.3782734487
  0
LWPOLYLINE
  5
37D
100
AcDbEntity
  8
RACCORDO
100
AcDbPolyline
 62
253
  6
CONTINUOUS
 90
10
 70
0
 10
113.4477762791
 20
117.4518974235
 10
113.4343119511
 20
117.4316974956
 10
113.4216912413
 20
117.4089807686
 10
113.4101735981
 20
117.38421434
 10
113.3999957884
 20
117.3579074476
 10
113.3913670071
 20
117.3306009368
 10
113.3844645912
 20
117.3028561336
 10
113.3794304035
 20
117.2752433958
 10
113.3763679056
 20
117.2483303922
 10
113.3753400173
 20
117.222670368
  0
LWPOLYLINE
  5
37E
100
AcDbEntity
  8
RACCORDO
100
AcDbPolyline
 62
253
  6
CONTINUOUS
 90
10
 70
0
 10
114.9437940423
 20
117.0200342944
 10
114.9303301009
 20
116.9998350582
 10
114.9177096198
 20
116.9771189635
 10
114.906192055
 20
116.9523530149
 10
114.8960141883
 20
116.926046359
 10
114.8873852595
 20
116.8987398166
 10
114.880482665
 20
116.8709947643
 10
114.8754483106
 20
116.843381594
 10
114.8723856941
 20
116.8164679862
 10
114.8713577779
 20
116.7908072396
  0
LWPOLYLINE
  5
37F
100
AcDbEntity
  8
RACCORDO
100
AcDbPolyline
 62
253
  6
CONTINUOUS
 90
16
 70
0
 10
114.4697566075
 20
116.6249331523
 10
114.488078452
 20
116.6505971394
 10
114.5088433459
 20
116.6746975292
 10
114.5318030493
 20
116.6971216909
 10
114.5566979288
 20
116.7178849619
 10
114.5832377827
 20
116.7367903056
 10
114.6111004271
 20
116.7534329784
 10
114.6399764442
 20
116.7677298758
 10
114.6695559309
 20
116.7796870326
 10
114.6995042839
 20
116.7890650453
 10
114.7294587312
 20
116.7958300441
 10
114.7591723379
 20
116.8000472299
 10
114.7884905521
 20
116.8016314967
 10
114.8171694442
 20
116.8005695727
 10
114.8448820455
 20
116.7969425374
 10
114.8713577779
 20
116.7908072396
  0
LWPOLYLINE
  5
380
100
AcDbEntity
  8
0
100
AcDbPolyline
 62
253
  6
CONTINUOUS
 90
13
 70
0
 10
113.5537620211
 20
109.569950631
 10
113.5408701827
 20
109.5569468976
 10
113.5282232621
 20
109.5412882964
 10
113.5160328761
 20
109.5232368379
 10
113.5045030028
 20
109.5030945716
 10
113.4938265679
 20
109.4811985316
 10
113.4841822168
 20
109.4579150978
 10
113.4757313256
 20
109.4336338645
 10
113.4686153004
 20
109.4087611221
 10
113.4629532113
 20
109.3837130584
 10
113.4588398005
 20
109.3589087949
 10
113.4563438962
 20
109.3347633737
 10
113.4555072617
 20
109.3116808125
  0
LINE
  5
381
100
AcDbEntity
  8
0
100
AcDbLine
 62
253
  6
CONTINUOUS
 10
115.1299272969
 20
110.9314419974
 11
114.7403280439
 21
110.5921601562
  0
LINE
  5
382
100
AcDbEntity
  8
0
100
AcDbLine
 62
253
  6
CONTINUOUS
 10
115.3031059977
 20
110.7082709119
 11
114.9135067447
 21
110.3689890707
  0
LINE
  5
383
100
AcDbEntity
  8
DRAFT
100
AcDbLine
 62
7
  6
CONTINUOUS
 10
120.7319368843
 20
115.0960123634
 11
118.7730419539
 21
113.3901120732
  0
LINE
  5
384
100
AcDbEntity
  8
0
100
AcDbLine
 62
7
  6
CONTINUOUS
 10
110.8943877305
 20
107.905459584
 11
109.7593516276
 21
106.9276423419
  0
LINE
  5
385
100
AcDbEntity
  8
0
100
AcDbLine
 62
253
  6
CONTINUOUS
 10
114.7403280439
 20
110.5921601562
 11
113.5537620211
 21
109.569950631
  0
LINE
  5
386
100
AcDbEntity
  8
0
100
AcDbLine
 62
253
  6
CONTINUOUS
 10
114.9135067447
 20
110.3689890707
 11
113.7269407219
 21
109.3467795454
  0
LINE
  5
387
100
AcDbEntity
  8
0
100
AcDbLine
 62
253
  6
CONTINUOUS
 10
114.9135067447
 20
109.4944572949
 11
119.2821493229
 21
113.2431454349
  0
LINE
  5
388
100
AcDbEntity
  8
0
100
AcDbLine
 62
253
  6
CONTINUOUS
 10
115.1482739332
 20
109.2179767133
 11
119.5883238821
 21
113.0279387979
  0
LINE
  5
389
100
AcDbEntity
  8
0
100
AcDbLine
 62
253
  6
CONTINUOUS
 10
122.5801400656
 20
117.5242644112
 11
114.9508595784
 21
111.016107064
  0
LINE
  5
38A
100
AcDbEntity
  8
0
100
AcDbLine
 62
253
  6
CONTINUOUS
 10
122.6423280297
 20
117.3518537736
 11
115.1637717827
 21
110.9722717322
  0
LINE
  5
38B
100
AcDbEntity
  8
DRAFT
100
AcDbLine
 62
7
  6
CONTINUOUS
 10
124.4317577336
 20
116.8953581534
 11
119.7051007967
 21
112.8774512918
  0
LWPOLYLINE
  5
38C
100
AcDbEntity
  8
0
100
AcDbPolyline
 62
7
  6
CONTINUOUS
 90
7
 70
0
 10
114.238357905
 20
108.1023370425
 10
114.2267146561
 20
108.0924850635
 10
114.2134487088
 20
108.081535257
 10
114.1986669975
 20
108.069573781
 10
114.1824439448
 20
108.0565588883
 10
114.1649691759
 20
108.0426953543
 10
114.1465793724
 20
108.0284062315
  0
LINE
  5
38D
100
AcDbEntity
  8
0
100
AcDbLine
 62
7
  6
CONTINUOUS
 10
118.2482381683
 20
113.5416098766
 11
115.1506760299
 21
110.958425023
  0
LINE
  5
38E
100
AcDbEntity
  8
DRAFT
100
AcDbLine
 62
7
  6
CONTINUOUS
 10
123.3590311855
 20
117.205027634
 11
120.7319368843
 21
115.0960123634
  0
LWPOLYLINE
  5
38F
100
AcDbEntity
  8
0
100
AcDbPolyline
 62
7
  6
CONTINUOUS
 90
4
 70
0
 10
114.1465793724
 20
108.0284062315
 10
114.1079978388
 20
107.9986438816
 10
114.0881168077
 20
107.9836068841
 10
114.0483253716
 20
107.9537473651
  0
LWPOLYLINE
  5
390
100
AcDbEntity
  8
0
100
AcDbPolyline
 62
7
  6
CONTINUOUS
 90
5
 70
0
 10
114.0483253716
 20
107.9537473651
 10
114.0284439265
 20
107.9391022171
 10
114.0086661253
 20
107.9248379783
 10
113.9893143439
 20
107.9108823038
 10
113.9706237914
 20
107.8972306965
  0
LWPOLYLINE
  5
391
100
AcDbEntity
  8
0
100
AcDbPolyline
 62
253
  6
CONTINUOUS
 90
13
 70
0
 10
113.7269407219
 20
108.9619587053
 10
113.7122098097
 20
108.9513249407
 10
113.6948568424
 20
108.9417309048
 10
113.6751721819
 20
108.9333371316
 10
113.6534852054
 20
108.9262840715
 10
113.6301587944
 20
108.9206897411
 10
113.6055832626
 20
108.9166477488
 10
113.5801698245
 20
108.9142257278
 10
113.5543437155
 20
108.9134642051
 10
113.5285370757
 20
108.9143759231
 10
113.5031817197
 20
108.9169456262
 10
113.4787019107
 20
108.9211303163
 10
113.4555072617
 20
108.9268599724
  0
LWPOLYLINE
  5
392
100
AcDbEntity
  8
0
100
AcDbPolyline
 62
7
  6
CONTINUOUS
 90
3
 70
0
 10
114.6769403374
 20
106.8794390731
 10
114.690095447
 20
106.8886068985
 10
114.703783056
 20
106.8984784218
  0
LWPOLYLINE
  5
393
100
AcDbEntity
  8
RACCORDO
100
AcDbPolyline
 62
253
  6
CONTINUOUS
 90
16
 70
0
 10
112.1943608194
 20
104.4322365151
 10
112.1655437582
 20
104.4179129071
 10
112.1325138038
 20
104.4051255179
 10
112.0956210207
 20
104.394009873
 10
112.0552564132
 20
104.3846837805
 10
112.0118477812
 20
104.3772460819
 10
111.9658551865
 20
104.371775605
 10
111.9177660767
 20
104.368330328
 10
111.868090119
 20
104.3669467653
 10
111.8173537989
 20
104.3676395804
 10
111.7660948398
 20
104.3704014306
 10
111.7148565042
 20
104.3752030447
 10
111.6641818362
 20
104.3819935337
 10
111.614607906
 20
104.3907009293
 10
111.5666601174
 20
104.401232947
 10
111.5208466401
 20
104.4134779645
  0
LWPOLYLINE
  5
394
100
AcDbEntity
  8
0
100
AcDbPolyline
 62
7
  6
CONTINUOUS
 90
9
 70
0
 10
112.9441786205
 20
91.5267431495
 10
112.9843268813
 20
91.5224933066
 10
113.0248870583
 20
91.5226971426
 10
113.0647916342
 20
91.5273896044
 10
113.1034873407
 20
91.5364923539
 10
113.1405569473
 20
91.5498506167
 10
113.1757358403
 20
91.5673378692
 10
113.2084988179
 20
91.5887003785
 10
113.2235227036
 20
91.6004835172
  0
LINE
  5
395
100
AcDbEntity
  8
DRAFT
100
AcDbLine
 62
7
  6
CONTINUOUS
 10
103.9078791039
 20
87.1612507668
 11
103.892942529
 21
87.1996915444
  0
LWPOLYLINE
  5
396
100
AcDbEntity
  8
DRAFT
100
AcDbPolyline
 62
7
  6
CONTINUOUS
 90
25
 70
0
 10
104.9919198412
 20
87.7143405649
 10
105.0068185371
 20
87.6758669832
 10
105.0204580727
 20
87.6373259969
 10
105.0328385077
 20
87.5987176577
 10
105.0439734435
 20
87.5599867164
 10
105.0538494056
 20
87.5211885324
 10
105.0624258187
 20
87.4824890529
 10
105.0696970926
 20
87.4438963392
 10
105.0756688978
 20
87.4054024
 10
105.0803175083
 20
87.3671490676
 10
105.0836369105
 20
87.3291355581
 10
105.0856331608
 20
87.2913626927
 10
105.0863005976
 20
87.253974676
 10
105.0856355529
 20
87.216972395
 10
105.083641695
 20
87.1803549634
 10
105.0803243246
 20
87.1442638886
 10
105.0756773605
 20
87.1087032921
 10
105.0697068417
 20
87.0736690164
 10
105.0624362088
 20
87.0392901146
 10
105.0538597002
 20
87.0055621755
 10
105.0439829972
 20
86.9724895414
 10
105.0328466627
 20
86.9402143592
 10
105.0204641671
 20
86.9087839678
 10
105.0068219132
 20
86.878150919
 10
104.9919198412
 20
86.8483151611
  0
LINE
  5
397
100
AcDbEntity
  8
SUPERFICI
100
AcDbLine
 62
7
  6
CONTINUOUS
 10
105.0088771598
 20
87.6702555788
 11
104.9919198412
 21
87.7143405649
  0
LWPOLYLINE
  5
398
100
AcDbEntity
  8
DRAFT
100
AcDbPolyline
 62
7
  6
CONTINUOUS
 90
22
 70
0
 10
103.892942529
 20
87.1996915444
 10
103.8792678043
 20
87.238202056
 10
103.8668549895
 20
87.2767823534
 10
103.8556905641
 20
87.315487756
 10
103.8457881755
 20
87.354263054
 10
103.8371886142
 20
87.3929424866
 10
103.8298975543
 20
87.4315180651
 10
103.8239094021
 20
87.4699978473
 10
103.8192480054
 20
87.5082401066
 10
103.8159194198
 20
87.5462456631
 10
103.8139176324
 20
87.5840137332
 10
103.8132483474
 20
87.6214001493
 10
103.8139152332
 20
87.6584040247
 10
103.8159146217
 20
87.6950262459
 10
103.8192411697
 20
87.7311252689
 10
103.8239009157
 20
87.7666969347
 10
103.829887779
 20
87.8017453652
 10
103.8371781969
 20
87.8361414013
 10
103.8457778538
 20
87.8698893874
 10
103.8556809851
 20
87.9029849092
 10
103.8668468127
 20
87.935285633
 10
103.8792616935
 20
87.9667440708
  0
LWPOLYLINE
  5
399
100
AcDbEntity
  8
0
100
AcDbPolyline
 62
253
  6
CONTINUOUS
 90
13
 70
0
 10
102.442259983
 20
112.7658556038
 10
102.4405503899
 20
112.7886904369
 10
102.4359064615
 20
112.8119900735
 10
102.4284076566
 20
112.8353558504
 10
102.418182282
 20
112.8583879727
 10
102.4054052965
 20
112.8806923543
 10
102.3902953179
 20
112.9018873612
 10
102.3731108823
 20
112.9216103408
 10
102.3541460199
 20
112.9395238276
 10
102.333725225
 20
112.9553213168
 10
102.3121979029
 20
112.968732509
 10
102.2899323921
 20
112.9795279349
 10
102.2673096616
 20
112.9875228819
  0
LWPOLYLINE
  5
39A
100
AcDbEntity
  8
0
100
AcDbPolyline
 62
7
  6
CONTINUOUS
 90
16
 70
0
 10
102.8422336031
 20
113.1273899102
 10
102.8414669219
 20
113.1459376363
 10
102.8400190357
 20
113.1657262727
 10
102.8378772996
 20
113.1865591151
 10
102.8348978474
 20
113.208348711
 10
102.8311736869
 20
113.2307702149
 10
102.8269982291
 20
113.2532634794
 10
102.8223452534
 20
113.2753042018
 10
102.817045215
 20
113.2970499645
 10
102.8112068237
 20
113.3189300286
 10
102.8046676246
 20
113.3411039939
 10
102.797522473
 20
113.3628846235
 10
102.7902745441
 20
113.3834361043
 10
102.7829986765
 20
113.402411397
 10
102.7753829776
 20
113.4198596714
 10
102.7673096616
 20
113.4356521134
  0
LINE
  5
39B
100
AcDbEntity
  8
0
100
AcDbLine
 62
253
  6
CONTINUOUS
 10
102.442259983
 20
111.5140955024
 11
102.442259983
 21
112.7658556038
  0
LINE
  5
39C
100
AcDbEntity
  8
0
100
AcDbLine
 62
7
  6
CONTINUOUS
 10
102.842259983
 20
113.127382295
 11
102.842259983
 21
111.8968148385
  0
LINE
  5
39D
100
AcDbEntity
  8
0
100
AcDbLine
 62
253
  6
CONTINUOUS
 10
104.8295570689
 20
111.3231315847
 11
104.8295570689
 21
112.5536990413
  0
LINE
  5
39E
100
AcDbEntity
  8
0
100
AcDbLine
 62
253
  6
CONTINUOUS
 10
105.100990529
 20
111.3671491907
 11
105.100990529
 21
112.5887977741
  0
LWPOLYLINE
  5
39F
100
AcDbEntity
  8
0
100
AcDbPolyline
 62
253
  6
CONTINUOUS
 90
8
 70
0
 10
106.9426596144
 20
116.5127091128
 10
106.9425249797
 20
116.5118445515
 10
106.9401800395
 20
116.5083601919
 10
106.9349955135
 20
116.5041042575
 10
106.927062095
 20
116.4991818888
 10
106.9164793591
 20
116.4936987018
 10
106.9033793196
 20
116.4877582957
 10
106.8879021379
 20
116.4814539126
  0
LWPOLYLINE
  5
3A0
100
AcDbEntity
  8
0
100
AcDbPolyline
 62
253
  6
CONTINUOUS
 90
6
 70
0
 10
106.8879021379
 20
116.4814539126
 10
106.8926621195
 20
116.5071414846
 10
106.8943773099
 20
116.5332452105
 10
106.8930182956
 20
116.5593184809
 10
106.888608261
 20
116.5849151889
 10
106.8812225937
 20
116.6095973696
  0
LWPOLYLINE
  5
3A1
100
AcDbEntity
  8
DRAFT
100
AcDbPolyline
 62
7
  6
CONTINUOUS
 90
3
 70
0
 10
101.1945829417
 20
88.7417440708
 10
101.2082603921
 20
88.7724076006
 10
101.2232003522
 20
88.8022761706
  0
LWPOLYLINE
  5
3A2
100
AcDbEntity
  8
0
100
AcDbPolyline
 62
7
  6
CONTINUOUS
 90
10
 70
0
 10
109.9771619431
 20
110.6525888857
 10
109.9942360898
 20
110.6883102813
 10
110.0070416998
 20
110.725910521
 10
110.0155787731
 20
110.7653896048
 10
110.0198473098
 20
110.8071786153
 10
110.0198473098
 20
110.8508464699
 10
110.0155787731
 20
110.8950999211
 10
110.0070416998
 20
110.9395078866
 10
109.9942360898
 20
110.9845014487
 10
109.9771619431
 20
111.0300806074
  0
LWPOLYLINE
  5
3A3
100
AcDbEntity
  8
SUPERFICI
100
AcDbPolyline
 62
7
  6
CONTINUOUS
 90
21
 70
0
 10
99.8390686887
 20
88.3358151611
 10
99.8560023405
 20
88.3700073008
 10
99.8712828554
 20
88.4052071085
 10
99.884910317
 20
88.4414146563
 10
99.89690256
 20
88.4786950372
 10
99.9072419285
 20
88.5169833124
 10
99.915875237
 20
88.5560844784
 10
99.9227934208
 20
88.5960013341
 10
99.9280056509
 20
88.6367311717
 10
99.9314860264
 20
88.6780706668
 10
99.9332262917
 20
88.7200210113
 10
99.9332347385
 20
88.7625810438
 10
99.9315102164
 20
88.805543848
 10
99.9280449601
 20
88.8489113909
 10
99.9228467009
 20
88.8926816752
 10
99.9159374621
 20
88.936641778
 10
99.907306881
 20
88.9807991679
 10
99.8969652182
 20
89.0251462871
 10
99.8849653627
 20
89.0694476116
 10
99.8713248708
 20
89.1136245702
 10
99.8560260073
 20
89.1577555788
  0
LWPOLYLINE
  5
3A4
100
AcDbEntity
  8
SUPERFICI
100
AcDbPolyline
 62
7
  6
CONTINUOUS
 90
22
 70
0
 10
98.7550279514
 20
89.5147761706
 10
98.7380511836
 20
89.4805466913
 10
98.7227311311
 20
89.4453126431
 10
98.7090678778
 20
89.4090740988
 10
98.6970437076
 20
89.3717660682
 10
98.6866765151
 20
89.3334536966
 10
98.6780197671
 20
89.2943322315
 10
98.6710826341
 20
89.2543989653
 10
98.6658560518
 20
89.2136566982
 10
98.6623660643
 20
89.172308879
 10
98.6606209637
 20
89.1303543469
 10
98.6606124941
 20
89.0877942947
 10
98.6623418073
 20
89.0448356396
 10
98.6658166342
 20
89.0014763853
 10
98.67102921
 20
88.9577184994
 10
98.6779573723
 20
88.9137747849
 10
98.686611384
 20
88.8696376865
 10
98.6969808802
 20
88.8253146717
 10
98.7090126864
 20
88.7810410172
 10
98.7226890046
 20
88.7368950852
 10
98.7380274542
 20
88.6927983592
 10
98.7550279514
 20
88.6487507668
  0
LWPOLYLINE
  5
3A5
100
AcDbEntity
  8
SUPERFICI
100
AcDbPolyline
 62
7
  6
CONTINUOUS
 90
22
 70
0
 10
101.2232003522
 20
88.8022761706
 10
101.2062235843
 20
88.7680466913
 10
101.1909035319
 20
88.7328126431
 10
101.1772402785
 20
88.6965740988
 10
101.1652161083
 20
88.6592660682
 10
101.1548489159
 20
88.6209536966
 10
101.1461921679
 20
88.5818322315
 10
101.1392550349
 20
88.5418989653
 10
101.1340284526
 20
88.5011566982
 10
101.1305384651
 20
88.459808879
 10
101.1287933645
 20
88.4178543469
 10
101.1287848948
 20
88.3752942947
 10
101.130514208
 20
88.3323356396
 10
101.133989035
 20
88.2889763853
 10
101.1392016108
 20
88.2452184994
 10
101.1461297731
 20
88.2012747849
 10
101.1547837848
 20
88.1571376865
 10
101.165153281
 20
88.1128146717
 10
101.1771850872
 20
88.0685410172
 10
101.1908614054
 20
88.0243950852
 10
101.206199855
 20
87.9802983592
 10
101.2232003522
 20
87.9362507668
  0
LINE
  5
3A6
100
AcDbEntity
  8
RACCORDO
100
AcDbLine
 62
253
  6
CONTINUOUS
 10
116.0681506718
 20
116.3042273157
 11
115.8660780815
 21
115.9955519818
  0
LINE
  5
3A7
100
AcDbEntity
  8
RACCORDO
100
AcDbLine
 62
7
  6
CONTINUOUS
 10
115.9284266001
 20
116.2712147434
 11
115.6052592728
 21
115.7775616181
  0
LWPOLYLINE
  5
3A8
100
AcDbEntity
  8
RACCORDO
100
AcDbPolyline
 62
253
  6
CONTINUOUS
 90
10
 70
0
 10
115.8726474097
 20
116.7518974235
 10
115.8591830817
 20
116.7316974956
 10
115.8465623719
 20
116.7089807686
 10
115.8350447287
 20
116.68421434
 10
115.824866919
 20
116.6579074476
 10
115.8162381377
 20
116.6306009368
 10
115.8093357218
 20
116.6028561336
 10
115.8043015341
 20
116.5752433958
 10
115.8012390362
 20
116.5483303922
 10
115.8002111479
 20
116.522670368
  0
LWPOLYLINE
  5
3A9
100
AcDbEntity
  8
RACCORDO
100
AcDbPolyline
 62
253
  6
CONTINUOUS
 90
3
 70
0
 10
123.1203344434
 20
121.9037756797
 10
123.0990094085
 20
121.8747758969
 10
123.0717721293
 20
121.8469392158
  0
LWPOLYLINE
  5
3AA
100
AcDbEntity
  8
0
100
AcDbPolyline
 62
253
  6
CONTINUOUS
 90
5
 70
0
 10
115.3031059977
 20
110.7082709119
 10
115.3139509501
 20
110.7197048832
 10
115.3218645446
 20
110.7318164889
 10
115.3266553232
 20
110.7444193732
 10
115.3281820001
 20
110.7566769835
  0
LWPOLYLINE
  5
3AB
100
AcDbEntity
  8
RACCORDO
100
AcDbPolyline
 62
253
  6
CONTINUOUS
 90
19
 70
0
 10
112.0130611374
 20
105.5634872271
 10
111.9735216782
 20
105.5259139833
 10
111.9343109757
 20
105.483435748
 10
111.8956591244
 20
105.4363092779
 10
111.8577877499
 20
105.384820033
 10
111.820924252
 20
105.3292777887
 10
111.7853003639
 20
105.2700151488
 10
111.7511262633
 20
105.2073911352
 10
111.7186007796
 20
105.1417819153
 10
111.6879259963
 20
105.0735756769
 10
111.6592825966
 20
105.0031824944
 10
111.6328378176
 20
104.9310260374
 10
111.6087563234
 20
104.8575337485
 10
111.5871802039
 20
104.7831449657
 10
111.5682359846
 20
104.7083090672
 10
111.5520430879
 20
104.6334763785
 10
111.5386991909
 20
104.5590967478
 10
111.5282799724
 20
104.4856168244
 10
111.5208466217
 20
104.4134779534
  0
LWPOLYLINE
  5
3AC
100
AcDbEntity
  8
RACCORDO
100
AcDbPolyline
 62
253
  6
CONTINUOUS
 90
19
 70
0
 10
112.4459254566
 20
105.0056657422
 10
112.4256540776
 20
104.986924981
 10
112.4057417929
 20
104.9659651455
 10
112.3861886027
 20
104.9427862358
 10
112.366869219
 20
104.9172130602
 10
112.3479089297
 20
104.8894208103
 10
112.3296835981
 20
104.8599350608
 10
112.3122183477
 20
104.8287363217
 10
112.295488055
 20
104.7958440828
 10
112.2797932129
 20
104.7618423892
 10
112.2651510132
 20
104.7267049351
 10
112.2515442641
 20
104.6904580262
 10
112.2392218822
 20
104.6537646237
 10
112.2282074441
 20
104.6165982053
 10
112.2184773733
 20
104.5789852932
 10
112.2102098567
 20
104.5416684154
 10
112.20346429
 20
104.5048950811
 10
112.1981812776
 20
104.4684177809
 10
112.1943608194
 20
104.4322365151
  0
LINE
  5
3AD
100
AcDbEntity
  8
0
100
AcDbLine
 62
7
  6
CONTINUOUS
 10
114.9135067447
 20
108.7235144235
 11
114.2420572515
 21
108.1056137868
  0
LINE
  5
3AE
100
AcDbEntity
  8
0
100
AcDbLine
 62
253
  6
CONTINUOUS
 10
115.3036631718
 20
108.6108859644
 11
114.6187112293
 21
107.9925384955
  0
LINE
  5
3AF
100
AcDbEntity
  8
0
100
AcDbLine
 62
253
  6
CONTINUOUS
 10
115.7362308783
 20
108.053001518
 11
115.0540134817
 21
107.4371226887
  0
LWPOLYLINE
  5
3B0
100
AcDbEntity
  8
RACCORDO
100
AcDbPolyline
 62
253
  6
CONTINUOUS
 90
10
 70
0
 10
126.5101950943
 20
115.5006806609
 10
126.546065722
 20
115.5321910166
 10
126.5775097195
 20
115.5604989423
 10
126.6042930641
 20
115.5853937555
 10
126.6262164201
 20
115.6066901761
 10
126.6431166225
 20
115.6242297049
 10
126.6548678911
 20
115.6378818035
 10
126.6613827668
 20
115.647544866
 10
126.6626127625
 20
115.6531469747
 10
126.6623225791
 20
115.6536573127
  0
LINE
  5
3B1
100
AcDbEntity
  8
0
100
AcDbLine
 62
253
  6
CONTINUOUS
 10
120.9861910625
 20
111.2265421211
 11
116.2589085516
 21
107.0788720797
  0
LINE
  5
3B2
100
AcDbEntity
  8
0
100
AcDbLine
 62
253
  6
CONTINUOUS
 10
115.7881675967
 20
109.0332553239
 11
115.3032841263
 21
108.6109953854
  0
LINE
  5
3B3
100
AcDbEntity
  8
0
100
AcDbLine
 62
253
  6
CONTINUOUS
 10
116.2211143486
 20
108.47532761
 11
115.7362308783
 21
108.0530676716
  0
LINE
  5
3B4
100
AcDbEntity
  8
RACCORDO
100
AcDbLine
 62
253
  6
CONTINUOUS
 10
126.5101950943
 20
115.5006806609
 11
121.2075673396
 21
110.8905504388
  0
LINE
  5
3B5
100
AcDbEntity
  8
0
100
AcDbLine
 62
253
  6
CONTINUOUS
 10
113.6579018091
 20
106.5745026763
 11
112.7808460425
 21
105.8189317755
  0
LINE
  5
3B6
100
AcDbEntity
  8
0
100
AcDbLine
 62
253
  6
CONTINUOUS
 10
113.7511205185
 20
104.7929990507
 11
113.3110239625
 21
104.4138622113
  0
LINE
  5
3B7
100
AcDbEntity
  8
0
100
AcDbLine
 62
253
  6
CONTINUOUS
 10
112.5113143012
 20
105.9916428152
 11
112.0130611374
 21
105.5634872271
  0
LINE
  5
3B8
100
AcDbEntity
  8
0
100
AcDbLine
 62
253
  6
CONTINUOUS
 10
112.9441786205
 20
105.4338213303
 11
112.4459254566
 21
105.0056657422
  0
LINE
  5
3B9
100
AcDbEntity
  8
RACCORDO
100
AcDbLine
 62
7
  6
CONTINUOUS
 10
125.9538574197
 20
116.2176191886
 11
125.3536159527
 21
115.7073823889
  0
LWPOLYLINE
  5
3BA
100
AcDbEntity
  8
RACCORDO
100
AcDbPolyline
 62
7
  6
CONTINUOUS
 90
8
 70
0
 10
125.9538574197
 20
116.2176191886
 10
125.9927025387
 20
116.2491351279
 10
126.0284673795
 20
116.2744459953
 10
126.0608343917
 20
116.2934889907
 10
126.0893664813
 20
116.3063009219
 10
126.113923349
 20
116.3129013943
 10
126.1346618798
 20
116.31328412
 10
126.1415578411
 20
116.3118117159
  0
LINE
  5
3BB
100
AcDbEntity
  8
0
100
AcDbLine
 62
7
  6
CONTINUOUS
 10
113.7511205185
 20
104.595845644
 11
113.3110239625
 21
104.2684003336
  0
LINE
  5
3BC
100
AcDbEntity
  8
0
100
AcDbLine
 62
7
  6
CONTINUOUS
 10
116.2589085516
 20
105.2018190984
 11
115.0540134817
 21
104.3233405649
  0
LWPOLYLINE
  5
3BD
100
AcDbEntity
  8
0
100
AcDbPolyline
 62
253
  6
CONTINUOUS
 90
11
 70
0
 10
113.2193497975
 20
102.6907672267
 10
113.2009361573
 20
102.6774750209
 10
113.1792449482
 20
102.665482476
 10
113.1546391226
 20
102.6549902595
 10
113.1275304021
 20
102.6461739344
 10
113.0983723885
 20
102.6391810215
 10
113.0676529737
 20
102.634128531
 10
113.0358861761
 20
102.6311010048
 10
113.0036035398
 20
102.6301491014
 10
112.97134524
 20
102.6312887489
 10
112.9441786205
 20
102.634042019
  0
LWPOLYLINE
  5
3BE
100
AcDbEntity
  8
0
100
AcDbPolyline
 62
253
  6
CONTINUOUS
 90
10
 70
0
 10
113.1730353067
 20
102.3603853876
 10
113.1547037584
 20
102.3476780004
 10
113.1332224483
 20
102.3371818176
 10
113.1089508059
 20
102.3290724722
 10
113.082294957
 20
102.3234856607
 10
113.0537009126
 20
102.3205148688
 10
113.0236471022
 20
102.3202098125
 10
112.9926363977
 20
102.3225756074
 10
112.9611876907
 20
102.3275726788
 10
112.9441786205
 20
102.3316647417
  0
LINE
  5
3BF
100
AcDbEntity
  8
0
100
AcDbLine
 62
7
  6
CONTINUOUS
 10
113.4935622537
 20
92.5070948838
 11
114.1733143658
 21
92.3108673513
  0
LINE
  5
3C0
100
AcDbEntity
  8
0
100
AcDbLine
 62
7
  6
CONTINUOUS
 10
114.703783056
 20
92.4388511005
 11
114.5532181764
 21
92.4823154374
  0
LINE
  5
3C1
100
AcDbEntity
  8
RACCORDO
100
AcDbLine
 62
253
  6
CONTINUOUS
 10
111.001497173
 20
93.8257198814
 11
92.8354587661
 21
99.0698034636
  0
LINE
  5
3C2
100
AcDbEntity
  8
0
100
AcDbLine
 62
7
  6
CONTINUOUS
 10
114.1733143658
 20
93.1164266365
 11
113.4935622537
 21
93.3126541689
  0
LINE
  5
3C3
100
AcDbEntity
  8
0
100
AcDbLine
 62
7
  6
CONTINUOUS
 10
114.703783056
 20
93.2595269154
 11
114.5532181764
 21
93.3029912522
  0
LINE
  5
3C4
100
AcDbEntity
  8
0
100
AcDbLine
 62
7
  6
CONTINUOUS
 10
114.603783056
 20
94.1770946271
 11
114.523795313
 21
94.2001850996
  0
LINE
  5
3C5
100
AcDbEntity
  8
0
100
AcDbLine
 62
7
  6
CONTINUOUS
 10
120.4054331031
 20
92.5679835764
 11
121.493477682
 21
92.2538921612
  0
LWPOLYLINE
  5
3C6
100
AcDbEntity
  8
0
100
AcDbPolyline
 62
253
  6
CONTINUOUS
 90
9
 70
0
 10
101.6124188027
 20
112.9476750913
 10
101.6144058823
 20
112.9336137673
 10
101.6196927121
 20
112.9209512537
 10
101.6282043677
 20
112.9087359018
 10
101.6397984263
 20
112.8971721072
 10
101.654280888
 20
112.8864533633
 10
101.6714094223
 20
112.8767590236
 10
101.6908974228
 20
112.8682513005
 10
101.7124188027
 20
112.8610725509
  0
LWPOLYLINE
  5
3C7
100
AcDbEntity
  8
0
100
AcDbPolyline
 62
253
  6
CONTINUOUS
 90
13
 70
0
 10
105.100990529
 20
112.5887977741
 10
105.0992898899
 20
112.6116430301
 10
105.0946861997
 20
112.634978452
 10
105.0872581984
 20
112.6584049188
 10
105.0771329319
 20
112.6815217524
 10
105.0644835792
 20
112.7039335706
 10
105.0495264904
 20
112.7252570494
 10
105.0325174864
 20
112.7451274794
 10
105.0137474833
 20
112.7632050038
 10
104.9935375167
 20
112.7791804309
 10
104.9722332507
 20
112.7927805225
 10
104.9501990662
 20
112.8037726673
 10
104.9278118282
 20
112.8119688597
  0
LWPOLYLINE
  5
3C8
100
AcDbEntity
  8
0
100
AcDbPolyline
 62
7
  6
CONTINUOUS
 90
13
 70
0
 10
105.2573234925
 20
112.7234763688
 10
105.2558464067
 20
112.7465125441
 10
105.2514267695
 20
112.7700052385
 10
105.2441430866
 20
112.7935554001
 10
105.2341231753
 20
112.8167634951
 10
105.221538979
 20
112.8392329329
 10
105.2066038246
 20
112.8605769087
 10
105.1895713834
 20
112.8804287784
 10
105.1707347986
 20
112.89845052
 10
105.1504189676
 20
112.9143353418
 10
105.1289709564
 20
112.927811
 10
105.1067539431
 20
112.9386442947
 10
105.0841447917
 20
112.9466474543
  0
LWPOLYLINE
  5
3C9
100
AcDbEntity
  8
0
100
AcDbPolyline
 62
7
  6
CONTINUOUS
 90
3
 70
0
 10
105.671998804
 20
113.111239172
 10
105.670782534
 20
113.1332608681
 10
105.6671210943
 20
113.155139559
  0
LWPOLYLINE
  5
3CA
100
AcDbEntity
  8
0
100
AcDbPolyline
 62
253
  6
CONTINUOUS
 90
13
 70
0
 10
106.7957504643
 20
116.4437725969
 10
106.7944964705
 20
116.4670019905
 10
106.7903003458
 20
116.4906894366
 10
106.7832338873
 20
116.5144296364
 10
106.7734180039
 20
116.5378163885
 10
106.7610206481
 20
116.5604495392
 10
106.7462539422
 20
116.5819418288
 10
106.7293705485
 20
116.6019255185
 10
106.7106593467
 20
116.6200586817
 10
106.6904404905
 20
116.636031055
 10
106.6690599302
 20
116.6495693466
 10
106.6468834931
 20
116.6604419126
 10
106.6242906242
 20
116.6684627205
  0
LINE
  5
3CB
100
AcDbEntity
  8
0
100
AcDbLine
 62
253
  6
CONTINUOUS
 10
105.6457066428
 20
113.0854652579
 11
105.6469227455
 21
113.06275821
  0
LWPOLYLINE
  5
3CC
100
AcDbEntity
  8
0
100
AcDbPolyline
 62
7
  6
CONTINUOUS
 90
4
 70
0
 10
106.9426673857
 20
116.5127248524
 10
106.9418372648
 20
116.5318541981
 10
106.9382113395
 20
116.5567284687
 10
106.9315862305
 20
116.5814251648
  0
LINE
  5
3CD
100
AcDbEntity
  8
0
100
AcDbLine
 62
7
  6
CONTINUOUS
 10
105.2573234925
 20
111.5110144235
 11
105.2573234925
 21
112.7234763688
  0
LINE
  5
3CE
100
AcDbEntity
  8
0
100
AcDbLine
 62
7
  6
CONTINUOUS
 10
105.4984596242
 20
117.2221539139
 11
105.4984596242
 21
117.0527890698
  0
LINE
  5
3CF
100
AcDbEntity
  8
0
100
AcDbLine
 62
253
  6
CONTINUOUS
 10
105.6469227455
 20
113.06275821
 11
105.6469227455
 21
111.8502962647
  0
LINE
  5
3D0
100
AcDbEntity
  8
0
100
AcDbLine
 62
7
  6
CONTINUOUS
 10
105.671998804
 20
113.111239172
 11
105.671998804
 21
111.8973444289
  0
LINE
  5
3D1
100
AcDbEntity
  8
0
100
AcDbLine
 62
7
  6
CONTINUOUS
 10
106.8171407237
 20
112.0376680891
 11
106.8171407237
 21
110.8117175772
  0
LINE
  5
3D2
100
AcDbEntity
  8
0
100
AcDbLine
 62
253
  6
CONTINUOUS
 10
106.8879021379
 20
116.4814539126
 11
106.8879021379
 21
115.3083830789
  0
LINE
  5
3D3
100
AcDbEntity
  8
0
100
AcDbLine
 62
253
  6
CONTINUOUS
 10
106.9171407237
 20
111.9510655487
 11
106.9171407237
 21
110.7204980922
  0
LINE
  5
3D4
100
AcDbEntity
  8
0
100
AcDbLine
 62
7
  6
CONTINUOUS
 10
106.9426596575
 20
116.5123427189
 11
106.9426596575
 21
115.4075036684
  0
LWPOLYLINE
  5
3D5
100
AcDbEntity
  8
0
100
AcDbPolyline
 62
253
  6
CONTINUOUS
 90
13
 70
0
 10
106.9171407237
 20
111.9510655487
 10
106.9179415865
 20
111.9736358962
 10
106.9203530659
 20
111.9973957438
 10
106.9243683083
 20
112.0219764783
 10
106.9299666259
 20
112.0470378808
 10
106.9370771944
 20
112.0721072106
 10
106.9455478236
 20
112.0965939455
 10
106.9552139288
 20
112.1200350299
 10
106.9659284074
 20
112.1420848488
 10
106.9775058152
 20
112.1623628165
 10
106.9897482091
 20
112.1805256377
 10
107.0024496808
 20
112.1962710436
 10
107.0153954831
 20
112.2093353671
  0
LWPOLYLINE
  5
3D6
100
AcDbEntity
  8
0
100
AcDbPolyline
 62
7
  6
CONTINUOUS
 90
8
 70
0
 10
106.8171407237
 20
112.0376680891
 10
106.8185487538
 20
112.0613558515
 10
106.8227664524
 20
112.0847697641
 10
106.8297585119
 20
112.107581655
 10
106.8395511824
 20
112.1296568698
 10
106.851995196
 20
112.1504818852
 10
106.8666286631
 20
112.1693727573
 10
106.8807596537
 20
112.1839561478
  0
LWPOLYLINE
  5
3D7
100
AcDbEntity
  8
0
100
AcDbPolyline
 62
7
  6
CONTINUOUS
 90
8
 70
0
 10
108.4776428903
 20
110.9658556038
 10
108.4790579656
 20
110.9896023223
 10
108.4832988336
 20
111.0130817798
 10
108.4903317106
 20
111.0359592553
 10
108.500179604
 20
111.0580877207
 10
108.5126912781
 20
111.0789527472
 10
108.5274093843
 20
111.0978779264
 10
108.5442385185
 20
111.114863201
  0
LWPOLYLINE
  5
3D8
100
AcDbEntity
  8
RACCORDO
100
AcDbPolyline
 62
253
  6
CONTINUOUS
 90
9
 70
0
 10
112.4242153527
 20
118.449228166
 10
112.4261922142
 20
118.4552318578
 10
112.4281588006
 20
118.4604688339
 10
112.4301066151
 20
118.4649142656
 10
112.4320279539
 20
118.4685478979
 10
112.4339136481
 20
118.4713496734
 10
112.435753265
 20
118.4733031684
 10
112.4375396815
 20
118.4744007495
 10
112.4391447314
 20
118.4746487022
  0
LWPOLYLINE
  5
3D9
100
AcDbEntity
  8
DRAFT
100
AcDbPolyline
 62
7
  6
CONTINUOUS
 90
3
 70
0
 10
103.8792616935
 20
87.9667440708
 10
103.8929391438
 20
87.9974076006
 10
103.9078791039
 20
88.0272761706
  0
LWPOLYLINE
  5
3DA
100
AcDbEntity
  8
SUPERFICI
100
AcDbPolyline
 62
7
  6
CONTINUOUS
 90
21
 70
0
 10
102.5237474404
 20
87.5608151611
 10
102.5406810923
 20
87.5950073008
 10
102.5559616071
 20
87.6302071085
 10
102.5695890687
 20
87.6664146563
 10
102.5815813118
 20
87.7036950372
 10
102.5919206802
 20
87.7419833124
 10
102.6005539887
 20
87.7810844784
 10
102.6074721725
 20
87.8210013341
 10
102.6126844026
 20
87.8617311717
 10
102.6161647781
 20
87.9030706668
 10
102.6179050434
 20
87.9450210113
 10
102.6179134902
 20
87.9875810438
 10
102.6161889681
 20
88.030543848
 10
102.6127237119
 20
88.0739113909
 10
102.6075254526
 20
88.1176816752
 10
102.6006162139
 20
88.161641778
 10
102.5919856327
 20
88.2057991679
 10
102.58164397
 20
88.2501462871
 10
102.5696441144
 20
88.2944476116
 10
102.5560036225
 20
88.3386245702
 10
102.5407047591
 20
88.3827555788
  0
LWPOLYLINE
  5
3DB
100
AcDbEntity
  8
SUPERFICI
100
AcDbPolyline
 62
7
  6
CONTINUOUS
 90
22
 70
0
 10
103.9078791039
 20
88.0272761706
 10
103.8909023361
 20
87.9930466913
 10
103.8755822836
 20
87.9578126431
 10
103.8619190303
 20
87.9215740988
 10
103.8498948601
 20
87.8842660682
 10
103.8395276676
 20
87.8459536966
 10
103.8308709196
 20
87.8068322315
 10
103.8239337866
 20
87.7668989653
 10
103.8187072043
 20
87.7261566982
 10
103.8152172168
 20
87.684808879
 10
103.8134721162
 20
87.6428543469
 10
103.8134636466
 20
87.6002942947
 10
103.8151929598
 20
87.5573356396
 10
103.8186677868
 20
87.5139763853
 10
103.8238803625
 20
87.4702184994
 10
103.8308085249
 20
87.4262747849
 10
103.8394625366
 20
87.3821376865
 10
103.8498320327
 20
87.3378146717
 10
103.8618638389
 20
87.2935410172
 10
103.8755401572
 20
87.2493950852
 10
103.8908786067
 20
87.2052983592
 10
103.9078791039
 20
87.1612507668
  0
LWPOLYLINE
  5
3DC
100
AcDbEntity
  8
0
100
AcDbPolyline
 62
7
  6
CONTINUOUS
 90
15
 70
0
 10
114.2420572515
 20
108.890607641
 10
114.2314406007
 20
108.8729531458
 10
114.2192331666
 20
108.8559622163
 10
114.2055079128
 20
108.8397210431
 10
114.1903725176
 20
108.8242266321
 10
114.1739262773
 20
108.8096458447
 10
114.1562495384
 20
108.7963219814
 10
114.137490777
 20
108.7843286988
 10
114.117811548
 20
108.7737445489
 10
114.0973284044
 20
108.7649286812
 10
114.0762134019
 20
108.757946279
 10
114.0547273409
 20
108.7528622548
 10
114.0331478671
 20
108.7500263011
 10
114.0117518073
 20
108.7495672156
 10
113.9934401736
 20
108.7510365375
  0
LINE
  5
3DD
100
AcDbEntity
  8
0
100
AcDbLine
 62
7
  6
CONTINUOUS
 10
115.5434105553
 20
103.2129299378
 11
115.0670965832
 21
102.7480889073
  0
LINE
  5
3DE
100
AcDbEntity
  8
0
100
AcDbLine
 62
7
  6
CONTINUOUS
 10
113.6594463534
 20
101.5976006834
 11
115.5434105553
 21
103.3313166095
  0
LINE
  5
3DF
100
AcDbEntity
  8
0
100
AcDbLine
 62
7
  6
CONTINUOUS
 10
115.1970003937
 20
102.8104391374
 11
115.5434105553
 21
103.1272118537
  0
LINE
  5
3E0
100
AcDbEntity
  8
RACCORDO
100
AcDbLine
 62
253
  6
CONTINUOUS
 10
126.9678431614
 20
114.263708873
 11
121.5295321485
 21
109.3582224853
  0
LINE
  5
3E1
100
AcDbEntity
  8
0
100
AcDbLine
 62
253
  6
CONTINUOUS
 10
121.493477682
 20
109.855402851
 11
116.3228334187
 21
105.3187316756
  0
LINE
  5
3E2
100
AcDbEntity
  8
0
100
AcDbLine
 62
253
  6
CONTINUOUS
 10
113.2193497975
 20
102.6907664393
 11
113.6594463534
 21
103.0552481114
  0
LINE
  5
3E3
100
AcDbEntity
  8
0
100
AcDbLine
 62
253
  6
CONTINUOUS
 10
113.1730356202
 20
102.3603864396
 11
113.6130397683
 21
102.7245574699
  0
LWPOLYLINE
  5
3E4
100
AcDbEntity
  8
0
100
AcDbPolyline
 62
253
  6
CONTINUOUS
 90
13
 70
0
 10
113.246413254
 20
99.3380860504
 10
113.2281139695
 20
99.3240448062
 10
113.2067153879
 20
99.3101355304
 10
113.182575565
 20
99.2965909624
 10
113.1560984249
 20
99.2836377394
 10
113.1277270014
 20
99.2714926036
 10
113.0979360246
 20
99.2603587759
 10
113.0672239778
 20
99.2504225549
 10
113.0361047561
 20
99.2418502006
 10
113.0050990677
 20
99.2347851514
 10
112.9747257212
 20
99.2293456245
 10
112.9454929444
 20
99.225622638
 10
112.9441786205
 20
99.225530067
  0
LWPOLYLINE
  5
3E5
100
AcDbEntity
  8
0
100
AcDbPolyline
 62
7
  6
CONTINUOUS
 90
3
 70
0
 10
114.6769403374
 20
100.8172612466
 10
114.690095447
 20
100.826429072
 10
114.703783056
 20
100.8363005953
  0
LWPOLYLINE
  5
3E6
100
AcDbEntity
  8
0
100
AcDbPolyline
 62
7
  6
CONTINUOUS
 90
8
 70
0
 10
114.6042536126
 20
100.7721651401
 10
114.6065696996
 20
100.7727747092
 10
114.610734707
 20
100.7746153312
 10
114.616535269
 20
100.7776580886
 10
114.6237524991
 20
100.7820638168
 10
114.6322917754
 20
100.7873909236
 10
114.6420233376
 20
100.7936408926
 10
114.6769403374
 20
100.8172612466
  0
LWPOLYLINE
  5
3E7
100
AcDbEntity
  8
0
100
AcDbPolyline
 62
7
  6
CONTINUOUS
 90
12
 70
0
 10
96.7760740012
 20
112.8608696714
 10
96.758483408
 20
112.8849947434
 10
96.7423684825
 20
112.9091887743
 10
96.7278546183
 20
112.9333521642
 10
96.7150980085
 20
112.9574191071
 10
96.7040997033
 20
112.9812439281
 10
96.6947862058
 20
113.0046289366
 10
96.6872329724
 20
113.0275855242
 10
96.6815717501
 20
113.0499299529
 10
96.6778680537
 20
113.0711888226
 10
96.6761786475
 20
113.091274314
 10
96.6760740015
 20
113.0974065342
  0
LWPOLYLINE
  5
3E8
100
AcDbEntity
  8
0
100
AcDbPolyline
 62
253
  6
CONTINUOUS
 90
8
 70
0
 10
112.9441786205
 20
85.0941509914
 10
112.9469306687
 20
85.089968757
 10
112.954305106
 20
85.0764343401
 10
112.9605316324
 20
85.0623975997
 10
112.9654078395
 20
85.0483358311
 10
112.968866258
 20
85.0344081324
 10
112.9709743573
 20
85.0204554055
 10
112.9717321374
 20
85.0064776502
  0
LWPOLYLINE
  5
3E9
100
AcDbEntity
  8
0
100
AcDbPolyline
 62
253
  6
CONTINUOUS
 90
5
 70
0
 10
100.2342639718
 20
114.6507752773
 10
100.2390763922
 20
114.6373897906
 10
100.2408474996
 20
114.625051144
 10
100.2395473254
 20
114.6139681193
 10
100.2369809627
 20
114.6073666361
  0
LWPOLYLINE
  5
3EA
100
AcDbEntity
  8
0
100
AcDbPolyline
 62
253
  6
CONTINUOUS
 90
5
 70
0
 10
115.2968167214
 20
69.1781811254
 10
115.3041212224
 20
69.1536245664
 10
115.3084290991
 20
69.1282046945
 10
115.3096865982
 20
69.1023744018
 10
115.3078958411
 20
69.0765526334
  0
LWPOLYLINE
  5
3EB
100
AcDbEntity
  8
0
100
AcDbPolyline
 62
7
  6
CONTINUOUS
 90
11
 70
0
 10
100.2544623207
 20
115.1506522609
 10
100.2483775235
 20
115.1720575106
 10
100.2399945807
 20
115.1925652233
 10
100.2294149688
 20
115.2119873767
 10
100.216602553
 20
115.2303176417
 10
100.201616487
 20
115.2473129175
 10
100.1847067941
 20
115.2625824544
 10
100.1660853417
 20
115.2758832977
 10
100.1459918859
 20
115.287005725
 10
100.1247467815
 20
115.2957543993
 10
100.1148417388
 20
115.2988964956
  0
LWPOLYLINE
  5
3EC
100
AcDbEntity
  8
0
100
AcDbPolyline
 62
7
  6
CONTINUOUS
 90
6
 70
0
 10
115.3233538627
 20
69.1433318386
 10
115.3173214466
 20
69.16466203
 10
115.3089878133
 20
69.1851464019
 10
115.2984533219
 20
69.2045696496
 10
115.2857260796
 20
69.2228587585
 10
115.2709121177
 20
69.2397525171
  0
LWPOLYLINE
  5
3ED
100
AcDbEntity
  8
0
100
AcDbPolyline
 62
253
  6
CONTINUOUS
 90
19
 70
0
 10
113.1730356198
 20
74.5749814486
 10
113.1780214993
 20
74.5548082624
 10
113.1827242719
 20
74.5346597339
 10
113.1871435472
 20
74.5145403143
 10
113.1912784237
 20
74.4944573186
 10
113.1951292992
 20
74.4744122519
 10
113.1986974694
 20
74.4544008465
 10
113.2019829473
 20
74.4344242965
 10
113.20498471
 20
74.4144901873
 10
113.2077022739
 20
74.3946038417
 10
113.2101349862
 20
74.3747729746
 10
113.2122831359
 20
74.3549985006
 10
113.2141473947
 20
74.3352755793
 10
113.2157264705
 20
74.3156200164
 10
113.2170211171
 20
74.2960246231
 10
113.2180329029
 20
74.2764505592
 10
113.2187600946
 20
74.2568882946
 10
113.219199742
 20
74.237357124
 10
113.2193497973
 20
74.2178619463
  0
LWPOLYLINE
  5
3EE
100
AcDbEntity
  8
RACCORDO
100
AcDbPolyline
 62
253
  6
CONTINUOUS
 90
12
 70
0
 10
111.5208466217
 20
67.6312570368
 10
111.5282800254
 20
67.5716055468
 10
111.5386992519
 20
67.515639879
 10
111.5520430595
 20
67.4636953245
 10
111.568235688
 20
67.4160817985
 10
111.5871794291
 20
67.3730854163
 10
111.6087549663
 20
67.3349663669
 10
111.6328357902
 20
67.3019524115
 10
111.6592798785
 20
67.2742393801
 10
111.6879228299
 20
67.2519939812
 10
111.7185975713
 20
67.2353484387
 10
111.7422527275
 20
67.2267672058
  0
LWPOLYLINE
  5
3EF
100
AcDbEntity
  8
0
100
AcDbPolyline
 62
253
  6
CONTINUOUS
 90
13
 70
0
 10
109.30571245
 20
110.7825323088
 10
109.3040118109
 20
110.8053775648
 10
109.2994081207
 20
110.8287129866
 10
109.2919801194
 20
110.8521394534
 10
109.2818548528
 20
110.8752562871
 10
109.2692055001
 20
110.8976681053
 10
109.2542484114
 20
110.918991584
 10
109.2372394074
 20
110.9388620141
 10
109.2184694043
 20
110.9569395385
 10
109.1982594377
 20
110.9729149656
 10
109.1769551717
 20
110.9865150572
 10
109.1549209872
 20
110.997507202
 10
109.1325337492
 20
111.0057033944
  0
LWPOLYLINE
  5
3F0
100
AcDbEntity
  8
0
100
AcDbPolyline
 62
7
  6
CONTINUOUS
 90
15
 70
0
 10
108.4776162963
 20
109.6899800771
 10
108.4777526596
 20
109.6849115985
 10
108.4790720722
 20
109.6673126914
 10
108.4818002612
 20
109.6492819592
 10
108.4860185681
 20
109.6309925843
 10
108.4913385134
 20
109.6125164108
 10
108.4977271554
 20
109.5939623613
 10
108.5052171394
 20
109.5754594859
 10
108.513534482
 20
109.5570745978
 10
108.5226667566
 20
109.5388713489
 10
108.5326133779
 20
109.5209579865
 10
108.5431243268
 20
109.5034533839
 10
108.5541060604
 20
109.4864381909
 10
108.5656192661
 20
109.4699541419
 10
108.5776428903
 20
109.4540501839
  0
LINE
  5
3F1
100
AcDbEntity
  8
0
100
AcDbLine
 62
7
  6
CONTINUOUS
 10
108.4776428903
 20
110.9658556038
 11
108.4776428903
 21
109.6892305558
  0
LINE
  5
3F2
100
AcDbEntity
  8
0
100
AcDbLine
 62
253
  6
CONTINUOUS
 10
108.5776428903
 20
110.8792530634
 11
108.5776428903
 21
109.4540501839
  0
LINE
  5
3F3
100
AcDbEntity
  8
0
100
AcDbLine
 62
7
  6
CONTINUOUS
 10
108.9530082592
 20
108.4677258051
 11
108.9530082592
 21
107.1032610279
  0
LINE
  5
3F4
100
AcDbEntity
  8
0
100
AcDbLine
 62
253
  6
CONTINUOUS
 10
109.0342789898
 20
109.3222306965
 11
109.0342789898
 21
110.7474335759
  0
LINE
  5
3F5
100
AcDbEntity
  8
0
100
AcDbLine
 62
253
  6
CONTINUOUS
 10
109.0530082592
 20
108.5297165968
 11
109.0530082592
 21
107.0151207434
  0
LINE
  5
3F6
100
AcDbEntity
  8
0
100
AcDbLine
 62
253
  6
CONTINUOUS
 10
109.30571245
 20
109.5306137868
 11
109.30571245
 21
110.7825323088
  0
LINE
  5
3F7
100
AcDbEntity
  8
0
100
AcDbLine
 62
253
  6
CONTINUOUS
 10
109.4879181674
 20
106.8895730671
 11
109.4879181674
 21
108.4041689205
  0
LINE
  5
3F8
100
AcDbEntity
  8
0
100
AcDbLine
 62
253
  6
CONTINUOUS
 10
109.7593516276
 20
106.9276423419
 11
109.7593516276
 21
108.2331162838
  0
LINE
  5
3F9
100
AcDbEntity
  8
0
100
AcDbLine
 62
7
  6
CONTINUOUS
 10
109.9771619431
 20
110.1485144235
 11
109.9771619431
 21
111.3609763688
  0
LWPOLYLINE
  5
3FA
100
AcDbEntity
  8
0
100
AcDbPolyline
 62
253
  6
CONTINUOUS
 90
13
 70
0
 10
108.5776428903
 20
110.8792530634
 10
108.5784426325
 20
110.9018071924
 10
108.5808515117
 20
110.9255552199
 10
108.5848638377
 20
110.9501296653
 10
108.5904605304
 20
110.9751927746
 10
108.5975715735
 20
111.0002699544
 10
108.6060436677
 20
111.0247647544
 10
108.615711693
 20
111.0482127178
 10
108.6264287861
 20
111.0702689687
 10
108.6380083104
 20
111.0905508616
 10
108.6502516495
 20
111.108714884
 10
108.6629530394
 20
111.1244598974
 10
108.6758976496
 20
111.1375228819
  0
LWPOLYLINE
  5
3FB
100
AcDbEntity
  8
0
100
AcDbPolyline
 62
7
  6
CONTINUOUS
 90
8
 70
0
 10
111.2600325567
 20
110.0031947954
 10
111.2614405867
 20
110.0268825579
 10
111.2656582854
 20
110.0502964705
 10
111.2726503448
 20
110.0731083613
 10
111.2824430153
 20
110.0951835761
 10
111.294887029
 20
110.1160085915
 10
111.3095204961
 20
110.1348994636
 10
111.3236514867
 20
110.1494828541
  0
LWPOLYLINE
  5
3FC
100
AcDbEntity
  8
0
100
AcDbPolyline
 62
253
  6
CONTINUOUS
 90
6
 70
0
 10
113.6615089321
 20
114.5284613263
 10
113.6661604663
 20
114.5540390016
 10
113.6677727367
 20
114.5800040997
 10
113.6663184569
 20
114.6059171757
 10
113.66182224
 20
114.6313396654
 10
113.654360182
 20
114.6558413073
  0
LWPOLYLINE
  5
3FD
100
AcDbEntity
  8
RACCORDO
100
AcDbPolyline
 62
253
  6
CONTINUOUS
 90
6
 70
0
 10
118.0088814179
 20
119.0305519454
 10
118.0171665693
 20
119.0535197799
 10
118.042426439
 20
119.1021693772
 10
118.0748771528
 20
119.1493906878
 10
118.1146277231
 20
119.195473415
 10
118.1616781496
 20
119.2404175591
  0
LWPOLYLINE
  5
3FE
100
AcDbEntity
  8
0
100
AcDbPolyline
 62
7
  6
CONTINUOUS
 90
4
 70
0
 10
115.3058229885
 20
110.2573666361
 10
115.3156487772
 20
110.2795699371
 10
115.3226778144
 20
110.3026582711
 10
115.3268643285
 20
110.326335622
  0
LWPOLYLINE
  5
3FF
100
AcDbEntity
  8
SUPERFICI
100
AcDbPolyline
 62
7
  6
CONTINUOUS
 90
21
 70
0
 10
104.9919198412
 20
86.8483151611
 10
105.008853493
 20
86.8825073008
 10
105.0241340079
 20
86.9177071085
 10
105.0377614695
 20
86.9539146563
 10
105.0497537126
 20
86.9911950372
 10
105.060093081
 20
87.0294833124
 10
105.0687263895
 20
87.0685844784
 10
105.0756445733
 20
87.1085013341
 10
105.0808568034
 20
87.1492311717
 10
105.0843371789
 20
87.1905706668
 10
105.0860774442
 20
87.2325210113
 10
105.086085891
 20
87.2750810438
 10
105.0843613689
 20
87.318043848
 10
105.0808961127
 20
87.3614113909
 10
105.0756978534
 20
87.4051816752
 10
105.0687886146
 20
87.449141778
 10
105.0601580335
 20
87.4932991679
 10
105.0498163707
 20
87.5376462871
 10
105.0378165152
 20
87.5819476116
 10
105.0241760233
 20
87.6261245702
 10
105.0088771598
 20
87.6702555788
  0
LINE
  5
400
100
AcDbEntity
  8
RACCORDO
100
AcDbLine
 62
253
  6
CONTINUOUS
 10
123.1355188381
 20
121.9336279702
 11
123.1203344434
 21
121.9037756797
  0
LINE
  5
401
100
AcDbEntity
  8
0
100
AcDbLine
 62
253
  6
CONTINUOUS
 10
114.9135067447
 20
109.5476022078
 11
115.3031059977
 21
110.3007752773
  0
LINE
  5
402
100
AcDbEntity
  8
0
100
AcDbLine
 62
7
  6
CONTINUOUS
 10
114.9162237355
 20
109.5041935666
 11
115.3058229885
 21
110.2573666361
  0
LWPOLYLINE
  5
403
100
AcDbEntity
  8
RACCORDO
100
AcDbPolyline
 62
253
  6
CONTINUOUS
 90
7
 70
0
 10
126.9678431614
 20
114.263708873
 10
127.0025210058
 20
114.2984431894
 10
127.0310823197
 20
114.334542688
 10
127.0533145349
 20
114.3717386974
 10
127.0690521877
 20
114.4097543854
 10
127.0781781502
 20
114.4483068194
 10
127.080685425
 20
114.4818732021
  0
LINE
  5
404
100
AcDbEntity
  8
0
100
AcDbLine
 62
7
  6
CONTINUOUS
 10
116.2589085516
 20
102.4040424269
 11
115.0540134817
 21
101.3163109079
  0
LINE
  5
405
100
AcDbEntity
  8
0
100
AcDbLine
 62
253
  6
CONTINUOUS
 10
113.6863813344
 20
99.706800411
 11
113.2464133408
 21
99.3380857606
  0
LINE
  5
406
100
AcDbEntity
  8
0
100
AcDbLine
 62
253
  6
CONTINUOUS
 10
113.7511205185
 20
99.2831666923
 11
113.3110239626
 21
98.9148810947
  0
LWPOLYLINE
  5
407
100
AcDbEntity
  8
0
100
AcDbPolyline
 62
253
  6
CONTINUOUS
 90
13
 70
0
 10
113.3110239626
 20
98.9148811685
 10
113.2926103223
 20
98.9015889627
 10
113.2709191132
 20
98.8895964178
 10
113.2463132875
 20
98.8791042012
 10
113.2192045669
 20
98.8702878761
 10
113.1900465532
 20
98.8632949632
 10
113.1593271384
 20
98.8582424728
 10
113.1275603408
 20
98.8552149466
 10
113.0952777045
 20
98.8542630432
 10
113.0630194048
 20
98.8554026906
 10
113.0313252098
 20
98.8586148195
 10
113.0007254485
 20
98.8638456822
 10
112.9717321374
 20
98.8710077523
  0
LWPOLYLINE
  5
408
100
AcDbEntity
  8
RACCORDO
100
AcDbPolyline
 62
7
  6
CONTINUOUS
 90
7
 70
0
 10
131.6979120659
 20
102.530949634
 10
131.68318701
 20
102.5257240083
 10
131.6693394704
 20
102.5229573299
 10
131.6563694474
 20
102.5226495989
 10
131.6442769407
 20
102.5248008153
 10
131.6330619505
 20
102.5294109791
 10
131.6227244768
 20
102.5364800902
  0
LINE
  5
409
100
AcDbEntity
  8
0
100
AcDbLine
 62
7
  6
CONTINUOUS
 10
117.5927519223
 20
90.4418212741
 11
118.2909662973
 21
89.7188451671
  0
LWPOLYLINE
  5
40A
100
AcDbEntity
  8
0
100
AcDbPolyline
 62
7
  6
CONTINUOUS
 90
11
 70
0
 10
105.6671210943
 20
113.155139559
 10
105.6610362972
 20
113.1765448087
 10
105.6526533543
 20
113.1970525214
 10
105.6420737425
 20
113.2164746749
 10
105.6292613267
 20
113.2348049398
 10
105.6142752607
 20
113.2518002156
 10
105.5973655678
 20
113.2670697525
 10
105.5787441153
 20
113.2803705958
 10
105.5586506596
 20
113.2914930231
 10
105.5374055552
 20
113.3002416974
 10
105.5275005124
 20
113.3033837937
  0
LWPOLYLINE
  5
40B
100
AcDbEntity
  8
0
100
AcDbPolyline
 62
7
  6
CONTINUOUS
 90
10
 70
0
 10
113.6130397675
 20
74.9433074426
 10
113.6227242381
 20
74.903118007
 10
113.6312841815
 20
74.8629880067
 10
113.6387195978
 20
74.8229174414
 10
113.6450405119
 20
74.7828292093
 10
113.6502368987
 20
74.7428004124
 10
113.6542786838
 20
74.7030623566
 10
113.6571558422
 20
74.6636921439
 10
113.6588783987
 20
74.6246126724
 10
113.6594463534
 20
74.5858239421
  0
LWPOLYLINE
  5
40C
100
AcDbEntity
  8
0
100
AcDbPolyline
 62
253
  6
CONTINUOUS
 90
9
 70
0
 10
106.8171407237
 20
112.0376680891
 10
106.8191278032
 20
112.0236067651
 10
106.8244146331
 20
112.0109442515
 10
106.8329262887
 20
111.9987288995
 10
106.8445203473
 20
111.9871651049
 10
106.859002809
 20
111.9764463611
 10
106.8761313433
 20
111.9667520214
 10
106.8956193437
 20
111.9582442982
 10
106.9171407237
 20
111.9510655487
  0
LWPOLYLINE
  5
40D
100
AcDbEntity
  8
0
100
AcDbPolyline
 62
253
  6
CONTINUOUS
 90
9
 70
0
 10
108.4776428903
 20
110.9658556038
 10
108.479353918
 20
110.9528029846
 10
108.484457725
 20
110.9399736993
 10
108.4928669838
 20
110.9275872606
 10
108.5044378095
 20
110.9158556038
 10
108.5189722222
 20
110.9049794609
 10
108.536221534
 20
110.8951449257
 10
108.5558906045
 20
110.8865202698
 10
108.5776428903
 20
110.8792530634
  0
LWPOLYLINE
  5
40E
100
AcDbEntity
  8
RACCORDO
100
AcDbPolyline
 62
253
  6
CONTINUOUS
 90
19
 70
0
 10
112.1943608194
 20
67.7794019603
 10
112.1981812741
 20
67.7494634019
 10
112.2034617879
 20
67.7216162562
 10
112.2102023607
 20
67.6958605232
 10
112.2184620926
 20
67.6720474508
 10
112.2281818835
 20
67.6503257911
 10
112.2391844339
 20
67.6311418007
 10
112.2514906171
 20
67.6145586673
 10
112.2650795598
 20
67.6005132033
 10
112.2797113432
 20
67.5892621026
 10
112.2954080032
 20
67.5808565833
 10
112.3121475039
 20
67.5752454275
 10
112.3296238189
 20
67.5725316752
 10
112.3478615064
 20
67.5727797402
 10
112.3668360082
 20
67.5759252088
 10
112.3861676241
 20
67.5818778802
 10
112.4057297874
 20
67.5906076876
 10
112.425649065
 20
67.6021446977
 10
112.4459254566
 20
67.6164889107
  0
LWPOLYLINE
  5
40F
100
AcDbEntity
  8
RACCORDO
100
AcDbPolyline
 62
253
  6
CONTINUOUS
 90
16
 70
0
 10
112.4459254566
 20
105.0056657422
 10
112.4428779228
 20
105.0510237006
 10
112.435197165
 20
105.0973151848
 10
112.4229672027
 20
105.1440334879
 10
112.4063218524
 20
105.1906672245
 10
112.3854432687
 20
105.2367059165
 10
112.3605599552
 20
105.2816455816
 10
112.3319442502
 20
105.3249942761
 10
112.2999093615
 20
105.3662774517
 10
112.2648059517
 20
105.4050431441
 10
112.2270182589
 20
105.4408669717
 10
112.1869599191
 20
105.4733567428
 10
112.1450694681
 20
105.502156736
 10
112.1018054824
 20
105.5269516461
 10
112.0576415525
 20
105.5474700253
 10
112.0130611391
 20
105.5634872286
  0
LWPOLYLINE
  5
410
100
AcDbEntity
  8
0
100
AcDbPolyline
 62
7
  6
CONTINUOUS
 90
13
 70
0
 10
109.9771619431
 20
111.3609763688
 10
109.9756848573
 20
111.3840125441
 10
109.9712652201
 20
111.4075052385
 10
109.9639815372
 20
111.4310554001
 10
109.9539616259
 20
111.4542634951
 10
109.9413774296
 20
111.4767329329
 10
109.9264422753
 20
111.4980769087
 10
109.9094098341
 20
111.5179287784
 10
109.8905732492
 20
111.53595052
 10
109.8702574182
 20
111.5518353418
 10
109.848809407
 20
111.565311
 10
109.8265923937
 20
111.5761442947
 10
109.8039832423
 20
111.5841474543
  0
LWPOLYLINE
  5
411
100
AcDbEntity
  8
0
100
AcDbPolyline
 62
253
  6
CONTINUOUS
 90
9
 70
0
 10
113.4555072617
 20
67.292434993
 10
113.4563506532
 20
67.2707176535
 10
113.4588677735
 20
67.2508208173
 10
113.4630178683
 20
67.2330824308
 10
113.4687334568
 20
67.2178025115
 10
113.4759189984
 20
67.2052448975
 10
113.4844503755
 20
67.1956285781
 10
113.4942040679
 20
67.1891053286
 10
113.5000441565
 20
67.1868817535
  0
LWPOLYLINE
  5
412
100
AcDbEntity
  8
0
100
AcDbPolyline
 62
253
  6
CONTINUOUS
 90
5
 70
0
 10
112.9717321374
 20
104.3699887952
 10
112.9698881272
 20
104.4192204582
 10
112.9645047496
 20
104.4687584775
 10
112.9555820046
 20
104.518602853
 10
112.9441786205
 20
104.5644530084
  0
LWPOLYLINE
  5
413
100
AcDbEntity
  8
RACCORDO
100
AcDbPolyline
 62
253
  6
CONTINUOUS
 90
10
 70
0
 10
111.001497173
 20
77.3712372095
 10
111.0194780114
 20
76.2521443116
 10
111.0474106344
 20
75.1417279696
 10
111.085289392
 20
74.0402232379
 10
111.1331071435
 20
72.9478631676
 10
111.1908536849
 20
71.8648790275
 10
111.258515757
 20
70.791500261
 10
111.3360791429
 20
69.7279540743
 10
111.4235286656
 20
68.6744653824
 10
111.5208466217
 20
67.6312570368
  0
LWPOLYLINE
  5
414
100
AcDbEntity
  8
RACCORDO
100
AcDbPolyline
 62
253
  6
CONTINUOUS
 90
10
 70
0
 10
111.6777721261
 20
77.4653070777
 10
111.6956691836
 20
76.3520655553
 10
111.7234509593
 20
75.2479064788
 10
111.7611174533
 20
74.1528298484
 10
111.8086810612
 20
73.0666023109
 10
111.8661293875
 20
71.9894572195
 10
111.9334252451
 20
70.9220946328
 10
112.0105562385
 20
69.8647479038
 10
112.0975347633
 20
68.8171836797
 10
112.1943608194
 20
67.7794019603
  0
LINE
  5
415
100
AcDbEntity
  8
0
100
AcDbLine
 62
7
  6
CONTINUOUS
 10
111.2600325567
 20
110.0031947954
 11
111.2600325567
 21
109.6183739554
  0
LINE
  5
416
100
AcDbEntity
  8
0
100
AcDbLine
 62
253
  6
CONTINUOUS
 10
111.3600325567
 20
109.9165922551
 11
111.3600325567
 21
109.531771415
  0
LINE
  5
417
100
AcDbEntity
  8
0
100
AcDbLine
 62
253
  6
CONTINUOUS
 10
111.392259983
 20
118.1499726019
 11
111.392259983
 21
119.0730908827
  0
LINE
  5
418
100
AcDbEntity
  8
0
100
AcDbLine
 62
7
  6
CONTINUOUS
 10
111.744916027
 20
108.7457425142
 11
111.744916027
 21
109.3279685813
  0
LINE
  5
419
100
AcDbEntity
  8
0
100
AcDbLine
 62
253
  6
CONTINUOUS
 10
111.844916027
 20
108.5108696714
 11
111.844916027
 21
109.2991010678
  0
LINE
  5
41A
100
AcDbEntity
  8
RACCORDO
100
AcDbLine
 62
253
  6
CONTINUOUS
 10
112.0448854769
 20
117.3249331523
 11
112.0448854769
 21
116.4600146244
  0
LINE
  5
41B
100
AcDbEntity
  8
0
100
AcDbLine
 62
7
  6
CONTINUOUS
 10
112.2582853868
 20
119.1367681193
 11
112.2582853868
 21
118.9678074923
  0
LINE
  5
41C
100
AcDbEntity
  8
0
100
AcDbLine
 62
7
  6
CONTINUOUS
 10
112.3837219143
 20
107.0904839179
 11
112.3837219143
 21
107.475525838
  0
LINE
  5
41D
100
AcDbEntity
  8
RACCORDO
100
AcDbLine
 62
253
  6
CONTINUOUS
 10
112.4464866473
 20
117.4908072396
 11
112.4464866473
 21
116.5082225798
  0
LINE
  5
41E
100
AcDbEntity
  8
0
100
AcDbLine
 62
253
  6
CONTINUOUS
 10
112.6337219143
 20
106.8701579453
 11
112.6337219143
 21
107.4033570544
  0
LINE
  5
41F
100
AcDbEntity
  8
0
100
AcDbLine
 62
253
  6
CONTINUOUS
 10
112.7582853868
 20
118.3867509147
 11
112.7582853868
 21
118.9008201942
  0
LINE
  5
420
100
AcDbEntity
  8
0
100
AcDbLine
 62
7
  6
CONTINUOUS
 10
112.9441786205
 20
105.4338213303
 11
112.9441786205
 21
68.0014085887
  0
LINE
  5
421
100
AcDbEntity
  8
0
100
AcDbLine
 62
253
  6
CONTINUOUS
 10
112.9717321374
 20
98.8710077523
 11
112.9717321374
 21
91.7614757997
  0
LINE
  5
422
100
AcDbEntity
  8
0
100
AcDbLine
 62
253
  6
CONTINUOUS
 10
112.9717321374
 20
85.0064776502
 11
112.9717321374
 21
77.8969456975
  0
LINE
  5
423
100
AcDbEntity
  8
0
100
AcDbLine
 62
253
  6
CONTINUOUS
 10
112.9717321374
 20
72.3979646547
 11
112.9717321374
 21
72.5322779412
  0
LINE
  5
424
100
AcDbEntity
  8
0
100
AcDbLine
 62
253
  6
CONTINUOUS
 10
112.9717321374
 20
104.2356755087
 11
112.9717321374
 21
104.3699887952
  0
LINE
  5
425
100
AcDbEntity
  8
0
100
AcDbLine
 62
253
  6
CONTINUOUS
 10
113.08097499
 20
91.5311965651
 11
113.08097499
 21
85.9564374127
  0
LINE
  5
426
100
AcDbEntity
  8
0
100
AcDbLine
 62
253
  6
CONTINUOUS
 10
113.2193497975
 20
104.2294626591
 11
113.2193497975
 21
102.6907664393
  0
LINE
  5
427
100
AcDbEntity
  8
0
100
AcDbLine
 62
253
  6
CONTINUOUS
 10
113.2193497975
 20
74.2178619466
 11
113.2193497975
 21
72.6137640005
  0
LINE
  5
428
100
AcDbEntity
  8
0
100
AcDbLine
 62
253
  6
CONTINUOUS
 10
113.3110239626
 20
98.9148810947
 11
113.3110239625
 21
91.8053492158
  0
LINE
  5
429
100
AcDbEntity
  8
0
100
AcDbLine
 62
253
  6
CONTINUOUS
 10
113.3110239625
 20
85.0503510663
 11
113.3110239625
 21
77.9408191876
  0
LINE
  5
42A
100
AcDbEntity
  8
0
100
AcDbLine
 62
253
  6
CONTINUOUS
 10
113.3110239625
 20
72.4418380709
 11
113.3110239625
 21
72.5872999486
  0
LINE
  5
42B
100
AcDbEntity
  8
0
100
AcDbLine
 62
253
  6
CONTINUOUS
 10
113.3110239625
 20
104.2684003336
 11
113.3110239625
 21
104.4138622113
  0
LWPOLYLINE
  5
42C
100
AcDbEntity
  8
0
100
AcDbPolyline
 62
253
  6
CONTINUOUS
 90
17
 70
0
 10
112.9717321374
 20
77.8969456975
 10
112.9716033391
 20
77.8805179199
 10
112.9712300154
 20
77.8642170603
 10
112.9706121664
 20
77.8480431187
 10
112.9697498141
 20
77.8320094487
 10
112.9686429364
 20
77.8161026968
 10
112.9672914674
 20
77.8002828021
 10
112.965694667
 20
77.7845298144
 10
112.9638532753
 20
77.7688636839
 10
112.9617694461
 20
77.7533041997
 10
112.9594436938
 20
77.7378567231
 10
112.9568755039
 20
77.7225158928
 10
112.9540654875
 20
77.7072854143
 10
112.9510138455
 20
77.6921649702
 10
112.9477203769
 20
77.6771548778
 10
112.9441850889
 20
77.6622597939
 10
112.9441786205
 20
77.6622344812
  0
LWPOLYLINE
  5
42D
100
AcDbEntity
  8
0
100
AcDbPolyline
 62
253
  6
CONTINUOUS
 90
19
 70
0
 10
113.2193497971
 20
102.690766439
 10
113.2191997418
 20
102.6713482457
 10
113.2187600944
 20
102.6520624655
 10
113.2180329027
 20
102.6329127803
 10
113.2170211169
 20
102.6139167375
 10
113.2157264703
 20
102.595063767
 10
113.2141473945
 20
102.5763159482
 10
113.2122831357
 20
102.5576665596
 10
113.210134986
 20
102.5391306429
 10
113.2077022737
 20
102.5207037363
 10
113.2049847099
 20
102.5023869319
 10
113.2019829471
 20
102.4841875754
 10
113.1986974692
 20
102.4661107024
 10
113.1951292991
 20
102.4481633105
 10
113.1912784235
 20
102.4303466018
 10
113.1871435471
 20
102.4126570514
 10
113.1827242718
 20
102.3950964006
 10
113.1780214992
 20
102.3776714531
 10
113.1730356197
 20
102.3603864392
  0
LWPOLYLINE
  5
42E
100
AcDbEntity
  8
RACCORDO
100
AcDbPolyline
 62
253
  6
CONTINUOUS
 90
10
 70
0
 10
111.001497173
 20
93.8257198814
 10
110.9828602695
 20
91.9823149084
 10
110.9688827428
 20
90.142634878
 10
110.95956456
 20
88.306712366
 10
110.9549056388
 20
86.4746047034
 10
110.9549056364
 20
84.6463193909
 10
110.9595645534
 20
82.8218146217
 10
110.9688827343
 20
81.0010984921
 10
110.9828602628
 20
79.1842284768
 10
111.001497173
 20
77.3712372095
  0
LWPOLYLINE
  5
42F
100
AcDbEntity
  8
RACCORDO
100
AcDbPolyline
 62
253
  6
CONTINUOUS
 90
10
 70
0
 10
111.6777721261
 20
93.9033352669
 10
111.659153245
 20
92.0617217391
 10
111.6451890829
 20
90.2238934973
 10
111.6358796398
 20
88.3898505417
 10
111.6312249143
 20
86.5595846033
 10
111.6312249078
 20
84.733103951
 10
111.6358796253
 20
82.9104333916
 10
111.6451890683
 20
81.0915811941
 10
111.6591532353
 20
79.2765390894
 10
111.6777721261
 20
77.4653070777
  0
LWPOLYLINE
  5
430
100
AcDbEntity
  8
RACCORDO
100
AcDbPolyline
 62
7
  6
CONTINUOUS
 90
7
 70
0
 10
113.5253347971
 20
117.0310334755
 10
113.5251984035
 20
117.0267327071
 10
113.5239519771
 20
117.0174927308
 10
113.5211233011
 20
117.0067175689
 10
113.5164345187
 20
116.9945693687
 10
113.5097306222
 20
116.9813334717
 10
113.503556389
 20
116.9712141496
  0
LWPOLYLINE
  5
431
100
AcDbEntity
  8
0
100
AcDbPolyline
 62
253
  6
CONTINUOUS
 90
13
 70
0
 10
111.3600325567
 20
109.9165922551
 10
111.3608334194
 20
109.9391626025
 10
111.3632448989
 20
109.9629224502
 10
111.3672601413
 20
109.9875031846
 10
111.3728584589
 20
110.0125645871
 10
111.3799690274
 20
110.037633917
 10
111.3884396566
 20
110.0621206519
 10
111.3981057618
 20
110.0855617363
 10
111.4088202404
 20
110.1076115552
 10
111.4203976481
 20
110.1278895228
 10
111.432640042
 20
110.1460523441
 10
111.4453415138
 20
110.16179775
 10
111.458287316
 20
110.1748620735
  0
LWPOLYLINE
  5
432
100
AcDbEntity
  8
0
100
AcDbPolyline
 62
253
  6
CONTINUOUS
 90
8
 70
0
 10
112.9717321374
 20
91.7614757997
 10
112.9709743573
 20
91.747935549
 10
112.968866258
 20
91.7351999337
 10
112.9654078395
 20
91.723268954
 10
112.9605316324
 20
91.7120224648
 10
112.954305106
 20
91.7015806111
 10
112.9469306687
 20
91.6923038275
 10
112.9441786205
 20
91.6897104889
  0
LWPOLYLINE
  5
433
100
AcDbEntity
  8
RACCORDO
100
AcDbPolyline
 62
253
  6
CONTINUOUS
 90
10
 70
0
 10
111.5208466217
 20
104.4134779534
 10
111.4235286647
 20
103.211411905
 10
111.3360791415
 20
102.0151713917
 10
111.2585157555
 20
100.8250099279
 10
111.1908536839
 20
99.6411799332
 10
111.1331071433
 20
98.4639320209
 10
111.0852893924
 20
97.2935149494
 10
111.047410635
 20
96.1301764441
 10
111.0194780119
 20
94.9741631414
 10
111.001497173
 20
93.8257198814
  0
LWPOLYLINE
  5
434
100
AcDbEntity
  8
RACCORDO
100
AcDbPolyline
 62
253
  6
CONTINUOUS
 90
10
 70
0
 10
112.1943608194
 20
104.4322365151
 10
112.0975355559
 20
103.2364610099
 10
112.0105575727
 20
102.0469696806
 10
111.9334268696
 20
100.863762527
 10
111.8661309804
 20
99.6865859207
 10
111.8086823714
 20
98.5156934901
 10
111.7611184416
 20
97.3518461209
 10
111.7234516573
 20
96.1952974415
 10
111.6956695521
 20
95.0457938236
 10
111.6777721261
 20
93.9033352669
  0
LWPOLYLINE
  5
435
100
AcDbEntity
  8
0
100
AcDbPolyline
 62
253
  6
CONTINUOUS
 90
7
 70
0
 10
113.7127536128
 20
114.5582813874
 10
113.7127171993
 20
114.557867265
 10
113.7101222129
 20
114.5538227619
 10
113.7035298089
 20
114.5486828718
 10
113.6930899043
 20
114.5426180946
 10
113.6790069285
 20
114.535823956
 10
113.6615089325
 20
114.5284613262
  0
LWPOLYLINE
  5
436
100
AcDbEntity
  8
0
100
AcDbPolyline
 62
253
  6
CONTINUOUS
 90
5
 70
0
 10
114.2020676042
 20
120.5336591893
 10
114.2003565764
 20
120.52060657
 10
114.1952527694
 20
120.5077772847
 10
114.1868435107
 20
120.495390846
 10
114.1752726849
 20
120.4836591893
  0
LWPOLYLINE
  5
437
100
AcDbEntity
  8
0
100
AcDbPolyline
 62
253
  6
CONTINUOUS
 90
13
 70
0
 10
113.1730356202
 20
102.3603864396
 10
113.1118598635
 20
102.1317899791
 10
113.0627486603
 20
101.897023987
 10
113.0258185241
 20
101.6566455258
 10
113.0011570679
 20
101.4112250146
 10
112.9888227832
 20
101.1613447555
 10
112.9888449217
 20
100.9075975451
 10
113.0012234332
 20
100.6505854404
 10
113.0259289468
 20
100.3909183124
 10
113.0629028452
 20
100.1292122734
 10
113.1120574021
 20
99.8660882903
 10
113.173275986
 20
99.6021707115
 10
113.2464133408
 20
99.3380857606
  0
LWPOLYLINE
  5
438
100
AcDbEntity
  8
0
100
AcDbPolyline
 62
7
  6
CONTINUOUS
 90
25
 70
0
 10
113.6130397681
 20
102.7245574694
 10
113.5809607725
 20
102.611214741
 10
113.551905049
 20
102.4963771666
 10
113.5258725979
 20
102.380044746
 10
113.5028494106
 20
102.2621400604
 10
113.4828494957
 20
102.1427405287
 10
113.465914878
 20
102.0220784079
 10
113.452052981
 20
101.9001580978
 10
113.4412563813
 20
101.7769751986
 10
113.4335448341
 20
101.6527487685
 10
113.4289239599
 20
101.5274753839
 10
113.4273881381
 20
101.4011584685
 10
113.4289402622
 20
101.2740273506
 10
113.4335860213
 20
101.1460818916
 10
113.4413197264
 20
101.0173222302
 10
113.452127204
 20
100.8879781108
 10
113.4660138102
 20
100.7580491091
 10
113.482974189
 20
100.6275356495
 10
113.5029780985
 20
100.4966687494
 10
113.5260330092
 20
100.3654404784
 10
113.5521314506
 20
100.2338587669
 10
113.5812207692
 20
100.1021784235
 10
113.6132834138
 20
99.9704843845
 10
113.6483369355
 20
99.8386917137
 10
113.6863813344
 20
99.706800411
  0
LINE
  5
439
100
AcDbEntity
  8
RACCORDO
100
AcDbLine
 62
253
  6
CONTINUOUS
 10
130.8434203232
 20
111.2191401326
 11
127.080685425
 21
107.9423689004
  0
LINE
  5
43A
100
AcDbEntity
  8
RACCORDO
100
AcDbLine
 62
253
  6
CONTINUOUS
 10
131.6227244768
 20
110.2148702477
 11
127.6348326832
 21
106.7420215193
  0
LINE
  5
43B
100
AcDbEntity
  8
0
100
AcDbLine
 62
7
  6
CONTINUOUS
 10
114.523795313
 20
94.2001850996
 11
113.4935622537
 21
93.3126541689
  0
LWPOLYLINE
  5
43C
100
AcDbEntity
  8
RACCORDO
100
AcDbPolyline
 62
253
  6
CONTINUOUS
 90
22
 70
0
 10
127.6348326832
 20
106.7420215193
 10
127.5844466713
 20
106.701537911
 10
127.5348692936
 20
106.6682272719
 10
127.48610055
 20
106.642089602
 10
127.4378526691
 20
106.6230448373
 10
127.3904134223
 20
106.6111730418
 10
127.3446461239
 20
106.6067144074
 10
127.3006194752
 20
106.609806667
 10
127.2582647749
 20
106.6203120877
 10
127.2182392334
 20
106.638057663
 10
127.1805659133
 20
106.6631650714
 10
127.1452217519
 20
106.6955126345
 10
127.1127947726
 20
106.7345623103
 10
127.083341194
 20
106.7804089911
 10
127.0568047974
 20
106.8329577846
 10
127.0336049498
 20
106.8913859722
 10
127.013787698
 20
106.9558320917
 10
126.9973069951
 20
107.0261576052
 10
126.9844440674
 20
107.1011241809
 10
126.9752926569
 20
107.1803190417
 10
126.9697590216
 20
107.2641549647
 10
126.9678431614
 20
107.3526319501
  0
LWPOLYLINE
  5
43D
100
AcDbEntity
  8
RACCORDO
100
AcDbPolyline
 62
253
  6
CONTINUOUS
 90
16
 70
0
 10
111.6777721261
 20
93.9033352669
 10
111.6486641095
 20
93.8829658351
 10
111.6153478572
 20
93.8641960994
 10
111.5781763361
 20
93.8472249147
 10
111.5375433571
 20
93.8322320809
 10
111.4938794035
 20
93.8193764385
 10
111.4476470702
 20
93.8087941858
 10
111.3993361623
 20
93.8005974357
 10
111.3494585063
 20
93.7948730281
 10
111.2985425278
 20
93.7916816098
 10
111.2471276523
 20
93.7910569922
 10
111.1957585914
 20
93.7930057926
 10
111.1449795708
 20
93.7975073647
 10
111.0953285655
 20
93.8045140168
 10
111.0473315995
 20
93.8139515174
 10
111.0014971734
 20
93.8257198817
  0
LWPOLYLINE
  5
43E
100
AcDbEntity
  8
0
100
AcDbPolyline
 62
7
  6
CONTINUOUS
 90
8
 70
0
 10
114.6042536126
 20
106.8343429666
 10
114.6065696996
 20
106.8349525357
 10
114.610734707
 20
106.8367931577
 10
114.616535269
 20
106.8398359151
 10
114.6237524991
 20
106.8442416433
 10
114.6322917754
 20
106.8495687501
 10
114.6420233376
 20
106.8558187191
 10
114.6769403374
 20
106.8794390731
  0
LINE
  5
43F
100
AcDbEntity
  8
0
100
AcDbLine
 62
7
  6
CONTINUOUS
 10
113.797028547
 20
101.0053615291
 11
114.6056405962
 21
100.771935337
  0
LINE
  5
440
100
AcDbEntity
  8
0
100
AcDbLine
 62
253
  6
CONTINUOUS
 10
113.7511205185
 20
101.1113105815
 11
114.703783056
 21
100.8363005953
  0
LINE
  5
441
100
AcDbEntity
  8
0
100
AcDbLine
 62
7
  6
CONTINUOUS
 10
113.6594463534
 20
101.5976006834
 11
114.7834854488
 21
101.2731185462
  0
LINE
  5
442
100
AcDbEntity
  8
0
100
AcDbLine
 62
253
  6
CONTINUOUS
 10
100.1676274286
 20
115.215358376
 11
100.1847164218
 21
115.1953722517
  0
LWPOLYLINE
  5
443
100
AcDbEntity
  8
0
100
AcDbPolyline
 62
253
  6
CONTINUOUS
 90
6
 70
0
 10
100.1847164218
 20
115.1953722517
 10
100.199664991
 20
115.1738103999
 10
100.2121771069
 20
115.1510866724
 10
100.22198092
 20
115.1277506528
 10
100.228950064
 20
115.1042651423
 10
100.2330478692
 20
115.0809779598
  0
LWPOLYLINE
  5
444
100
AcDbEntity
  8
0
100
AcDbPolyline
 62
253
  6
CONTINUOUS
 90
17
 70
0
 10
112.9441786205
 20
99.1216269992
 10
112.9441850889
 20
99.1215979518
 10
112.947720377
 20
99.1046617685
 10
112.9510138455
 20
99.0877501911
 10
112.9540654875
 20
99.0708678807
 10
112.956875504
 20
99.0540150384
 10
112.9594436938
 20
99.037191463
 10
112.9617694461
 20
99.0204012127
 10
112.9638532753
 20
99.0036386291
 10
112.9656946671
 20
98.9869093706
 10
112.9672914674
 20
98.9702344698
 10
112.9686429365
 20
98.953634304
 10
112.9697498141
 20
98.937088496
 10
112.9706121665
 20
98.9205569467
 10
112.9712300154
 20
98.9040262899
 10
112.9716033391
 20
98.8875098917
 10
112.9717321374
 20
98.8710077523
  0
LWPOLYLINE
  5
445
100
AcDbEntity
  8
0
100
AcDbPolyline
 62
253
  6
CONTINUOUS
 90
9
 70
0
 10
111.2600325567
 20
110.0031947954
 10
111.2620196362
 20
109.9891334715
 10
111.267306466
 20
109.9764709578
 10
111.2758181217
 20
109.9642556059
 10
111.2874121802
 20
109.9526918113
 10
111.3018946419
 20
109.9419730674
 10
111.3190231762
 20
109.9322787277
 10
111.3385111767
 20
109.9237710046
 10
111.3600325567
 20
109.9165922551
  0
LWPOLYLINE
  5
446
100
AcDbEntity
  8
0
100
AcDbPolyline
 62
253
  6
CONTINUOUS
 90
13
 70
0
 10
113.7269407219
 20
109.3467795454
 10
113.7252268056
 20
109.3697218767
 10
113.7205839687
 20
109.3931635619
 10
113.7130898562
 20
109.4167003166
 10
113.7028700488
 20
109.4399284846
 10
113.690099655
 20
109.4624432858
 10
113.6750034265
 20
109.4838469131
 10
113.6578056942
 20
109.5038088793
 10
113.6388341656
 20
109.521937866
 10
113.6185557135
 20
109.5378230145
 10
113.5973902853
 20
109.551210355
 10
113.5756687265
 20
109.5619613233
 10
113.5537620211
 20
109.569950631
  0
LWPOLYLINE
  5
447
100
AcDbEntity
  8
0
100
AcDbPolyline
 62
7
  6
CONTINUOUS
 90
16
 70
0
 10
112.2582853868
 20
119.1367681193
 10
112.2572015123
 20
119.1546148891
 10
112.2535743294
 20
119.1721264787
 10
112.2474040011
 20
119.1892890506
 10
112.2385488202
 20
119.206378807
 10
112.2271529966
 20
119.2230611622
 10
112.2136470945
 20
119.2383988217
 10
112.1981303499
 20
119.2521208022
 10
112.1805182296
 20
119.2644074776
 10
112.1609697714
 20
119.2749997942
 10
112.1393861934
 20
119.2838757153
 10
112.1159087142
 20
119.2909342472
 10
112.091060489
 20
119.2958111233
 10
112.0650375681
 20
119.2983563132
 10
112.0377147814
 20
119.2986147578
 10
112.0091390256
 20
119.2965284432
  0
LWPOLYLINE
  5
448
100
AcDbEntity
  8
0
100
AcDbPolyline
 62
253
  6
CONTINUOUS
 90
19
 70
0
 10
115.0540134817
 20
107.4371226887
 10
115.05190882
 20
107.4749543175
 10
115.0465386305
 20
107.513452559
 10
115.0379492917
 20
107.5523291884
 10
115.0262152001
 20
107.591296405
 10
115.0114264831
 20
107.6300584393
 10
114.9936882769
 20
107.6683137743
 10
114.9731382531
 20
107.7057737006
 10
114.9499372753
 20
107.7421579066
 10
114.9242563056
 20
107.7771859465
 10
114.8962915203
 20
107.8105922743
 10
114.866258617
 20
107.842126467
 10
114.834382591
 20
107.8715482753
 10
114.8009045799
 20
107.8986335739
 10
114.7660805657
 20
107.9231780422
 10
114.7301748718
 20
107.9449965093
 10
114.6934592856
 20
107.9639227475
 10
114.6562110927
 20
107.9798109594
 10
114.6187112293
 20
107.9925384955
  0
LWPOLYLINE
  5
449
100
AcDbEntity
  8
0
100
AcDbPolyline
 62
7
  6
CONTINUOUS
 90
3
 70
0
 10
115.3281820562
 20
69.0996521
 10
115.3269791272
 20
69.1215530909
 10
115.3233538627
 20
69.1433318386
  0
LWPOLYLINE
  5
44A
100
AcDbEntity
  8
0
100
AcDbPolyline
 62
253
  6
CONTINUOUS
 90
13
 70
0
 10
113.5703770537
 20
114.4901215847
 10
113.5691019374
 20
114.5133353536
 10
113.5648567923
 20
114.5369812839
 10
113.5577142258
 20
114.5606549437
 10
113.547796402
 20
114.5839514271
 10
113.5352729518
 20
114.6064722791
 10
113.5203580717
 20
114.6278323112
 10
113.5033068607
 20
114.6476661888
 10
113.4844109566
 20
114.66563468
 10
113.463993548
 20
114.6814304577
 10
113.4424038468
 20
114.6947833561
 10
113.420011116
 20
114.705464992
 10
113.3971983529
 20
114.7132926703
  0
LWPOLYLINE
  5
44B
100
AcDbEntity
  8
0
100
AcDbPolyline
 62
7
  6
CONTINUOUS
 90
3
 70
0
 10
113.7127566015
 20
114.5583378956
 10
113.7114340207
 20
114.5824636045
 10
113.7072713672
 20
114.6071136686
  0
LWPOLYLINE
  5
44C
100
AcDbEntity
  8
0
100
AcDbPolyline
 62
253
  6
CONTINUOUS
 90
19
 70
0
 10
114.7834854488
 20
107.4027700048
 10
114.7824601422
 20
107.4258933929
 10
114.7795324427
 20
107.4490879672
 10
114.7747023504
 20
107.4723537276
 10
114.7679038698
 20
107.4958791311
 10
114.7592029963
 20
107.5194757208
 10
114.7487977166
 20
107.5425781256
 10
114.736650223
 20
107.5651637848
 10
114.722798323
 20
107.5872552591
 10
114.7075534259
 20
107.6083548589
 10
114.6908836671
 20
107.6284396987
 10
114.6728209113
 20
107.6475326641
 10
114.6537721605
 20
107.6652047224
 10
114.6337117098
 20
107.6814254291
 10
114.6126652642
 20
107.6962252287
 10
114.5911169412
 20
107.7092664228
 10
114.5692281132
 20
107.720436445
 10
114.5468374078
 20
107.7298478616
 10
114.5239448249
 20
107.7375006726
  0
LWPOLYLINE
  5
44D
100
AcDbEntity
  8
0
100
AcDbPolyline
 62
253
  6
CONTINUOUS
 90
14
 70
0
 10
113.3110239625
 20
104.4138622113
 10
113.3084448153
 20
104.479143573
 10
113.3010456742
 20
104.5454623843
 10
113.2888705852
 20
104.6124499746
 10
113.2719917974
 20
104.6797350436
 10
113.2505041154
 20
104.7469418464
 10
113.2245242419
 20
104.8136922813
 10
113.1941980315
 20
104.8796139579
 10
113.1596971497
 20
104.9443398994
 10
113.1212128022
 20
105.0075067002
 10
113.0789601642
 20
105.0687606928
 10
113.0331764712
 20
105.1277609209
 10
112.9841168895
 20
105.1841785431
 10
112.9441786205
 20
105.2252337628
  0
LINE
  5
44E
100
AcDbEntity
  8
0
100
AcDbLine
 62
7
  6
CONTINUOUS
 10
114.2020676042
 20
120.5336591893
 11
114.2002893881
 21
120.580618818
  0
LWPOLYLINE
  5
44F
100
AcDbEntity
  8
0
100
AcDbPolyline
 62
253
  6
CONTINUOUS
 90
9
 70
0
 10
114.5239448249
 20
69.4044529566
 10
114.5247442769
 20
69.3832877143
 10
114.527129871
 20
69.3638454645
 10
114.5310634918
 20
69.3464371084
 10
114.5364822695
 20
69.3313410372
 10
114.5432995864
 20
69.3187986729
 10
114.5514064633
 20
69.3090106101
 10
114.5606733029
 20
69.3021334108
 10
114.5684747446
 20
69.2989017299
  0
LWPOLYLINE
  5
450
100
AcDbEntity
  8
0
100
AcDbPolyline
 62
253
  6
CONTINUOUS
 90
10
 70
0
 10
113.4555072617
 20
108.9268599724
 10
113.4561633066
 20
108.9076206582
 10
113.4581360178
 20
108.8896837532
 10
113.4614188816
 20
108.8733099156
 10
113.4659956522
 20
108.8587226225
 10
113.4718184347
 20
108.8461779478
 10
113.478788313
 20
108.8359246603
 10
113.4867961327
 20
108.8281144
 10
113.4957431369
 20
108.8228357261
 10
113.5000368248
 20
108.8213088487
  0
LWPOLYLINE
  5
451
100
AcDbEntity
  8
0
100
AcDbPolyline
 62
7
  6
CONTINUOUS
 90
13
 70
0
 10
114.6036456901
 20
70.3758648694
 10
114.6040561555
 20
70.3634933295
 10
114.606579957
 20
70.3431138325
 10
114.610734707
 20
70.3222641599
 10
114.6164334471
 20
70.3011479164
 10
114.6237716869
 20
70.2799862057
 10
114.6322917754
 20
70.2588489845
 10
114.6419597383
 20
70.237847952
 10
114.6527962517
 20
70.2171518871
 10
114.664447878
 20
70.1968834261
 10
114.6767888389
 20
70.1771506436
 10
114.6899095295
 20
70.1580446982
 10
114.703783056
 20
70.1396455563
  0
LWPOLYLINE
  5
452
100
AcDbEntity
  8
0
100
AcDbPolyline
 62
7
  6
CONTINUOUS
 90
13
 70
0
 10
114.6036456901
 20
76.4380426959
 10
114.6040561555
 20
76.425671156
 10
114.606579957
 20
76.405291659
 10
114.610734707
 20
76.3844419864
 10
114.6164334471
 20
76.3633257429
 10
114.6237716869
 20
76.3421640322
 10
114.6322917754
 20
76.321026811
 10
114.6419597383
 20
76.3000257785
 10
114.6527962517
 20
76.2793297136
 10
114.664447878
 20
76.2590612526
 10
114.6767888389
 20
76.2393284701
 10
114.6899095295
 20
76.2202225247
 10
114.703783056
 20
76.2018233827
  0
LWPOLYLINE
  5
453
100
AcDbEntity
  8
0
100
AcDbPolyline
 62
7
  6
CONTINUOUS
 90
13
 70
0
 10
114.6036456901
 20
105.0365588933
 10
114.6040561555
 20
105.0241873534
 10
114.606579957
 20
105.0038078564
 10
114.610734707
 20
104.9829581838
 10
114.6164334471
 20
104.9618419403
 10
114.6237716869
 20
104.9406802296
 10
114.6322917754
 20
104.9195430084
 10
114.6419597383
 20
104.8985419759
 10
114.6527962517
 20
104.877845911
 10
114.664447878
 20
104.85757745
 10
114.6767888389
 20
104.8378446676
 10
114.6899095295
 20
104.8187387221
 10
114.703783056
 20
104.8003395802
  0
LINE
  5
454
100
AcDbEntity
  8
0
100
AcDbLine
 62
253
  6
CONTINUOUS
 10
114.1744479399
 20
120.5099834671
 11
114.1752726849
 21
120.4836591893
  0
LINE
  5
455
100
AcDbEntity
  8
RACCORDO
100
AcDbLine
 62
7
  6
CONTINUOUS
 10
113.5253397712
 20
117.0309926903
 11
113.5253399773
 21
117.0307925128
  0
LINE
  5
456
100
AcDbEntity
  8
RACCORDO
100
AcDbLine
 62
7
  6
CONTINUOUS
 10
115.9502109018
 20
116.3309926903
 11
115.9502111079
 21
116.3307925128
  0
LINE
  5
457
100
AcDbEntity
  8
RACCORDO
100
AcDbLine
 62
253
  6
CONTINUOUS
 10
113.3753400147
 20
117.2226703687
 11
113.3753400147
 21
116.7753597226
  0
LINE
  5
458
100
AcDbEntity
  8
0
100
AcDbLine
 62
253
  6
CONTINUOUS
 10
113.4224813409
 20
91.7660403418
 11
113.4224813409
 21
86.0021905881
  0
LINE
  5
459
100
AcDbEntity
  8
0
100
AcDbLine
 62
253
  6
CONTINUOUS
 10
113.4555072617
 20
109.3116808125
 11
113.4555072617
 21
108.9268599724
  0
LINE
  5
45A
100
AcDbEntity
  8
0
100
AcDbLine
 62
253
  6
CONTINUOUS
 10
113.4555072617
 20
67.6772558331
 11
113.4555072617
 21
67.292434993
  0
LINE
  5
45B
100
AcDbEntity
  8
0
100
AcDbLine
 62
7
  6
CONTINUOUS
 10
113.4935622537
 20
93.3126541689
 11
113.4935622537
 21
92.5070948838
  0
LINE
  5
45C
100
AcDbEntity
  8
0
100
AcDbLine
 62
7
  6
CONTINUOUS
 10
113.4935622537
 20
84.6524001311
 11
113.4935622537
 21
83.8468408459
  0
LINE
  5
45D
100
AcDbEntity
  8
0
100
AcDbLine
 62
7
  6
CONTINUOUS
 10
113.6594463534
 20
103.0552481114
 11
113.6594463534
 21
101.5976006834
  0
LINE
  5
45E
100
AcDbEntity
  8
0
100
AcDbLine
 62
7
  6
CONTINUOUS
 10
113.6594463534
 20
76.043471371
 11
113.6594463534
 21
74.5858239421
  0
LINE
  5
45F
100
AcDbEntity
  8
0
100
AcDbLine
 62
253
  6
CONTINUOUS
 10
113.6615089325
 20
114.5284613262
 11
113.6615089325
 21
113.3570216797
  0
LINE
  5
460
100
AcDbEntity
  8
0
100
AcDbLine
 62
7
  6
CONTINUOUS
 10
113.7127538254
 20
114.5570880724
 11
113.7127538254
 21
113.4531488782
  0
LINE
  5
461
100
AcDbEntity
  8
0
100
AcDbLine
 62
253
  6
CONTINUOUS
 10
113.7269407219
 20
109.3467795454
 11
113.7269407219
 21
108.9619587053
  0
LINE
  5
462
100
AcDbEntity
  8
0
100
AcDbLine
 62
253
  6
CONTINUOUS
 10
113.7269407219
 20
67.712354566
 11
113.7269407219
 21
67.3275337259
  0
LINE
  5
463
100
AcDbEntity
  8
0
100
AcDbLine
 62
7
  6
CONTINUOUS
 10
113.7511205185
 20
104.7929990507
 11
113.7511205185
 21
104.595845644
  0
LINE
  5
464
100
AcDbEntity
  8
0
100
AcDbLine
 62
7
  6
CONTINUOUS
 10
113.7511205185
 20
101.1113105815
 11
113.7511205185
 21
99.2831666923
  0
LINE
  5
465
100
AcDbEntity
  8
0
100
AcDbLine
 62
7
  6
CONTINUOUS
 10
113.7511205185
 20
78.3049772584
 11
113.7511205185
 21
76.476833369
  0
LINE
  5
466
100
AcDbEntity
  8
0
100
AcDbLine
 62
7
  6
CONTINUOUS
 10
113.7511205185
 20
72.9922983065
 11
113.7511205185
 21
72.7951448999
  0
LINE
  5
467
100
AcDbEntity
  8
0
100
AcDbLine
 62
253
  6
CONTINUOUS
 10
113.9706237914
 20
108.7555089081
 11
113.9706237914
 21
107.8972306965
  0
LINE
  5
468
100
AcDbEntity
  8
0
100
AcDbLine
 62
253
  6
CONTINUOUS
 10
113.9706237914
 20
69.5641829804
 11
113.9706237914
 21
68.7059047687
  0
LINE
  5
469
100
AcDbEntity
  8
0
100
AcDbLine
 62
7
  6
CONTINUOUS
 10
114.0474813409
 20
92.28612768
 11
114.0474813409
 21
86.5434564655
  0
LINE
  5
46A
100
AcDbEntity
  8
0
100
AcDbLine
 62
253
  6
CONTINUOUS
 10
114.1733143658
 20
83.6506133135
 11
114.1733143658
 21
84.4561725986
  0
LINE
  5
46B
100
AcDbEntity
  8
0
100
AcDbLine
 62
253
  6
CONTINUOUS
 10
114.1733143658
 20
92.3108673513
 11
114.1733143658
 21
93.1164266365
  0
LINE
  5
46C
100
AcDbEntity
  8
0
100
AcDbLine
 62
253
  6
CONTINUOUS
 10
114.1752726849
 20
120.4836591893
 11
114.1752726849
 21
120.0702468311
  0
LINE
  5
46D
100
AcDbEntity
  8
0
100
AcDbLine
 62
7
  6
CONTINUOUS
 10
114.2020676042
 20
120.5336591893
 11
114.2020676042
 21
120.096438483
  0
LINE
  5
46E
100
AcDbEntity
  8
0
100
AcDbLine
 62
253
  6
CONTINUOUS
 10
114.2420572515
 20
108.890607641
 11
114.2420572515
 21
108.1056137868
  0
LINE
  5
46F
100
AcDbEntity
  8
0
100
AcDbLine
 62
253
  6
CONTINUOUS
 10
114.2420572515
 20
69.3931303436
 11
114.2420572515
 21
68.6410035016
  0
LINE
  5
470
100
AcDbEntity
  8
0
100
AcDbLine
 62
253
  6
CONTINUOUS
 10
114.3782181764
 20
83.6757977393
 11
114.3782181764
 21
84.4858919834
  0
LINE
  5
471
100
AcDbEntity
  8
0
100
AcDbLine
 62
253
  6
CONTINUOUS
 10
114.3782181764
 20
92.3360517771
 11
114.3782181764
 21
93.1461460212
  0
LINE
  5
472
100
AcDbEntity
  8
RACCORDO
100
AcDbLine
 62
253
  6
CONTINUOUS
 10
114.4697566075
 20
116.6249331523
 11
114.4697566075
 21
115.7600146244
  0
LINE
  5
473
100
AcDbEntity
  8
0
100
AcDbLine
 62
7
  6
CONTINUOUS
 10
114.523795313
 20
100.7955620351
 11
114.523795313
 21
94.2001850996
  0
LINE
  5
474
100
AcDbEntity
  8
0
100
AcDbLine
 62
7
  6
CONTINUOUS
 10
114.523795313
 20
86.059546304
 11
114.523795313
 21
85.5399310617
  0
LINE
  5
475
100
AcDbEntity
  8
0
100
AcDbLine
 62
7
  6
CONTINUOUS
 10
114.523795313
 20
83.7974699956
 11
114.523795313
 21
77.3126897258
  0
LINE
  5
476
100
AcDbEntity
  8
0
100
AcDbLine
 62
7
  6
CONTINUOUS
 10
114.5532181764
 20
83.8220613996
 11
114.5532181764
 21
84.6427372144
  0
LINE
  5
477
100
AcDbEntity
  8
0
100
AcDbLine
 62
7
  6
CONTINUOUS
 10
114.5532181764
 20
92.4823154374
 11
114.5532181764
 21
93.3029912522
  0
LINE
  5
478
100
AcDbEntity
  8
0
100
AcDbLine
 62
7
  6
CONTINUOUS
 10
114.603783056
 20
106.8358013765
 11
114.603783056
 21
105.0362217062
  0
LINE
  5
479
100
AcDbEntity
  8
0
100
AcDbLine
 62
7
  6
CONTINUOUS
 10
114.603783056
 20
100.7736235501
 11
114.603783056
 21
93.3476487587
  0
LINE
  5
47A
100
AcDbEntity
  8
0
100
AcDbLine
 62
7
  6
CONTINUOUS
 10
114.603783056
 20
92.467718614
 11
114.603783056
 21
84.6873947208
  0
LINE
  5
47B
100
AcDbEntity
  8
0
100
AcDbLine
 62
7
  6
CONTINUOUS
 10
114.603783056
 20
83.8074645761
 11
114.603783056
 21
76.4377055087
  0
LINE
  5
47C
100
AcDbEntity
  8
0
100
AcDbLine
 62
7
  6
CONTINUOUS
 10
114.603783056
 20
72.1751073526
 11
114.603783056
 21
70.3755276823
  0
LINE
  5
47D
100
AcDbEntity
  8
0
100
AcDbLine
 62
253
  6
CONTINUOUS
 10
114.703783056
 20
106.8984784218
 11
114.703783056
 21
104.8003395802
  0
LINE
  5
47E
100
AcDbEntity
  8
0
100
AcDbLine
 62
253
  6
CONTINUOUS
 10
114.703783056
 20
100.8363005953
 11
114.703783056
 21
93.2595269154
  0
LINE
  5
47F
100
AcDbEntity
  8
0
100
AcDbLine
 62
253
  6
CONTINUOUS
 10
114.703783056
 20
92.4388511005
 11
114.703783056
 21
84.5992728775
  0
LINE
  5
480
100
AcDbEntity
  8
0
100
AcDbLine
 62
253
  6
CONTINUOUS
 10
114.703783056
 20
83.7785970627
 11
114.703783056
 21
76.2018233827
  0
LINE
  5
481
100
AcDbEntity
  8
0
100
AcDbLine
 62
253
  6
CONTINUOUS
 10
114.703783056
 20
72.2377843979
 11
114.703783056
 21
70.1396455563
  0
LINE
  5
482
100
AcDbEntity
  8
0
100
AcDbLine
 62
253
  6
CONTINUOUS
 10
114.7834854488
 20
69.5893377753
 11
114.7834854488
 21
72.6942802213
  0
LINE
  5
483
100
AcDbEntity
  8
0
100
AcDbLine
 62
253
  6
CONTINUOUS
 10
114.7834854488
 20
75.7189892339
 11
114.7834854488
 21
101.2731185462
  0
LINE
  5
484
100
AcDbEntity
  8
0
100
AcDbLine
 62
253
  6
CONTINUOUS
 10
114.7834854488
 20
104.2978275588
 11
114.7834854488
 21
107.4027700048
  0
LINE
  5
485
100
AcDbEntity
  8
RACCORDO
100
AcDbLine
 62
253
  6
CONTINUOUS
 10
114.8713577779
 20
116.7908072396
 11
114.8713577779
 21
115.8082225798
  0
LINE
  5
486
100
AcDbEntity
  8
0
100
AcDbLine
 62
7
  6
CONTINUOUS
 10
114.9135067447
 20
68.2801016868
 11
114.9135067447
 21
69.344811859
  0
LINE
  5
487
100
AcDbEntity
  8
0
100
AcDbLine
 62
7
  6
CONTINUOUS
 10
114.9135067447
 20
108.7235144235
 11
114.9135067447
 21
110.3689890707
  0
LINE
  5
488
100
AcDbEntity
  8
0
100
AcDbLine
 62
253
  6
CONTINUOUS
 10
115.0540134817
 20
69.6236904592
 11
115.0540134817
 21
72.737472583
  0
LINE
  5
489
100
AcDbEntity
  8
0
100
AcDbLine
 62
253
  6
CONTINUOUS
 10
115.0540134817
 20
75.74450224
 11
115.0540134817
 21
101.3163109079
  0
LINE
  5
48A
100
AcDbEntity
  8
0
100
AcDbLine
 62
253
  6
CONTINUOUS
 10
115.0540134817
 20
104.3233405649
 11
115.0540134817
 21
107.4371226887
  0
LINE
  5
48B
100
AcDbEntity
  8
0
100
AcDbLine
 62
7
  6
CONTINUOUS
 10
115.1970003937
 20
102.8104391374
 11
115.1970003937
 21
102.7105889073
  0
LINE
  5
48C
100
AcDbEntity
  8
0
100
AcDbLine
 62
7
  6
CONTINUOUS
 10
115.1970003937
 20
74.2316008125
 11
115.1970003937
 21
74.1317505824
  0
LINE
  5
48D
100
AcDbEntity
  8
0
100
AcDbLine
 62
253
  6
CONTINUOUS
 10
115.3031059977
 20
68.6436755034
 11
115.3031059977
 21
69.0511711379
  0
LINE
  5
48E
100
AcDbEntity
  8
0
100
AcDbLine
 62
253
  6
CONTINUOUS
 10
115.3031059977
 20
110.3007752773
 11
115.3031059977
 21
110.7082709119
  0
LINE
  5
48F
100
AcDbEntity
  8
0
100
AcDbLine
 62
7
  6
CONTINUOUS
 10
115.3281820562
 20
68.6921564654
 11
115.3281820562
 21
69.0996521
  0
LINE
  5
490
100
AcDbEntity
  8
0
100
AcDbLine
 62
7
  6
CONTINUOUS
 10
115.3281820562
 20
110.3492562393
 11
115.3281820562
 21
110.7567518739
  0
LINE
  5
491
100
AcDbEntity
  8
0
100
AcDbLine
 62
7
  6
CONTINUOUS
 10
115.5434105553
 20
76.101317397
 11
115.5434105553
 21
74.1316008125
  0
LINE
  5
492
100
AcDbEntity
  8
0
100
AcDbLine
 62
7
  6
CONTINUOUS
 10
115.5434105553
 20
102.7104391374
 11
115.5434105553
 21
104.6801557219
  0
LINE
  5
493
100
AcDbEntity
  8
0
100
AcDbLine
 62
7
  6
CONTINUOUS
 10
115.7362308783
 20
108.053001518
 11
115.7362308783
 21
107.7065915601
  0
LINE
  5
494
100
AcDbEntity
  8
0
100
AcDbLine
 62
7
  6
CONTINUOUS
 10
115.7362308783
 20
70.1210892395
 11
115.7362308783
 21
70.4674991974
  0
LINE
  5
495
100
AcDbEntity
  8
RACCORDO
100
AcDbLine
 62
253
  6
CONTINUOUS
 10
115.8002111453
 20
116.5226703687
 11
115.8002111453
 21
116.0753597226
  0
LINE
  5
496
100
AcDbEntity
  8
0
100
AcDbLine
 62
7
  6
CONTINUOUS
 10
113.7127537951
 20
114.5583271996
 11
113.7127536128
 21
114.5582813874
  0
LWPOLYLINE
  5
497
100
AcDbEntity
  8
0
100
AcDbPolyline
 62
253
  6
CONTINUOUS
 90
22
 70
0
 10
113.3110239626
 20
77.9408191876
 10
113.3108685632
 20
77.9211075403
 10
113.3104150605
 20
77.9015413577
 10
113.3096660044
 20
77.8821243532
 10
113.3086252406
 20
77.8628802057
 10
113.3072948041
 20
77.8437921568
 10
113.3056718814
 20
77.8248041325
 10
113.3037539801
 20
77.8058971865
 10
113.301543045
 20
77.7870993719
 10
113.2990407912
 20
77.768425889
 10
113.2962489689
 20
77.749887167
 10
113.2931675981
 20
77.7314809564
 10
113.2897960218
 20
77.7132033524
 10
113.2861347665
 20
77.6950583606
 10
113.2821845069
 20
77.6770504098
 10
113.2779441863
 20
77.6591765414
 10
113.2734142203
 20
77.6414410348
 10
113.2685951146
 20
77.623848257
 10
113.2634853752
 20
77.6063957119
 10
113.2580845814
 20
77.5890856246
 10
113.2523937551
 20
77.5719247342
 10
113.2464133408
 20
77.5549174816
  0
LWPOLYLINE
  5
498
100
AcDbEntity
  8
0
100
AcDbPolyline
 62
7
  6
CONTINUOUS
 90
10
 70
0
 10
113.6594463534
 20
103.0552481114
 10
113.6588783986
 20
103.0167872901
 10
113.657155842
 20
102.9787023372
 10
113.6542786836
 20
102.9409932528
 10
113.6502368985
 20
102.9035887227
 10
113.6450405116
 20
102.8665600611
 10
113.6387195977
 20
102.8301212107
 10
113.6312841816
 20
102.7943434857
 10
113.6227242384
 20
102.759155572
 10
113.6130397681
 20
102.7245574694
  0
LWPOLYLINE
  5
499
100
AcDbEntity
  8
0
100
AcDbPolyline
 62
7
  6
CONTINUOUS
 90
10
 70
0
 10
113.7511205185
 20
78.3049772584
 10
113.7503293278
 20
78.2595503528
 10
113.7479235637
 20
78.2146668267
 10
113.7439032264
 20
78.17032668
 10
113.7382495687
 20
78.1264179143
 10
113.7309813377
 20
78.083052528
 10
113.7221547746
 20
78.0405665164
 10
113.7117886265
 20
77.9990718778
 10
113.6998641464
 20
77.9584566139
 10
113.6863813343
 20
77.9187207246
  0
LWPOLYLINE
  5
49A
100
AcDbEntity
  8
RACCORDO
100
AcDbPolyline
 62
7
  6
CONTINUOUS
 90
7
 70
0
 10
115.9502059277
 20
116.3310334755
 10
115.950069534
 20
116.3267327071
 10
115.9488231077
 20
116.3174927308
 10
115.9459944317
 20
116.3067175689
 10
115.9413056493
 20
116.2945693687
 10
115.9346017528
 20
116.2813334717
 10
115.9284275196
 20
116.2712141496
  0
LWPOLYLINE
  5
49B
100
AcDbEntity
  8
0
100
AcDbPolyline
 62
253
  6
CONTINUOUS
 90
13
 70
0
 10
114.5239448249
 20
107.7375006726
 10
114.52474433
 20
107.7600513669
 10
114.5271300611
 20
107.7836262566
 10
114.53106387
 20
107.8078483768
 10
114.5364828549
 20
107.8323304135
 10
114.5433003657
 20
107.8566808964
 10
114.5514073894
 20
107.8805104588
 10
114.5606742943
 20
107.9034380637
 10
114.5709529014
 20
107.9250970964
 10
114.5820788542
 20
107.9451412268
 10
114.5938742475
 20
107.9632499474
 10
114.6061504719
 20
107.9791336979
 10
114.6187112293
 20
107.9925384955
  0
LWPOLYLINE
  5
49C
100
AcDbEntity
  8
0
100
AcDbPolyline
 62
253
  6
CONTINUOUS
 90
8
 70
0
 10
113.3110239625
 20
91.8053492158
 10
113.3091376947
 20
91.7696975929
 10
113.3035016182
 20
91.7355533431
 10
113.2941772167
 20
91.7032903586
 10
113.2812655248
 20
91.6732612142
 10
113.2649081343
 20
91.6457950444
 10
113.2452856411
 20
91.6211939516
 10
113.2236719734
 20
91.6006031662
  0
LINE
  5
49D
100
AcDbEntity
  8
0
100
AcDbLine
 62
7
  6
CONTINUOUS
 10
115.3268643285
 20
110.326335622
 11
115.3281820257
 21
110.3493115024
  0
LWPOLYLINE
  5
49E
100
AcDbEntity
  8
RACCORDO
100
AcDbPolyline
 62
253
  6
CONTINUOUS
 90
9
 70
0
 10
112.4459254566
 20
67.6164889107
 10
112.4428777815
 20
67.5713940727
 10
112.4351966868
 20
67.5282227763
 10
112.4229662549
 20
67.4874476031
 10
112.4063203681
 20
67.449514905
 10
112.3854412433
 20
67.4148399186
 10
112.3605574372
 20
67.383802219
 10
112.3319413445
 20
67.3567415654
 10
112.3252823187
 20
67.3514348872
  0
LWPOLYLINE
  5
49F
100
AcDbEntity
  8
0
100
AcDbPolyline
 62
253
  6
CONTINUOUS
 90
5
 70
0
 10
115.3281820529
 20
110.3492379042
 10
115.3267517601
 20
110.3373181416
 10
115.3220253173
 20
110.3246351602
 10
115.3140928506
 20
110.312387633
 10
115.3031059977
 20
110.3007752773
  0
LWPOLYLINE
  5
4A0
100
AcDbEntity
  8
RACCORDO
100
AcDbPolyline
 62
253
  6
CONTINUOUS
 90
5
 70
0
 10
123.1444955598
 20
121.9513690497
 10
123.1356016918
 20
121.9206361291
 10
123.120401671
 20
121.8905275345
 10
123.099058355
 20
121.8613658586
 10
123.0718004229
 20
121.8334635484
  0
LWPOLYLINE
  5
4A1
100
AcDbEntity
  8
RACCORDO
100
AcDbPolyline
 62
7
  6
CONTINUOUS
 90
14
 70
0
 10
123.894520141
 20
117.0504452877
 10
123.9373992516
 20
117.1454639029
 10
123.9996090897
 20
117.2963551746
 10
124.0576007274
 20
117.4507356503
 10
124.1111699734
 20
117.6078871375
 10
124.1601769384
 20
117.767341937
 10
124.2044134162
 20
117.9283897706
 10
124.2436992495
 20
118.0903109965
 10
124.277894847
 20
118.2526326022
 10
124.3068140951
 20
118.4146460172
 10
124.3303007807
 20
118.5756308253
 10
124.3482149236
 20
118.735123489
 10
124.3603915554
 20
118.8925136651
 10
124.3666795363
 20
119.0470169182
  0
LWPOLYLINE
  5
4A2
100
AcDbEntity
  8
RACCORDO
100
AcDbPolyline
 62
253
  6
CONTINUOUS
 90
7
 70
0
 10
131.6227244768
 20
110.2148702477
 10
131.6569410847
 20
110.249088806
 10
131.6853085127
 20
110.2847620909
 10
131.7075573673
 20
110.3216429855
 10
131.7234679215
 20
110.3594963343
 10
131.7328389338
 20
110.3980252539
 10
131.7355667008
 20
110.4329011761
  0
LINE
  5
4A3
100
AcDbEntity
  8
0
100
AcDbLine
 62
7
  6
CONTINUOUS
 10
114.5532181764
 20
93.3029912522
 11
114.3782181764
 21
93.1461460212
  0
LINE
  5
4A4
100
AcDbEntity
  8
0
100
AcDbLine
 62
7
  6
CONTINUOUS
 10
114.5532181764
 20
92.4823154374
 11
114.3782181764
 21
92.3360517771
  0
LINE
  5
4A5
100
AcDbEntity
  8
0
100
AcDbLine
 62
253
  6
CONTINUOUS
 10
113.3110239625
 20
91.8053492158
 11
113.9841413078
 21
92.3654769093
  0
LINE
  5
4A6
100
AcDbEntity
  8
0
100
AcDbLine
 62
7
  6
CONTINUOUS
 10
114.1019636092
 20
92.3314645406
 11
113.2235923197
 21
91.6005369145
  0
LWPOLYLINE
  5
4A7
100
AcDbEntity
  8
0
100
AcDbPolyline
 62
253
  6
CONTINUOUS
 90
13
 70
0
 10
113.3110239625
 20
91.8053492158
 10
113.2926095351
 20
91.7920565336
 10
113.2709174417
 20
91.78006369
 10
113.2463107316
 20
91.7695713445
 10
113.219201197
 20
91.7607550376
 10
113.1900425291
 20
91.7537622696
 10
113.1593227359
 20
91.7487100227
 10
113.1275558935
 20
91.7456827879
 10
113.0952735512
 20
91.744731167
 10
113.063015894
 20
91.7458710313
 10
113.0313226576
 20
91.7490832531
 10
113.0007240975
 20
91.7543140327
 10
112.9717321374
 20
91.7614757997
  0
LINE
  5
4A8
100
AcDbEntity
  8
0
100
AcDbLine
 62
7
  6
CONTINUOUS
 10
120.4054331031
 20
93.9356326725
 11
120.7437356605
 21
94.1597967064
  0
LINE
  5
4A9
100
AcDbEntity
  8
0
100
AcDbLine
 62
253
  6
CONTINUOUS
 10
120.4054331031
 20
93.8526480038
 11
120.7676589811
 21
94.0926639665
  0
LWPOLYLINE
  5
4AA
100
AcDbEntity
  8
0
100
AcDbPolyline
 62
253
  6
CONTINUOUS
 90
10
 70
0
 10
113.5748032197
 20
108.8157661557
 10
113.5977758935
 20
108.8210363647
 10
113.6200319426
 20
108.8295733718
 10
113.6411925103
 20
108.8412320417
 10
113.6609112931
 20
108.8558253298
 10
113.6788382297
 20
108.8730982001
 10
113.6946378322
 20
108.8927135427
 10
113.7080481005
 20
108.9143096158
 10
113.7188706166
 20
108.9375241399
 10
113.7269407219
 20
108.9619587053
  0
LWPOLYLINE
  5
4AB
100
AcDbEntity
  8
0
100
AcDbPolyline
 62
253
  6
CONTINUOUS
 90
13
 70
0
 10
112.9717321374
 20
104.3699887952
 10
113.0007241692
 20
104.3628269929
 10
113.0313227982
 20
104.3575961925
 10
113.063016096
 20
104.3543839631
 10
113.095273803
 20
104.3532441025
 10
113.1275561813
 20
104.3541957364
 10
113.1593230462
 20
104.3572229918
 10
113.1900428599
 20
104.3622752677
 10
113.2192015325
 20
104.3692680699
 10
113.2463110257
 20
104.3780844018
 10
113.2709176502
 20
104.3885767508
 10
113.2926096396
 20
104.4005695741
 10
113.3110239625
 20
104.4138622082
  0
LINE
  5
4AC
100
AcDbEntity
  8
0
100
AcDbLine
 62
7
  6
CONTINUOUS
 10
116.2589085516
 20
102.4040424269
 11
115.0670965832
 21
102.7480889073
  0
LINE
  5
4AD
100
AcDbEntity
  8
0
100
AcDbLine
 62
7
  6
CONTINUOUS
 10
115.1970003937
 20
102.8104391374
 11
115.5434105553
 21
102.7104391374
  0
LINE
  5
4AE
100
AcDbEntity
  8
RACCORDO
100
AcDbLine
 62
253
  6
CONTINUOUS
 10
111.5208466217
 20
104.4134779534
 11
93.3099812392
 21
109.6705019687
  0
LINE
  5
4AF
100
AcDbEntity
  8
0
100
AcDbLine
 62
7
  6
CONTINUOUS
 10
112.9441786205
 20
104.2436295239
 11
112.9717321374
 21
104.2356755087
  0
LINE
  5
4B0
100
AcDbEntity
  8
0
100
AcDbLine
 62
7
  6
CONTINUOUS
 10
114.7834854488
 20
104.2978275588
 11
113.7511205185
 21
104.595845644
  0
LINE
  5
4B1
100
AcDbEntity
  8
RACCORDO
100
AcDbLine
 62
253
  6
CONTINUOUS
 10
112.0130611374
 20
105.5634872271
 11
93.7803662376
 21
110.8268128813
  0
LINE
  5
4B2
100
AcDbEntity
  8
0
100
AcDbLine
 62
253
  6
CONTINUOUS
 10
113.7038029529
 20
105.089008971
 11
114.703783056
 21
104.8003395802
  0
LINE
  5
4B3
100
AcDbEntity
  8
0
100
AcDbLine
 62
253
  6
CONTINUOUS
 10
113.7265038183
 20
105.3711309303
 11
114.603783056
 21
105.1178822282
  0
LINE
  5
4B4
100
AcDbEntity
  8
0
100
AcDbLine
 62
7
  6
CONTINUOUS
 10
112.5113143012
 20
105.9916428152
 11
94.2353834913
 21
111.2674496016
  0
LINE
  5
4B5
100
AcDbEntity
  8
0
100
AcDbLine
 62
7
  6
CONTINUOUS
 10
109.4879181674
 20
106.8895730671
 11
109.0530082592
 21
107.0151207434
  0
LINE
  5
4B6
100
AcDbEntity
  8
0
100
AcDbLine
 62
7
  6
CONTINUOUS
 10
101.6936895334
 20
109.1395730671
 11
101.2587796251
 21
109.2651207434
  0
LINE
  5
4B7
100
AcDbEntity
  8
0
100
AcDbLine
 62
7
  6
CONTINUOUS
 10
100.8655740506
 20
113.3863992421
 11
100.4723852861
 21
113.7202489697
  0
LWPOLYLINE
  5
4B8
100
AcDbEntity
  8
0
100
AcDbPolyline
 62
253
  6
CONTINUOUS
 90
6
 70
0
 10
105.5973751955
 20
113.1998595498
 10
105.6123237647
 20
113.1782976981
 10
105.6248358806
 20
113.1555739705
 10
105.6346396937
 20
113.1322379509
 10
105.6416088377
 20
113.1087524404
 10
105.6457066428
 20
113.0854652579
  0
LINE
  5
4B9
100
AcDbEntity
  8
0
100
AcDbLine
 62
253
  6
CONTINUOUS
 10
106.8812225937
 20
116.6095973696
 11
106.8709875946
 21
116.6329426934
  0
LWPOLYLINE
  5
4BA
100
AcDbEntity
  8
0
100
AcDbPolyline
 62
7
  6
CONTINUOUS
 90
6
 70
0
 10
106.9315862305
 20
116.5814251648
 10
106.9219064112
 20
116.6055080416
 10
106.9091345169
 20
116.6286288491
 10
106.8934993292
 20
116.6501296444
 10
106.8751443327
 20
116.6696966559
 10
106.8543610697
 20
116.6869376896
  0
LWPOLYLINE
  5
4BB
100
AcDbEntity
  8
0
100
AcDbPolyline
 62
7
  6
CONTINUOUS
 90
13
 70
0
 10
113.7038029529
 20
105.089008971
 10
113.6958219389
 20
105.1160529101
 10
113.6897068231
 20
105.1440125342
 10
113.6853575039
 20
105.1723953807
 10
113.6823780501
 20
105.200768669
 10
113.6808812488
 20
105.2286309565
 10
113.681509306
 20
105.2554141332
 10
113.6841545043
 20
105.2807508407
 10
113.6885658836
 20
105.3042289326
 10
113.6951558956
 20
105.3252723582
 10
113.7039169948
 20
105.3435326729
 10
113.7144346429
 20
105.3588745197
 10
113.7265038183
 20
105.3711309303
  0
LWPOLYLINE
  5
4BC
100
AcDbEntity
  8
0
100
AcDbPolyline
 62
253
  6
CONTINUOUS
 90
22
 70
0
 10
113.2464133407
 20
99.3380857605
 10
113.2523937551
 20
99.3176140973
 10
113.2580845814
 20
99.2971571716
 10
113.2634853753
 20
99.276719674
 10
113.2685951147
 20
99.2563089206
 10
113.2734142203
 20
99.2359268867
 10
113.2779441864
 20
99.2155702219
 10
113.2821845069
 20
99.1952435854
 10
113.2861347665
 20
99.1749514847
 10
113.2897960218
 20
99.1546903556
 10
113.2931675981
 20
99.1344650211
 10
113.296248969
 20
99.1142797814
 10
113.2990407913
 20
99.0941303527
 10
113.3015430451
 20
99.0740144973
 10
113.3037539801
 20
99.0539436637
 10
113.3056718814
 20
99.0339340496
 10
113.3072948041
 20
99.0140148275
 10
113.3086252407
 20
98.9941655691
 10
113.3096660044
 20
98.9743285748
 10
113.3104150605
 20
98.9544883198
 10
113.3108685632
 20
98.9346707502
 10
113.3110239626
 20
98.9148810947
  0
LWPOLYLINE
  5
4BD
100
AcDbEntity
  8
0
100
AcDbPolyline
 62
7
  6
CONTINUOUS
 90
10
 70
0
 10
113.6863813344
 20
99.706800411
 10
113.6998641465
 20
99.6592802167
 10
113.7117886265
 20
99.6117803511
 10
113.7221547746
 20
99.5643008142
 10
113.7309813376
 20
99.5167187841
 10
113.7382495686
 20
99.4691570827
 10
113.7439032263
 20
99.4219841762
 10
113.7479235637
 20
99.3753228867
 10
113.7503293277
 20
99.329050392
 10
113.7511205185
 20
99.2831666923
  0
LWPOLYLINE
  5
4BE
100
AcDbEntity
  8
0
100
AcDbPolyline
 62
7
  6
CONTINUOUS
 90
3
 70
0
 10
115.3281820001
 20
110.7566769835
 10
115.3264810502
 20
110.7827806782
 10
115.3214767064
 20
110.8081053374
  0
LINE
  5
4BF
100
AcDbEntity
  8
0
100
AcDbLine
 62
253
  6
CONTINUOUS
 10
115.3018308812
 20
110.7314846813
 11
115.3031059977
 21
110.7082709119
  0
LWPOLYLINE
  5
4C0
100
AcDbEntity
  8
0
100
AcDbPolyline
 62
7
  6
CONTINUOUS
 90
16
 70
0
 10
115.7362308783
 20
108.053001518
 10
115.7338918933
 20
108.0985960429
 10
115.7268169057
 20
108.1451841326
 10
115.7150388706
 20
108.1922806948
 10
115.6985664892
 20
108.239549683
 10
115.6775825799
 20
108.2863039967
 10
115.6525974377
 20
108.3315418141
 10
115.6242374917
 20
108.3744409864
 10
115.5926850392
 20
108.4149657434
 10
115.5578272981
 20
108.4532802732
 10
115.5196337281
 20
108.4892161208
 10
115.478775615
 20
108.5219588592
 10
115.436198561
 20
108.550754589
 10
115.3925791976
 20
108.5752484927
 10
115.3482384459
 20
108.5953458412
 10
115.3036631718
 20
108.6108859644
  0
LINE
  5
4C1
100
AcDbEntity
  8
0
100
AcDbLine
 62
7
  6
CONTINUOUS
 10
116.2211143486
 20
70.5735160837
 11
116.2211143486
 21
71.3269737447
  0
LINE
  5
4C2
100
AcDbEntity
  8
0
100
AcDbLine
 62
7
  6
CONTINUOUS
 10
116.2211143486
 20
107.6439680282
 11
116.2211143486
 21
108.47532761
  0
LINE
  5
4C3
100
AcDbEntity
  8
0
100
AcDbLine
 62
7
  6
CONTINUOUS
 10
116.2589085516
 20
71.3939654189
 11
116.2589085516
 21
73.8252041021
  0
LINE
  5
4C4
100
AcDbEntity
  8
0
100
AcDbLine
 62
7
  6
CONTINUOUS
 10
116.2589085516
 20
76.6229807736
 11
116.2589085516
 21
102.4040424269
  0
LINE
  5
4C5
100
AcDbEntity
  8
0
100
AcDbLine
 62
7
  6
CONTINUOUS
 10
116.2589085516
 20
105.2018190984
 11
116.2589085516
 21
107.6330577816
  0
LINE
  5
4C6
100
AcDbEntity
  8
RACCORDO
100
AcDbLine
 62
7
  6
CONTINUOUS
 10
116.3228334187
 20
105.3187316756
 11
116.3228334187
 21
73.6713844857
  0
LINE
  5
4C7
100
AcDbEntity
  8
0
100
AcDbLine
 62
253
  6
CONTINUOUS
 10
117.0884124057
 20
117.1367509147
 11
117.0884124057
 21
117.6508201942
  0
LINE
  5
4C8
100
AcDbEntity
  8
0
100
AcDbLine
 62
7
  6
CONTINUOUS
 10
117.4544378095
 20
117.6367681193
 11
117.4544378095
 21
117.4678074923
  0
LWPOLYLINE
  5
4C9
100
AcDbEntity
  8
0
100
AcDbPolyline
 62
7
  6
CONTINUOUS
 90
8
 70
0
 10
115.7362308783
 20
70.1210230859
 10
115.7338588397
 20
70.0767427534
 10
115.7267819033
 20
70.0340978837
 10
115.7150132557
 20
69.9935736869
 10
115.6985319514
 20
69.9554887
 10
115.6775134455
 20
69.9204744522
 10
115.6524941769
 20
69.8893424301
 10
115.6376065868
 20
69.8743895628
  0
LINE
  5
4CA
100
AcDbEntity
  8
0
100
AcDbLine
 62
7
  6
CONTINUOUS
 10
115.3270065341
 20
68.6705045813
 11
115.3281820409
 21
68.6921955796
  0
LWPOLYLINE
  5
4CB
100
AcDbEntity
  8
0
100
AcDbPolyline
 62
253
  6
CONTINUOUS
 90
3
 70
0
 10
115.3031059977
 20
68.6436755034
 10
115.3018192516
 20
68.6215993887
 10
115.2975361094
 20
68.6007344117
  0
LINE
  5
4CC
100
AcDbEntity
  8
0
100
AcDbLine
 62
7
  6
CONTINUOUS
 10
118.0875946899
 20
92.1798919283
 11
117.9560156504
 21
90.0656746271
  0
LWPOLYLINE
  5
4CD
100
AcDbEntity
  8
0
100
AcDbPolyline
 62
253
  6
CONTINUOUS
 90
5
 70
0
 10
115.3281820562
 20
68.6921543345
 10
115.3268365298
 20
68.6805763087
 10
115.322154733
 20
68.6677915282
 10
115.31419887
 20
68.6554217918
 10
115.3031059977
 20
68.6436755034
  0
LWPOLYLINE
  5
4CE
100
AcDbEntity
  8
0
100
AcDbPolyline
 62
253
  6
CONTINUOUS
 90
3
 70
0
 10
112.9668085388
 20
85.4986466995
 10
112.9504915639
 20
85.4826632957
 10
112.9441786205
 20
85.4750210067
  0
LINE
  5
4CF
100
AcDbEntity
  8
0
100
AcDbLine
 62
7
  6
CONTINUOUS
 10
121.493477682
 20
95.8753067958
 11
118.2909662973
 21
92.7499340803
  0
LINE
  5
4D0
100
AcDbEntity
  8
0
100
AcDbLine
 62
7
  6
CONTINUOUS
 10
113.4224813409
 20
86.0021905881
 11
114.0474813409
 21
86.5434564655
  0
LINE
  5
4D1
100
AcDbEntity
  8
0
100
AcDbLine
 62
253
  6
CONTINUOUS
 10
120.4054331031
 20
93.1103089335
 11
120.7989024464
 21
93.4459579376
  0
LINE
  5
4D2
100
AcDbEntity
  8
0
100
AcDbLine
 62
253
  6
CONTINUOUS
 10
120.4054331031
 20
92.6466400849
 11
120.7989024464
 21
92.982289089
  0
LINE
  5
4D3
100
AcDbEntity
  8
0
100
AcDbLine
 62
253
  6
CONTINUOUS
 10
114.1773323835
 20
86.5059716983
 11
112.9668085388
 21
85.4986466995
  0
LINE
  5
4D4
100
AcDbEntity
  8
0
100
AcDbLine
 62
7
  6
CONTINUOUS
 10
120.4054331031
 20
92.5679835764
 11
117.9928957122
 21
90.6582649444
  0
LINE
  5
4D5
100
AcDbEntity
  8
0
100
AcDbLine
 62
7
  6
CONTINUOUS
 10
118.2909662973
 20
89.7188451671
 11
121.493477682
 21
92.2538921612
  0
LWPOLYLINE
  5
4D6
100
AcDbEntity
  8
0
100
AcDbPolyline
 62
7
  6
CONTINUOUS
 90
16
 70
0
 10
113.4224813409
 20
86.0021905881
 10
113.4078928624
 20
85.9910492177
 10
113.3914849626
 20
85.9809181833
 10
113.3732576416
 20
85.971797485
 10
113.3529730756
 20
85.9636099004
 10
113.3308690884
 20
85.9564326518
 10
113.3076591507
 20
85.9504974059
 10
113.2833071766
 20
85.9458446881
 10
113.2578492519
 20
85.9424339729
 10
113.2321071058
 20
85.9403753512
 10
113.2060714643
 20
85.9397129405
 10
113.1797516013
 20
85.9404026233
 10
113.1539970673
 20
85.942422138
 10
113.1290910458
 20
85.9457640643
 10
113.1047503534
 20
85.9504358225
 10
113.08097499
 20
85.9564374127
  0
LWPOLYLINE
  5
4D7
100
AcDbEntity
  8
RACCORDO
100
AcDbPolyline
 62
253
  6
CONTINUOUS
 90
24
 70
0
 10
131.6978610645
 20
100.9771080398
 10
131.7098673835
 20
100.9851675782
 10
131.7210292755
 20
100.9910251799
 10
131.7313187242
 20
100.9947045077
 10
131.7406705122
 20
100.9961009929
 10
131.7490738161
 20
100.995379729
 10
131.7565839453
 20
100.9929664257
 10
131.7631486025
 20
100.9889273684
 10
131.768741014
 20
100.9832571173
 10
131.7734662609
 20
100.9762654313
 10
131.7773071211
 20
100.9680471945
 10
131.7801972564
 20
100.9585753465
 10
131.7821707166
 20
100.9479766962
 10
131.7832066154
 20
100.9363258896
 10
131.7832287906
 20
100.9236332537
 10
131.7821845973
 20
100.9099344941
 10
131.7800380465
 20
100.8953034748
 10
131.7767151006
 20
100.8797706918
 10
131.7721003608
 20
100.8633139203
 10
131.7661636029
 20
100.8460465074
 10
131.7588128163
 20
100.8279816257
 10
131.749824678
 20
100.8089632327
 10
131.7391776815
 20
100.7891503364
 10
131.7355667403
 20
100.7831704026
  0
LWPOLYLINE
  5
4D8
100
AcDbEntity
  8
0
100
AcDbPolyline
 62
7
  6
CONTINUOUS
 90
5
 70
0
 10
112.4886217677
 20
111.2189747279
 10
112.5089375987
 20
111.2231266875
 10
112.5303856099
 20
111.2242123479
 10
112.5526026231
 20
111.2222162819
 10
112.5752117745
 20
111.2171753867
  0
LWPOLYLINE
  5
4D9
100
AcDbEntity
  8
0
100
AcDbPolyline
 62
7
  6
CONTINUOUS
 90
10
 70
0
 10
109.1758976496
 20
111.5856521134
 10
109.1467243208
 20
111.5806053848
 10
109.1182594619
 20
111.573570574
 10
109.0906206719
 20
111.5646784443
 10
109.063590466
 20
111.5540386506
 10
109.0376219939
 20
111.5418428817
 10
109.0137987879
 20
111.5284542832
 10
108.9925949914
 20
111.5143882147
 10
108.9736056164
 20
111.499653741
 10
108.96770921
 20
111.4945121846
  0
LWPOLYLINE
  5
4DA
100
AcDbEntity
  8
0
100
AcDbPolyline
 62
7
  6
CONTINUOUS
 90
9
 70
0
 10
108.9535024921
 20
108.4657451333
 10
108.9540207912
 20
108.4657321289
 10
108.9564974686
 20
108.4665046486
 10
108.9605552956
 20
108.4683201324
 10
108.9657748288
 20
108.4711841177
 10
108.9721211112
 20
108.4749895449
 10
108.9796304044
 20
108.4795894183
 10
108.9880064041
 20
108.4849965844
 10
109.0073184487
 20
108.4978544907
  0
LWPOLYLINE
  5
4DB
100
AcDbEntity
  8
0
100
AcDbPolyline
 62
7
  6
CONTINUOUS
 90
9
 70
0
 10
101.159273858
 20
110.7157451333
 10
101.1597921571
 20
110.7157321289
 10
101.1622688346
 20
110.7165046486
 10
101.1663266615
 20
110.7183201324
 10
101.1715461947
 20
110.7211841177
 10
101.1778924771
 20
110.7249895449
 10
101.1854017703
 20
110.7295894183
 10
101.19377777
 20
110.7349965844
 10
101.2130898146
 20
110.7478544907
  0
LWPOLYLINE
  5
4DC
100
AcDbEntity
  8
0
100
AcDbPolyline
 62
253
  6
CONTINUOUS
 90
3
 70
0
 10
113.5280654485
 20
108.8153540908
 10
113.5515042911
 20
108.8138518103
 10
113.5748032197
 20
108.8157661557
  0
LINE
  5
4DD
100
AcDbEntity
  8
DRAFT
100
AcDbLine
 62
7
  6
CONTINUOUS
 10
115.7362308783
 20
107.7065915601
 11
116.2211143486
 21
107.6439680282
  0
LINE
  5
4DE
100
AcDbEntity
  8
0
100
AcDbLine
 62
7
  6
CONTINUOUS
 10
113.528066372
 20
108.8153539629
 11
113.9928623774
 21
108.7509730165
  0
LINE
  5
4DF
100
AcDbEntity
  8
0
100
AcDbLine
 62
253
  6
CONTINUOUS
 10
113.7269407219
 20
108.9619587053
 11
114.2420572515
 21
108.890607641
  0
LINE
  5
4E0
100
AcDbEntity
  8
DRAFT
100
AcDbLine
 62
7
  6
CONTINUOUS
 10
115.7362308783
 20
107.7065915601
 11
116.2589085516
 21
107.6330577816
  0
LWPOLYLINE
  5
4E1
100
AcDbEntity
  8
0
100
AcDbPolyline
 62
7
  6
CONTINUOUS
 90
3
 70
0
 10
113.5279608748
 20
108.8153686117
 10
113.5093546761
 20
108.8188606642
 10
113.500177113
 20
108.8212686448
  0
LWPOLYLINE
  5
4E2
100
AcDbEntity
  8
0
100
AcDbPolyline
 62
253
  6
CONTINUOUS
 90
19
 70
0
 10
96.2227529676
 20
113.0205996953
 10
96.1998603848
 20
113.026163923
 10
96.1774696794
 20
113.0296797862
 10
96.1555808514
 20
113.0311472847
 10
96.1340325284
 20
113.0305470208
 10
96.1129860828
 20
113.0278983922
 10
96.092925632
 20
113.0232595922
 10
96.0738768813
 20
113.0165853353
 10
96.0558141254
 20
113.0079209069
 10
96.0391443667
 20
112.9974603568
 10
96.0238994696
 20
112.9851624023
 10
96.0100475697
 20
112.9710683262
 10
95.9979000761
 20
112.9554960256
 10
95.9874947962
 20
112.938401112
 10
95.9787939226
 20
112.9198279741
 10
95.9719954419
 20
112.9002276752
 10
95.9671653496
 20
112.8797505699
 10
95.9642376502
 20
112.8582463036
 10
95.9632123437
 20
112.8357148765
  0
LWPOLYLINE
  5
4E3
100
AcDbEntity
  8
0
100
AcDbPolyline
 62
253
  6
CONTINUOUS
 90
13
 70
0
 10
114.7834854488
 20
107.4027700048
 10
114.8065444386
 20
107.39706859
 10
114.8308765756
 20
107.3928941723
 10
114.8560793464
 20
107.3903158639
 10
114.8817358062
 20
107.3893763735
 10
114.9074214918
 20
107.3900912979
 10
114.9327114434
 20
107.3924488641
 10
114.957187245
 20
107.3964101286
 10
114.9804438519
 20
107.4019096009
 10
115.0020963271
 20
107.4088563074
 10
115.0217863348
 20
107.4171353251
 10
115.0391880529
 20
107.426609701
 10
115.0540134817
 20
107.4371226895
  0
LINE
  5
4E4
100
AcDbEntity
  8
0
100
AcDbLine
 62
7
  6
CONTINUOUS
 10
97.8241288718
 20
110.7123065082
 11
97.1260475158
 21
110.9138252376
  0
LINE
  5
4E5
100
AcDbEntity
  8
0
100
AcDbLine
 62
7
  6
CONTINUOUS
 10
114.4078460446
 20
105.9249997213
 11
114.603783056
 21
105.8684375782
  0
LINE
  5
4E6
100
AcDbEntity
  8
0
100
AcDbLine
 62
7
  6
CONTINUOUS
 10
98.5887959835
 20
110.9245788288
 11
99.6129758783
 21
110.6289235598
  0
LINE
  5
4E7
100
AcDbEntity
  8
0
100
AcDbLine
 62
7
  6
CONTINUOUS
 10
112.6337219143
 20
106.8701579453
 11
113.6579018091
 21
106.5745026763
  0
LINE
  5
4E8
100
AcDbEntity
  8
0
100
AcDbLine
 62
7
  6
CONTINUOUS
 10
114.6056405962
 20
106.8341131635
 11
109.6758874636
 21
108.2572103125
  0
LINE
  5
4E9
100
AcDbEntity
  8
0
100
AcDbLine
 62
7
  6
CONTINUOUS
 10
108.9540989237
 20
108.4655727164
 11
101.8816588296
 21
110.5072103125
  0
LINE
  5
4EA
100
AcDbEntity
  8
0
100
AcDbLine
 62
7
  6
CONTINUOUS
 10
101.1598702897
 20
110.7155727164
 11
96.2301171571
 21
112.1386698655
  0
LINE
  5
4EB
100
AcDbEntity
  8
0
100
AcDbLine
 62
253
  6
CONTINUOUS
 10
114.703783056
 20
106.8984784218
 11
109.4879181674
 21
108.4041689205
  0
LINE
  5
4EC
100
AcDbEntity
  8
0
100
AcDbLine
 62
253
  6
CONTINUOUS
 10
109.0530082592
 20
108.5297165968
 11
101.6936895334
 21
110.6541689205
  0
LINE
  5
4ED
100
AcDbEntity
  8
0
100
AcDbLine
 62
253
  6
CONTINUOUS
 10
101.2587796251
 20
110.7797165968
 11
96.0429147365
 21
112.2854070956
  0
LINE
  5
4EE
100
AcDbEntity
  8
0
100
AcDbLine
 62
253
  6
CONTINUOUS
 10
114.5239448249
 20
107.7375006726
 11
113.9706237914
 21
107.8972306965
  0
LINE
  5
4EF
100
AcDbEntity
  8
0
100
AcDbLine
 62
253
  6
CONTINUOUS
 10
111.844916027
 20
108.5108696714
 11
109.0342789898
 21
109.3222306965
  0
LINE
  5
4F0
100
AcDbEntity
  8
0
100
AcDbLine
 62
253
  6
CONTINUOUS
 10
108.5776428903
 20
109.4540501839
 11
102.1690549023
 21
111.3040501839
  0
LINE
  5
4F1
100
AcDbEntity
  8
0
100
AcDbLine
 62
253
  6
CONTINUOUS
 10
101.7124188027
 20
111.4358696714
 11
98.9017817655
 21
112.2472306965
  0
LINE
  5
4F2
100
AcDbEntity
  8
0
100
AcDbLine
 62
253
  6
CONTINUOUS
 10
96.7760740012
 20
112.8608696714
 11
96.2227529676
 21
113.0205996953
  0
LINE
  5
4F3
100
AcDbEntity
  8
0
100
AcDbLine
 62
253
  6
CONTINUOUS
 10
114.6187112293
 20
107.9925384955
 11
114.238357905
 21
108.1023370425
  0
LINE
  5
4F4
100
AcDbEntity
  8
0
100
AcDbLine
 62
253
  6
CONTINUOUS
 10
111.744916027
 20
108.8221317123
 11
109.3020131034
 21
109.5273370425
  0
LINE
  5
4F5
100
AcDbEntity
  8
0
100
AcDbLine
 62
253
  6
CONTINUOUS
 10
108.4776428903
 20
109.7653122248
 11
102.4367890159
 21
111.50915653
  0
LINE
  5
4F6
100
AcDbEntity
  8
0
100
AcDbLine
 62
253
  6
CONTINUOUS
 10
101.6124188027
 20
111.7471317123
 11
99.1695158791
 21
112.4523370425
  0
LINE
  5
4F7
100
AcDbEntity
  8
0
100
AcDbLine
 62
253
  6
CONTINUOUS
 10
96.6760740012
 20
113.1721317123
 11
96.317519372
 21
113.2756375181
  0
LINE
  5
4F8
100
AcDbEntity
  8
DRAFT
100
AcDbLine
 62
7
  6
CONTINUOUS
 10
116.2211143486
 20
107.6439680282
 11
116.2589085516
 21
107.6330577816
  0
LWPOLYLINE
  5
4F9
100
AcDbEntity
  8
0
100
AcDbPolyline
 62
7
  6
CONTINUOUS
 90
14
 70
0
 10
101.8820614309
 20
110.5071540691
 10
101.8757766401
 20
110.5090452119
 10
101.8592902137
 20
110.5152042344
 10
101.8428449928
 20
110.5230431221
 10
101.8264151007
 20
110.5321397481
 10
101.8101086792
 20
110.5424272907
 10
101.794074076
 20
110.5539000356
 10
101.7783089466
 20
110.5662569683
 10
101.7628783328
 20
110.5794644889
 10
101.7478990924
 20
110.5934876688
 10
101.7334306101
 20
110.6080343282
 10
101.7195339363
 20
110.6229813577
 10
101.7062711526
 20
110.6383731671
 10
101.6936895334
 20
110.6541689205
  0
LWPOLYLINE
  5
4FA
100
AcDbEntity
  8
0
100
AcDbPolyline
 62
7
  6
CONTINUOUS
 90
14
 70
0
 10
109.676290065
 20
108.2571540691
 10
109.6700052742
 20
108.2590452119
 10
109.6535188477
 20
108.2652042344
 10
109.6370736269
 20
108.2730431221
 10
109.6206437347
 20
108.2821397481
 10
109.6043373132
 20
108.2924272907
 10
109.58830271
 20
108.3039000356
 10
109.5725375806
 20
108.3162569683
 10
109.5571069669
 20
108.3294644889
 10
109.5421277264
 20
108.3434876688
 10
109.5276592441
 20
108.3580343282
 10
109.5137625704
 20
108.3729813577
 10
109.5004997867
 20
108.3883731671
 10
109.4879181674
 20
108.4041689205
  0
LWPOLYLINE
  5
4FB
100
AcDbEntity
  8
0
100
AcDbPolyline
 62
253
  6
CONTINUOUS
 90
10
 70
0
 10
95.9632123437
 20
112.8357148765
 10
95.9418065132
 20
112.8428494606
 10
95.922409399
 20
112.8512988793
 10
95.9053419355
 20
112.860923333
 10
95.8908865119
 20
112.8715635806
 10
95.8792822999
 20
112.8830435742
 10
95.8707212966
 20
112.895173372
 10
95.8653451479
 20
112.9077522807
 10
95.8632428047
 20
112.9205721765
 10
95.8632123437
 20
112.9223174175
  0
LWPOLYLINE
  5
4FC
100
AcDbEntity
  8
0
100
AcDbPolyline
 62
253
  6
CONTINUOUS
 90
9
 70
0
 10
96.2911905308
 20
113.881771415
 10
96.2696382454
 20
113.8889619885
 10
96.2501253821
 20
113.8974856209
 10
96.2329796553
 20
113.9071993715
 10
96.2184889357
 20
113.9179404372
 10
96.2068969634
 20
113.929528489
 10
96.1983988803
 20
113.9417686011
 10
96.1931347899
 20
113.9544642152
 10
96.1911905312
 20
113.9683805209
  0
LWPOLYLINE
  5
4FD
100
AcDbEntity
  8
0
100
AcDbPolyline
 62
7
  6
CONTINUOUS
 90
13
 70
0
 10
96.3357308705
 20
113.7762171819
 10
96.31647582
 20
113.782854297
 10
96.2972915796
 20
113.7917871985
 10
96.2790729172
 20
113.8027549929
 10
96.2621037036
 20
113.8156108246
 10
96.2465705758
 20
113.8302252362
 10
96.2325955516
 20
113.8465230933
 10
96.2203717284
 20
113.8643502321
 10
96.210097506
 20
113.8834898369
 10
96.2019117114
 20
113.9037711031
 10
96.1959599151
 20
113.9249572936
 10
96.1923597827
 20
113.9467797689
 10
96.1911905312
 20
113.9683805209
  0
LWPOLYLINE
  5
4FE
100
AcDbEntity
  8
0
100
AcDbPolyline
 62
7
  6
CONTINUOUS
 90
12
 70
0
 10
96.2309775047
 20
112.1384233465
 10
96.2126985035
 20
112.1447955215
 10
96.1941702552
 20
112.1531973796
 10
96.1757824229
 20
112.1633245468
 10
96.1574671466
 20
112.1749798651
 10
96.1395365558
 20
112.1879673522
 10
96.121998757
 20
112.2021529069
 10
96.1048323455
 20
112.2173671192
 10
96.0883274218
 20
112.2334325013
 10
96.0725727201
 20
112.2502088976
 10
96.0574441229
 20
112.2675759449
 10
96.0429147365
 20
112.2854070956
  0
LWPOLYLINE
  5
4FF
100
AcDbEntity
  8
0
100
AcDbPolyline
 62
253
  6
CONTINUOUS
 90
10
 70
0
 10
96.3357308705
 20
113.7762171819
 10
96.3316148782
 20
113.7776676525
 10
96.3227786002
 20
113.7827968747
 10
96.3148115938
 20
113.7904299399
 10
96.3078245095
 20
113.8005195608
 10
96.3019421922
 20
113.8129532332
 10
96.297282421
 20
113.8275173161
 10
96.2939137049
 20
113.8439842995
 10
96.2918737006
 20
113.8621516324
 10
96.2911905308
 20
113.881771415
  0
LINE
  5
500
100
AcDbEntity
  8
0
100
AcDbLine
 62
7
  6
CONTINUOUS
 10
101.1292338016
 20
113.4741804278
 11
100.8620967178
 21
113.6077489697
  0
LWPOLYLINE
  5
501
100
AcDbEntity
  8
0
100
AcDbPolyline
 62
253
  6
CONTINUOUS
 90
3
 70
0
 10
100.1281634405
 20
115.2493831309
 10
100.1486646588
 20
115.2334683862
 10
100.1676274286
 20
115.215358376
  0
LWPOLYLINE
  5
502
100
AcDbEntity
  8
0
100
AcDbPolyline
 62
253
  6
CONTINUOUS
 90
3
 70
0
 10
105.5408222141
 20
113.253870429
 10
105.5613234324
 20
113.2379556843
 10
105.5802862022
 20
113.2198456741
  0
LINE
  5
503
100
AcDbEntity
  8
0
100
AcDbLine
 62
253
  6
CONTINUOUS
 10
105.5802862022
 20
113.2198456741
 11
105.5973751955
 21
113.1998595498
  0
LWPOLYLINE
  5
504
100
AcDbEntity
  8
0
100
AcDbPolyline
 62
7
  6
CONTINUOUS
 90
12
 70
0
 10
111.844916027
 20
108.5108696714
 10
111.8273254339
 20
108.5349947434
 10
111.8112105083
 20
108.5591887742
 10
111.7966966442
 20
108.5833521641
 10
111.7839400344
 20
108.607419107
 10
111.7729417292
 20
108.6312439281
 10
111.7636282317
 20
108.6546289366
 10
111.7560749983
 20
108.6775855241
 10
111.7504137759
 20
108.6999299529
 10
111.7467100796
 20
108.7211888226
 10
111.7450206733
 20
108.741274314
 10
111.7449160273
 20
108.7474065342
  0
LINE
  5
505
100
AcDbEntity
  8
0
100
AcDbLine
 62
7
  6
CONTINUOUS
 10
109.7213148149
 20
112.0706500166
 11
109.7293881309
 21
112.0574306661
  0
LWPOLYLINE
  5
506
100
AcDbEntity
  8
0
100
AcDbPolyline
 62
253
  6
CONTINUOUS
 90
6
 70
0
 10
106.8709875946
 20
116.6329426934
 10
106.8580783089
 20
116.6545517026
 10
106.8427155709
 20
116.6740545874
 10
106.8251622474
 20
116.691117542
 10
106.805718681
 20
116.7054485536
 10
106.7847175316
 20
116.7168023786
  0
LWPOLYLINE
  5
507
100
AcDbEntity
  8
0
100
AcDbPolyline
 62
7
  6
CONTINUOUS
 90
7
 70
0
 10
113.7072713672
 20
114.6071136686
 10
113.700148558
 20
114.631507294
 10
113.6900085896
 20
114.6552476355
 10
113.6768338894
 20
114.6779614389
 10
113.6609277419
 20
114.6989404184
 10
113.642477086
 20
114.7178977168
 10
113.621788225
 20
114.7345010431
  0
LWPOLYLINE
  5
508
100
AcDbEntity
  8
0
100
AcDbPolyline
 62
7
  6
CONTINUOUS
 90
12
 70
0
 10
114.2002893881
 20
120.580618818
 10
114.1951134028
 20
120.6241767175
 10
114.1867164121
 20
120.6645069761
 10
114.1751807727
 20
120.7018450609
 10
114.160562152
 20
120.7362655316
 10
114.143055417
 20
120.7675418009
 10
114.1229540255
 20
120.7954674818
 10
114.1003846817
 20
120.8201324002
 10
114.0755129573
 20
120.841497053
 10
114.0486630829
 20
120.8593827889
 10
114.0202632982
 20
120.8736234306
 10
113.9907426532
 20
120.8841398401
  0
LINE
  5
509
100
AcDbEntity
  8
0
100
AcDbLine
 62
7
  6
CONTINUOUS
 10
120.4054331031
 20
92.6466400849
 11
120.4054331031
 21
94.8134698711
  0
LINE
  5
50A
100
AcDbEntity
  8
SMUSSO
100
AcDbLine
 62
7
  6
CONTINUOUS
 10
120.7989024464
 20
92.4543987608
 11
120.7989024464
 21
95.1974617456
  0
LINE
  5
50B
100
AcDbEntity
  8
SMUSSO
100
AcDbLine
 62
7
  6
CONTINUOUS
 10
120.9483431839
 20
92.4112589358
 11
120.9483431839
 21
95.3433029144
  0
LINE
  5
50C
100
AcDbEntity
  8
0
100
AcDbLine
 62
7
  6
CONTINUOUS
 10
121.493477682
 20
78.2737961059
 11
121.493477682
 21
92.2538921612
  0
LINE
  5
50D
100
AcDbEntity
  8
0
100
AcDbLine
 62
7
  6
CONTINUOUS
 10
121.493477682
 20
95.8753067958
 11
121.493477682
 21
109.855402851
  0
LWPOLYLINE
  5
50E
100
AcDbEntity
  8
RACCORDO
100
AcDbPolyline
 62
253
  6
CONTINUOUS
 90
3
 70
0
 10
123.1469031379
 20
121.9936071569
 10
123.1443999645
 20
121.9640130437
 10
123.1355188381
 20
121.9336279702
  0
LINE
  5
50F
100
AcDbEntity
  8
RACCORDO
100
AcDbLine
 62
253
  6
CONTINUOUS
 10
123.1470285984
 20
121.9788999484
 11
123.1444955598
 21
121.9513690497
  0
LWPOLYLINE
  5
510
100
AcDbEntity
  8
RACCORDO
100
AcDbPolyline
 62
253
  6
CONTINUOUS
 90
6
 70
0
 10
123.1470285918
 20
120.3101936131
 10
123.1444960632
 20
120.2827033662
 10
123.1356025195
 20
120.2519690371
 10
123.120402547
 20
120.2218590837
 10
123.0990589637
 20
120.1926960407
 10
123.0718004229
 20
120.1647923843
  0
LWPOLYLINE
  5
511
100
AcDbEntity
  8
SMUSSO
100
AcDbPolyline
 62
7
  6
CONTINUOUS
 90
7
 70
0
 10
120.7989100618
 20
94.6739777503
 10
120.7922793934
 20
94.6160938992
 10
120.7883009923
 20
94.557639088
 10
120.7869748586
 20
94.4986133166
 10
120.7883009923
 20
94.439016585
 10
120.7922793934
 20
94.3788488933
 10
120.7989100618
 20
94.3181102414
  0
LINE
  5
512
100
AcDbEntity
  8
0
100
AcDbLine
 62
253
  6
CONTINUOUS
 10
115.3078958411
 20
69.0765526334
 11
115.3031059977
 21
69.0511711379
  0
LWPOLYLINE
  5
513
100
AcDbEntity
  8
SMUSSO
100
AcDbPolyline
 62
7
  6
CONTINUOUS
 90
8
 70
0
 10
120.6675052815
 20
95.069229535
 10
120.656841338
 20
95.0151681235
 10
120.6431409963
 20
94.8958722344
 10
120.6385659235
 20
94.7732674996
 10
120.6431410038
 20
94.6480215023
 10
120.6568413047
 20
94.5208160555
 10
120.679592241
 20
94.3923436036
 10
120.7112699515
 20
94.2633035969
  0
LWPOLYLINE
  5
514
100
AcDbEntity
  8
0
100
AcDbPolyline
 62
253
  6
CONTINUOUS
 90
5
 70
0
 10
112.9441786205
 20
72.2194084718
 10
112.9555820047
 20
72.2586748804
 10
112.9645047497
 20
72.3033677067
 10
112.9698881273
 20
72.3497976315
 10
112.9717321374
 20
72.3979646547
  0
LWPOLYLINE
  5
515
100
AcDbEntity
  8
0
100
AcDbPolyline
 62
253
  6
CONTINUOUS
 90
13
 70
0
 10
113.2464133409
 20
77.5549174817
 10
113.1732759855
 20
77.3330584005
 10
113.1120574013
 20
77.1044853858
 10
113.0629028442
 20
76.8697407974
 10
113.0259289458
 20
76.6293816463
 10
113.0012234325
 20
76.3839782508
 10
112.9888449214
 20
76.1341128818
 10
112.9888227834
 20
75.8803784539
 10
113.0011570685
 20
75.6233769944
 10
113.0258185248
 20
75.363718187
 10
113.062748661
 20
75.1020181037
 10
113.1118598639
 20
74.8388977471
 10
113.1730356202
 20
74.5749814491
  0
LWPOLYLINE
  5
516
100
AcDbEntity
  8
0
100
AcDbPolyline
 62
7
  6
CONTINUOUS
 90
25
 70
0
 10
113.6863813343
 20
77.9187207246
 10
113.6483358643
 20
77.8087914125
 10
113.6132813491
 20
77.6972331972
 10
113.5812177888
 20
77.5840460788
 10
113.5521275504
 20
77.469154971
 10
113.5260282668
 20
77.3526349601
 10
113.5029728371
 20
77.2347113046
 10
113.4829688222
 20
77.1153876074
 10
113.4660086612
 20
76.9946602656
 10
113.4521225699
 20
76.8727437292
 10
113.4413159837
 20
76.749635409
 10
113.4335834672
 20
76.6253378943
 10
113.4289389303
 20
76.5000734025
 10
113.4273880695
 20
76.3738391843
 10
113.4289251884
 20
76.2466379891
 10
113.4335471078
 20
76.1187002819
 10
113.441259371
 20
75.9900263611
 10
113.4520564347
 20
75.8606159285
 10
113.4659184905
 20
75.7306985545
 10
113.4828528718
 20
75.6002655868
 10
113.5028522451
 20
75.4693256778
 10
113.5258748022
 20
75.338134356
 10
113.5519066069
 20
75.2067767976
 10
113.5809615953
 20
75.0751678265
 10
113.6130397675
 20
74.9433074426
  0
LINE
  5
517
100
AcDbEntity
  8
0
100
AcDbLine
 62
7
  6
CONTINUOUS
 10
118.2909662973
 20
92.7499340803
 11
117.5927519223
 21
90.7928682435
  0
LINE
  5
518
100
AcDbEntity
  8
0
100
AcDbLine
 62
7
  6
CONTINUOUS
 10
114.5532181764
 20
84.6427372144
 11
114.3782181764
 21
84.4858919834
  0
LINE
  5
519
100
AcDbEntity
  8
0
100
AcDbLine
 62
7
  6
CONTINUOUS
 10
114.523795313
 20
85.5399310617
 11
113.4935622537
 21
84.6524001311
  0
LINE
  5
51A
100
AcDbEntity
  8
0
100
AcDbLine
 62
7
  6
CONTINUOUS
 10
114.5532181764
 20
83.8220613996
 11
114.3782181764
 21
83.6757977393
  0
LINE
  5
51B
100
AcDbEntity
  8
0
100
AcDbLine
 62
253
  6
CONTINUOUS
 10
114.523795313
 20
86.059546304
 11
113.3110239625
 21
85.0503510663
  0
LWPOLYLINE
  5
51C
100
AcDbEntity
  8
0
100
AcDbPolyline
 62
253
  6
CONTINUOUS
 90
13
 70
0
 10
113.3110239625
 20
85.0503510663
 10
113.2926103223
 20
85.0370588605
 10
113.2709191132
 20
85.0250663156
 10
113.2463132875
 20
85.0145740991
 10
113.2192045669
 20
85.005757774
 10
113.1900465532
 20
84.9987648611
 10
113.1593271384
 20
84.9937123706
 10
113.1275603408
 20
84.9906848444
 10
113.0952777045
 20
84.9897329411
 10
113.0630194048
 20
84.9908725885
 10
113.0313252098
 20
84.9940847174
 10
113.0007254485
 20
84.9993155801
 10
112.9717321374
 20
85.0064776502
  0
LWPOLYLINE
  5
51D
100
AcDbEntity
  8
0
100
AcDbPolyline
 62
7
  6
CONTINUOUS
 90
5
 70
0
 10
107.075962994
 20
112.348462026
 10
107.096278825
 20
112.3526139856
 10
107.1177268362
 20
112.353699646
 10
107.1399438495
 20
112.35170358
 10
107.1625530008
 20
112.3466626848
  0
LWPOLYLINE
  5
51E
100
AcDbEntity
  8
0
100
AcDbPolyline
 62
253
  6
CONTINUOUS
 90
3
 70
0
 10
113.5138375743
 20
114.7704728269
 10
113.4915345813
 20
114.7666564076
 10
113.4685603141
 20
114.7589671994
  0
LWPOLYLINE
  5
51F
100
AcDbEntity
  8
0
100
AcDbPolyline
 62
7
  6
CONTINUOUS
 90
4
 70
0
 10
113.086709453
 20
114.880066508
 10
113.0601624076
 20
114.8759952717
 10
113.0333849665
 20
114.8693573937
 10
113.0065998995
 20
114.8601086503
  0
LWPOLYLINE
  5
520
100
AcDbEntity
  8
0
100
AcDbPolyline
 62
253
  6
CONTINUOUS
 90
3
 70
0
 10
98.4592234227
 20
113.1653540908
 10
98.4826622653
 20
113.1638518103
 10
98.5059611938
 20
113.1657661557
  0
LINE
  5
521
100
AcDbEntity
  8
0
100
AcDbLine
 62
7
  6
CONTINUOUS
 10
98.9240203515
 20
113.1009730165
 11
98.4592243462
 21
113.1653539629
  0
LINE
  5
522
100
AcDbEntity
  8
0
100
AcDbLine
 62
253
  6
CONTINUOUS
 10
99.1732152257
 20
113.240607641
 11
98.658098696
 21
113.3119587053
  0
LWPOLYLINE
  5
523
100
AcDbEntity
  8
0
100
AcDbPolyline
 62
7
  6
CONTINUOUS
 90
3
 70
0
 10
98.4591188489
 20
113.1653686117
 10
98.4405126502
 20
113.1688606642
 10
98.4313350872
 20
113.1712686448
  0
LWPOLYLINE
  5
524
100
AcDbEntity
  8
0
100
AcDbPolyline
 62
253
  6
CONTINUOUS
 90
8
 70
0
 10
111.458287316
 20
110.1748620735
 10
111.4353795378
 20
110.1797280215
 10
111.412890607
 20
110.1815493572
 10
111.3912091466
 20
110.1802920247
 10
111.3707079282
 20
110.1759743804
 10
111.3517451584
 20
110.1686684127
 10
111.3346561652
 20
110.1585022448
 10
111.3236514867
 20
110.1494828541
  0
LWPOLYLINE
  5
525
100
AcDbEntity
  8
0
100
AcDbPolyline
 62
253
  6
CONTINUOUS
 90
8
 70
0
 10
101.8106735621
 20
113.1193423694
 10
101.7877657839
 20
113.1242083174
 10
101.7652768531
 20
113.1260296531
 10
101.7435953927
 20
113.1247723206
 10
101.7230941743
 20
113.1204546763
 10
101.7041314045
 20
113.1131487085
 10
101.6870424113
 20
113.1029825407
 10
101.6760377327
 20
113.09396315
  0
LWPOLYLINE
  5
526
100
AcDbEntity
  8
0
100
AcDbPolyline
 62
253
  6
CONTINUOUS
 90
8
 70
0
 10
107.0153954831
 20
112.2093353671
 10
106.9924877048
 20
112.2142013151
 10
106.969998774
 20
112.2160226509
 10
106.9483173136
 20
112.2147653184
 10
106.9278160953
 20
112.2104476741
 10
106.9088533255
 20
112.2031417063
 10
106.8917643323
 20
112.1929755385
 10
106.8807596537
 20
112.1839561478
  0
LWPOLYLINE
  5
527
100
AcDbEntity
  8
0
100
AcDbPolyline
 62
253
  6
CONTINUOUS
 90
8
 70
0
 10
96.3894452902
 20
114.5248620735
 10
96.3665375119
 20
114.5297280215
 10
96.3440485811
 20
114.5315493572
 10
96.3223671207
 20
114.5302920247
 10
96.3018659024
 20
114.5259743804
 10
96.2829031326
 20
114.5186684127
 10
96.2658141394
 20
114.5085022448
 10
96.2548094608
 20
114.4994828541
  0
LWPOLYLINE
  5
528
100
AcDbEntity
  8
0
100
AcDbPolyline
 62
253
  6
CONTINUOUS
 90
6
 70
0
 10
115.1836093416
 20
110.9489179673
 10
115.1786913902
 20
110.9499814355
 10
115.167120114
 20
110.9500084303
 10
115.1550080014
 20
110.9468403671
 10
115.1425406446
 20
110.9405970817
 10
115.1299272969
 20
110.9314419974
  0
LWPOLYLINE
  5
529
100
AcDbEntity
  8
0
100
AcDbPolyline
 62
253
  6
CONTINUOUS
 90
8
 70
0
 10
108.6758976496
 20
111.1375228819
 10
108.6532121473
 20
111.1425952022
 10
108.6309401937
 20
111.1446186594
 10
108.6094669559
 20
111.1435550056
 10
108.5891615294
 20
111.1394184385
 10
108.570379855
 20
111.1322771455
 10
108.5534560029
 20
111.1222567082
 10
108.5442385185
 20
111.114863201
  0
LWPOLYLINE
  5
52A
100
AcDbEntity
  8
0
100
AcDbPolyline
 62
253
  6
CONTINUOUS
 90
6
 70
0
 10
105.5274674569
 20
113.3033933511
 10
105.5232111203
 20
113.3043582655
 10
105.5116337126
 20
113.3045835748
 10
105.4993913187
 20
113.3015419477
 10
105.4866898469
 20
113.2952877593
 10
105.4737440447
 20
113.2859292955
  0
LINE
  5
52B
100
AcDbEntity
  8
0
100
AcDbLine
 62
7
  6
CONTINUOUS
 10
107.6098555961
 20
112.7011276697
 11
107.6301620938
 21
112.6963976931
  0
LINE
  5
52C
100
AcDbEntity
  8
0
100
AcDbLine
 62
7
  6
CONTINUOUS
 10
113.0225143698
 20
111.5716403716
 11
113.0428208674
 21
111.566910395
  0
LWPOLYLINE
  5
52D
100
AcDbEntity
  8
0
100
AcDbPolyline
 62
253
  6
CONTINUOUS
 90
12
 70
0
 10
96.317519372
 20
113.2756375181
 10
96.2796093822
 20
113.2846789316
 10
96.2420277319
 20
113.2903922347
 10
96.2050616523
 20
113.2927360613
 10
96.1689938589
 20
113.2916945503
 10
96.1340984065
 20
113.2872763585
 10
96.10063872
 20
113.2795143088
 10
96.0688675779
 20
113.2684658552
 10
96.0390269928
 20
113.2542156498
 10
96.0113447065
 20
113.2368732479
 10
95.9860281881
 20
113.2165669148
 10
95.9747694405
 20
113.2058069464
  0
LWPOLYLINE
  5
52E
100
AcDbEntity
  8
0
100
AcDbPolyline
 62
253
  6
CONTINUOUS
 90
13
 70
0
 10
102.1690549023
 20
112.7292530634
 10
102.1926180377
 20
112.7234469926
 10
102.2175090054
 20
112.7192338923
 10
102.2432992805
 20
112.7166882605
 10
102.2695479915
 20
112.7158559077
 10
102.2957975863
 20
112.7167535997
 10
102.3215820189
 20
112.719366094
 10
102.3465063415
 20
112.7236584312
 10
102.3700830131
 20
112.7295518947
 10
102.3917624795
 20
112.7368890753
 10
102.4111710178
 20
112.7454940203
 10
102.4280795978
 20
112.7552108468
 10
102.442259983
 20
112.7658556038
  0
LWPOLYLINE
  5
52F
100
AcDbEntity
  8
0
100
AcDbPolyline
 62
253
  6
CONTINUOUS
 90
13
 70
0
 10
109.0342789898
 20
110.7474335759
 10
109.0575701192
 20
110.7416838706
 10
109.0821639658
 20
110.7374907588
 10
109.1076465348
 20
110.7349266915
 10
109.1335918873
 20
110.7340367065
 10
109.1595579046
 20
110.7348381117
 10
109.1850939903
 20
110.7373176645
 10
109.2098178776
 20
110.7414430868
 10
109.233256851
 20
110.7471405137
 10
109.2548761412
 20
110.7542609211
 10
109.2743095878
 20
110.7626368313
 10
109.2913307069
 20
110.772119321
 10
109.30571245
 20
110.7825323088
  0
LWPOLYLINE
  5
530
100
AcDbEntity
  8
0
100
AcDbPolyline
 62
253
  6
CONTINUOUS
 90
13
 70
0
 10
98.3866652359
 20
113.6616808125
 10
98.4099563653
 20
113.6559311072
 10
98.4345502119
 20
113.6517379953
 10
98.4600327808
 20
113.6491739281
 10
98.4859781333
 20
113.648283943
 10
98.5119441506
 20
113.6490853483
 10
98.5374802364
 20
113.651564901
 10
98.5622041237
 20
113.6556903234
 10
98.5856430971
 20
113.6613877503
 10
98.6072623872
 20
113.6685081577
 10
98.6266958339
 20
113.6768840678
 10
98.643716953
 20
113.6863665576
 10
98.658098696
 20
113.6967795454
  0
LWPOLYLINE
  5
531
100
AcDbEntity
  8
0
100
AcDbPolyline
 62
253
  6
CONTINUOUS
 90
13
 70
0
 10
104.8295570689
 20
112.5536990413
 10
104.8528481982
 20
112.5479493359
 10
104.8774420448
 20
112.5437562241
 10
104.9029246138
 20
112.5411921568
 10
104.9288699663
 20
112.5403021718
 10
104.9548359836
 20
112.541103577
 10
104.9803720693
 20
112.5435831298
 10
105.0050959566
 20
112.5477085522
 10
105.02853493
 20
112.5534059791
 10
105.0501542202
 20
112.5605263864
 10
105.0695876668
 20
112.5689022966
 10
105.0866087859
 20
112.5783847863
 10
105.100990529
 20
112.5887977741
  0
LWPOLYLINE
  5
532
100
AcDbEntity
  8
0
100
AcDbPolyline
 62
253
  6
CONTINUOUS
 90
13
 70
0
 10
113.4555072617
 20
109.3116808125
 10
113.4781849045
 20
109.3060590976
 10
113.5022678291
 20
109.3018914928
 10
113.5273865041
 20
109.2992767584
 10
113.5531979389
 20
109.2982900193
 10
113.5792199043
 20
109.2989887023
 10
113.6048414883
 20
109.3013734281
 10
113.6295775853
 20
109.3053941889
 10
113.6530628721
 20
109.3109865848
 10
113.6748919183
 20
109.3180535209
 10
113.6946949093
 20
109.3264731886
 10
113.7121419898
 20
109.3361030466
 10
113.7269407219
 20
109.3467795454
  0
LINE
  5
533
100
AcDbEntity
  8
0
100
AcDbLine
 62
253
  6
CONTINUOUS
 10
107.6301262739
 20
112.6964080067
 11
107.6301620938
 21
112.6963976931
  0
LINE
  5
534
100
AcDbEntity
  8
0
100
AcDbLine
 62
253
  6
CONTINUOUS
 10
113.0427850476
 20
111.5669207086
 11
113.0428208674
 21
111.566910395
  0
LINE
  5
535
100
AcDbEntity
  8
0
100
AcDbLine
 62
253
  6
CONTINUOUS
 10
97.9739430217
 20
115.9169207086
 11
97.9739788416
 21
115.916910395
  0
LINE
  5
536
100
AcDbEntity
  8
0
100
AcDbLine
 62
7
  6
CONTINUOUS
 10
108.4776428903
 20
110.2700199192
 11
106.9171407237
 21
110.7204980922
  0
LINE
  5
537
100
AcDbEntity
  8
0
100
AcDbLine
 62
7
  6
CONTINUOUS
 10
104.8295570689
 20
111.3231315847
 11
102.842259983
 21
111.8968148385
  0
LINE
  5
538
100
AcDbEntity
  8
0
100
AcDbLine
 62
7
  6
CONTINUOUS
 10
113.5000372421
 20
108.8213087283
 11
111.404562537
 21
109.4262201708
  0
LINE
  5
539
100
AcDbEntity
  8
0
100
AcDbLine
 62
7
  6
CONTINUOUS
 10
98.4311952163
 20
113.1713087283
 11
96.3357205112
 21
113.7762201708
  0
LINE
  5
53A
100
AcDbEntity
  8
0
100
AcDbLine
 62
253
  6
CONTINUOUS
 10
113.4555072617
 20
108.9268599724
 11
111.3600325567
 21
109.531771415
  0
LINE
  5
53B
100
AcDbEntity
  8
0
100
AcDbLine
 62
253
  6
CONTINUOUS
 10
98.3866652359
 20
113.2768599724
 11
96.2911905308
 21
113.881771415
  0
LINE
  5
53C
100
AcDbEntity
  8
0
100
AcDbLine
 62
7
  6
CONTINUOUS
 10
115.3036631718
 20
108.6108859644
 11
114.9135067447
 21
108.7235144235
  0
LINE
  5
53D
100
AcDbEntity
  8
0
100
AcDbLine
 62
7
  6
CONTINUOUS
 10
99.8446647188
 20
113.0735144235
 11
101.6124188027
 21
112.5632077754
  0
LINE
  5
53E
100
AcDbEntity
  8
0
100
AcDbLine
 62
7
  6
CONTINUOUS
 10
105.2573234925
 20
111.5110144235
 11
106.8171407237
 21
111.0607339744
  0
LINE
  5
53F
100
AcDbEntity
  8
0
100
AcDbLine
 62
7
  6
CONTINUOUS
 10
109.9771619431
 20
110.1485144235
 11
111.2600325567
 21
109.7781815765
  0
LINE
  5
540
100
AcDbEntity
  8
0
100
AcDbLine
 62
253
  6
CONTINUOUS
 10
113.4555072617
 20
109.3116808125
 11
111.3600325567
 21
109.9165922551
  0
LINE
  5
541
100
AcDbEntity
  8
0
100
AcDbLine
 62
253
  6
CONTINUOUS
 10
98.3866652359
 20
113.6616808125
 11
96.2911905308
 21
114.2665922551
  0
LINE
  5
542
100
AcDbEntity
  8
0
100
AcDbLine
 62
253
  6
CONTINUOUS
 10
109.0342789898
 20
110.7474335759
 11
108.5776428903
 21
110.8792530634
  0
LINE
  5
543
100
AcDbEntity
  8
0
100
AcDbLine
 62
253
  6
CONTINUOUS
 10
102.1690549023
 20
112.7292530634
 11
101.7124188027
 21
112.8610725509
  0
LINE
  5
544
100
AcDbEntity
  8
0
100
AcDbLine
 62
253
  6
CONTINUOUS
 10
113.5537620211
 20
109.569950631
 11
111.458287316
 21
110.1748620735
  0
LINE
  5
545
100
AcDbEntity
  8
0
100
AcDbLine
 62
253
  6
CONTINUOUS
 10
98.4849199953
 20
113.919950631
 11
96.3894452902
 21
114.5248620735
  0
LINE
  5
546
100
AcDbEntity
  8
0
100
AcDbLine
 62
7
  6
CONTINUOUS
 10
115.7881675967
 20
109.0332553239
 11
114.9135067447
 21
109.2857481631
  0
LINE
  5
547
100
AcDbEntity
  8
0
100
AcDbLine
 62
7
  6
CONTINUOUS
 10
101.0914511151
 20
113.2758319323
 11
99.8446647188
 21
113.6357481631
  0
LINE
  5
548
100
AcDbEntity
  8
0
100
AcDbLine
 62
7
  6
CONTINUOUS
 10
105.6763634207
 20
111.9522817554
 11
106.8171407237
 21
111.6229677139
  0
LINE
  5
549
100
AcDbEntity
  8
0
100
AcDbLine
 62
253
  6
CONTINUOUS
 10
109.1325337492
 20
111.0057033944
 11
108.6758976496
 21
111.1375228819
  0
LINE
  5
54A
100
AcDbEntity
  8
0
100
AcDbLine
 62
253
  6
CONTINUOUS
 10
102.2673096616
 20
112.9875228819
 11
101.8106735621
 21
113.1193423694
  0
LINE
  5
54B
100
AcDbEntity
  8
0
100
AcDbLine
 62
7
  6
CONTINUOUS
 10
100.9168299051
 20
113.4156667633
 11
101.02105757
 21
113.3855788281
  0
LINE
  5
54C
100
AcDbEntity
  8
0
100
AcDbLine
 62
7
  6
CONTINUOUS
 10
100.4723852861
 20
113.7202489697
 11
100.8620967178
 21
113.6077489697
  0
LINE
  5
54D
100
AcDbEntity
  8
0
100
AcDbLine
 62
253
  6
CONTINUOUS
 10
108.8535382145
 20
111.3920757424
 11
106.9171407237
 21
111.9510655487
  0
LINE
  5
54E
100
AcDbEntity
  8
0
100
AcDbLine
 62
253
  6
CONTINUOUS
 10
104.8295570689
 20
112.5536990413
 11
102.842259983
 21
113.127382295
  0
LINE
  5
54F
100
AcDbEntity
  8
0
100
AcDbLine
 62
7
  6
CONTINUOUS
 10
100.4723852861
 20
113.943778186
 11
100.8620967178
 21
113.831278186
  0
LINE
  5
550
100
AcDbEntity
  8
0
100
AcDbLine
 62
253
  6
CONTINUOUS
 10
109.1758976496
 20
111.5856521134
 11
107.0153954831
 21
112.2093353671
  0
LINE
  5
551
100
AcDbEntity
  8
0
100
AcDbLine
 62
253
  6
CONTINUOUS
 10
104.9278118282
 20
112.8119688597
 11
102.7673096616
 21
113.4356521134
  0
LINE
  5
552
100
AcDbEntity
  8
0
100
AcDbLine
 62
7
  6
CONTINUOUS
 10
102.4427145502
 20
113.7091626848
 11
105.0841447917
 21
112.9466474543
  0
LINE
  5
553
100
AcDbEntity
  8
0
100
AcDbLine
 62
7
  6
CONTINUOUS
 10
107.1625530008
 20
112.3466626848
 11
109.8039832423
 21
111.5841474543
  0
LINE
  5
554
100
AcDbEntity
  8
0
100
AcDbLine
 62
7
  6
CONTINUOUS
 10
97.5063697487
 20
115.5671753867
 11
99.6714860181
 21
114.9421601562
  0
LINE
  5
555
100
AcDbEntity
  8
0
100
AcDbLine
 62
7
  6
CONTINUOUS
 10
112.5752117745
 20
111.2171753867
 11
114.7403280439
 21
110.5921601562
  0
LINE
  5
556
100
AcDbEntity
  8
0
100
AcDbLine
 62
253
  6
CONTINUOUS
 10
103.3208001429
 20
113.9074306661
 11
105.4737440447
 21
113.2859292955
  0
LINE
  5
557
100
AcDbEntity
  8
0
100
AcDbLine
 62
253
  6
CONTINUOUS
 10
107.5764442292
 20
112.6789320367
 11
109.7293881309
 21
112.0574306661
  0
LINE
  5
558
100
AcDbEntity
  8
0
100
AcDbLine
 62
7
  6
CONTINUOUS
 10
103.4673680047
 20
113.8980928378
 11
105.5274688236
 21
113.3033929566
  0
LINE
  5
559
100
AcDbEntity
  8
0
100
AcDbLine
 62
7
  6
CONTINUOUS
 10
107.6301690082
 20
112.6963956978
 11
109.6902731592
 21
112.1016948547
  0
LINE
  5
55A
100
AcDbEntity
  8
0
100
AcDbLine
 62
253
  6
CONTINUOUS
 10
115.1299272969
 20
110.9314419974
 11
112.9891030028
 21
111.5494447386
  0
LINE
  5
55B
100
AcDbEntity
  8
0
100
AcDbLine
 62
253
  6
CONTINUOUS
 10
100.061085271
 20
115.2814419974
 11
97.920260977
 21
115.8994447386
  0
LINE
  5
55C
100
AcDbEntity
  8
0
100
AcDbLine
 62
7
  6
CONTINUOUS
 10
100.11481005
 20
115.2989056585
 11
97.973985756
 21
115.9169083997
  0
LINE
  5
55D
100
AcDbEntity
  8
0
100
AcDbLine
 62
7
  6
CONTINUOUS
 10
115.1837213253
 20
110.9488855957
 11
113.0428277818
 21
111.5669083997
  0
LWPOLYLINE
  5
55E
100
AcDbEntity
  8
0
100
AcDbPolyline
 62
253
  6
CONTINUOUS
 90
9
 70
0
 10
111.3600325567
 20
109.531771415
 10
111.3384802713
 20
109.5389619885
 10
111.318967408
 20
109.5474856209
 10
111.3018216811
 20
109.5571993715
 10
111.2873309615
 20
109.5679404372
 10
111.2757389893
 20
109.579528489
 10
111.2672409062
 20
109.5917686011
 10
111.2619768157
 20
109.6044642152
 10
111.2600325571
 20
109.6183805209
  0
LWPOLYLINE
  5
55F
100
AcDbEntity
  8
0
100
AcDbPolyline
 62
253
  6
CONTINUOUS
 90
4
 70
0
 10
105.4737440447
 20
113.2859292955
 10
105.4966518229
 20
113.2780626852
 10
105.5191407537
 20
113.2673153704
 10
105.5408222141
 20
113.253870429
  0
LWPOLYLINE
  5
560
100
AcDbEntity
  8
0
100
AcDbPolyline
 62
253
  6
CONTINUOUS
 90
4
 70
0
 10
100.061085271
 20
115.2814419974
 10
100.0839930492
 20
115.2735753871
 10
100.1064819801
 20
115.2628280722
 10
100.1281634405
 20
115.2493831309
  0
LWPOLYLINE
  5
561
100
AcDbEntity
  8
0
100
AcDbPolyline
 62
7
  6
CONTINUOUS
 90
13
 70
0
 10
111.4045728963
 20
109.4262171819
 10
111.3853178459
 20
109.432854297
 10
111.3661336055
 20
109.4417871985
 10
111.3479149431
 20
109.4527549929
 10
111.3309457295
 20
109.4656108246
 10
111.3154126017
 20
109.4802252362
 10
111.3014375775
 20
109.4965230933
 10
111.2892137542
 20
109.5143502321
 10
111.2789395319
 20
109.5334898369
 10
111.2707537372
 20
109.5537711031
 10
111.264801941
 20
109.5749572936
 10
111.2612018086
 20
109.5967797689
 10
111.2600325571
 20
109.6183805209
  0
LWPOLYLINE
  5
562
100
AcDbEntity
  8
0
100
AcDbPolyline
 62
7
  6
CONTINUOUS
 90
6
 70
0
 10
109.6894780589
 20
112.1019242119
 10
109.692030168
 20
112.1010334413
 10
109.6991753196
 20
112.0969187109
 10
109.7064232484
 20
112.0904173348
 10
109.7136991161
 20
112.0816706386
 10
109.7213148149
 20
112.0706500166
  0
LWPOLYLINE
  5
563
100
AcDbEntity
  8
0
100
AcDbPolyline
 62
253
  6
CONTINUOUS
 90
10
 70
0
 10
111.4045728963
 20
109.4262171819
 10
111.400456904
 20
109.4276676525
 10
111.391620626
 20
109.4327968747
 10
111.3836536197
 20
109.4404299399
 10
111.3766665354
 20
109.4505195608
 10
111.370784218
 20
109.4629532332
 10
111.3661244468
 20
109.4775173161
 10
111.3627557308
 20
109.4939842995
 10
111.3607157264
 20
109.5121516324
 10
111.3600325567
 20
109.531771415
  0
LWPOLYLINE
  5
564
100
AcDbEntity
  8
0
100
AcDbPolyline
 62
7
  6
CONTINUOUS
 90
13
 70
0
 10
114.7403280439
 20
110.5921601562
 10
114.7629291024
 20
110.5841499879
 10
114.7851481614
 20
110.5733184649
 10
114.8066022198
 20
110.5598480437
 10
114.826921092
 20
110.5439658557
 10
114.845756276
 20
110.5259429008
 10
114.8627870768
 20
110.5060896106
 10
114.8777238715
 20
110.4847470554
 10
114.8903094688
 20
110.4622788308
 10
114.9003263388
 20
110.439068102
 10
114.9076039745
 20
110.4155127034
 10
114.912021566
 20
110.3920182374
 10
114.9135067447
 20
110.3689890707
  0
LWPOLYLINE
  5
565
100
AcDbEntity
  8
0
100
AcDbPolyline
 62
253
  6
CONTINUOUS
 90
6
 70
0
 10
115.2530870122
 20
110.8459816398
 10
115.2680018931
 20
110.8246216079
 10
115.2805253442
 20
110.8021007558
 10
115.2904431688
 20
110.7788042721
 10
115.2975857358
 20
110.755130612
 10
115.3018308812
 20
110.7314846813
  0
LINE
  5
566
100
AcDbEntity
  8
0
100
AcDbLine
 62
253
  6
CONTINUOUS
 10
113.654360182
 20
114.6558413073
 11
113.6440585738
 21
114.6790074252
  0
LWPOLYLINE
  5
567
100
AcDbEntity
  8
0
100
AcDbPolyline
 62
253
  6
CONTINUOUS
 90
5
 70
0
 10
115.3031059977
 20
110.3007752773
 10
115.307918418
 20
110.2873897906
 10
115.3096895255
 20
110.275051144
 10
115.3083893512
 20
110.2639681193
 10
115.3058229885
 20
110.2573666361
  0
LWPOLYLINE
  5
568
100
AcDbEntity
  8
0
100
AcDbPolyline
 62
7
  6
CONTINUOUS
 90
9
 70
0
 10
115.3214767064
 20
110.8081053374
 10
115.3132250697
 20
110.8326404875
 10
115.301830805
 20
110.8559794509
 10
115.2874265929
 20
110.8777526075
 10
115.2701950349
 20
110.8975791223
 10
115.2504085144
 20
110.9150575623
 10
115.2284079828
 20
110.9298263193
 10
115.2045702212
 20
110.9415891956
 10
115.1837213253
 20
110.9488855957
  0
LWPOLYLINE
  5
569
100
AcDbEntity
  8
SMUSSO
100
AcDbPolyline
 62
7
  6
CONTINUOUS
 90
3
 70
0
 10
120.7112699515
 20
94.2633035969
 10
120.751701977
 20
94.1343985653
 10
120.7989024464
 20
94.0109485341
  0
LINE
  5
56A
100
AcDbEntity
  8
RACCORDO
100
AcDbLine
 62
7
  6
CONTINUOUS
 10
123.1467743989
 20
121.9938702543
 11
123.14544863
 21
122.0268586463
  0
LWPOLYLINE
  5
56B
100
AcDbEntity
  8
DRAFT
100
AcDbPolyline
 62
7
  6
CONTINUOUS
 90
5
 70
0
 10
121.5295321485
 20
109.3582224853
 10
121.5256789847
 20
109.4734793453
 10
121.5145774519
 20
109.5893592867
 10
121.4962275502
 20
109.7058623096
 10
121.493477682
 20
109.7184286651
  0
LWPOLYLINE
  5
56C
100
AcDbEntity
  8
0
100
AcDbPolyline
 62
253
  6
CONTINUOUS
 90
10
 70
0
 10
122.6423280297
 20
117.3518537736
 10
122.6416875679
 20
117.3711166078
 10
122.6393966372
 20
117.3907011698
 10
122.6354726667
 20
117.4104584671
 10
122.629945509
 20
117.4302381927
 10
122.6228572128
 20
117.4498898695
 10
122.6142617026
 20
117.4692639952
 10
122.6042243695
 20
117.4882131785
 10
122.5928215743
 20
117.5065932603
 10
122.5801400656
 20
117.5242644112
  0
LWPOLYLINE
  5
56D
100
AcDbEntity
  8
0
100
AcDbPolyline
 62
7
  6
CONTINUOUS
 90
11
 70
0
 10
122.746037768
 20
117.6071101166
 10
122.7455429707
 20
117.6333649681
 10
122.7410739701
 20
117.6929674048
 10
122.7320283649
 20
117.7541803237
 10
122.7185227947
 20
117.8168604323
 10
122.7006812077
 20
117.8808509333
 10
122.6785420665
 20
117.9460396145
 10
122.6521449967
 20
118.0123111136
 10
122.6215598034
 20
118.0794535628
 10
122.5867803096
 20
118.1472840015
 10
122.5454839868
 20
118.2194764199
  0
LWPOLYLINE
  5
56E
100
AcDbEntity
  8
RACCORDO
100
AcDbPolyline
 62
7
  6
CONTINUOUS
 90
3
 70
0
 10
123.1470094843
 20
121.9846051295
 10
123.1469661715
 20
121.9892655374
 10
123.146898374
 20
121.9938725686
  0
LINE
  5
56F
100
AcDbEntity
  8
DRAFT
100
AcDbLine
 62
7
  6
CONTINUOUS
 10
121.5295321485
 20
78.7501604157
 11
121.5295321485
 21
109.3582224853
  0
LINE
  5
570
100
AcDbEntity
  8
0
100
AcDbLine
 62
253
  6
CONTINUOUS
 10
122.6423280297
 20
117.3518537736
 11
122.6423280297
 21
116.6296627149
  0
LINE
  5
571
100
AcDbEntity
  8
0
100
AcDbLine
 62
7
  6
CONTINUOUS
 10
122.7460434729
 20
117.6090438243
 11
122.7460434729
 21
116.8440490202
  0
LINE
  5
572
100
AcDbEntity
  8
RACCORDO
100
AcDbLine
 62
253
  6
CONTINUOUS
 10
123.0718004229
 20
120.1647924001
 11
123.0717720966
 21
121.8469392243
  0
LINE
  5
573
100
AcDbEntity
  8
RACCORDO
100
AcDbLine
 62
7
  6
CONTINUOUS
 10
123.1470094843
 20
121.9846051295
 11
123.1470285986
 21
120.3102386634
  0
LINE
  5
574
100
AcDbEntity
  8
RACCORDO
100
AcDbLine
 62
7
  6
CONTINUOUS
 10
123.1470285986
 20
120.3102388683
 11
123.1470285918
 21
120.3101936131
  0
LINE
  5
575
100
AcDbEntity
  8
RACCORDO
100
AcDbLine
 62
7
  6
CONTINUOUS
 10
124.3666795363
 20
119.0470169182
 11
124.36757264
 21
119.1291401467
  0
LWPOLYLINE
  5
576
100
AcDbEntity
  8
0
100
AcDbPolyline
 62
253
  6
CONTINUOUS
 90
9
 70
0
 10
122.7460429665
 20
117.6058465296
 10
122.745812308
 20
117.5915841399
 10
122.742252622
 20
117.5474739893
 10
122.7345999163
 20
117.5067449469
 10
122.7230899083
 20
117.4693450561
 10
122.7079007461
 20
117.4350805502
 10
122.6892166318
 20
117.4039599868
 10
122.6672816054
 20
117.3761883867
 10
122.6423280297
 20
117.3518537736
  0
LWPOLYLINE
  5
577
100
AcDbEntity
  8
RACCORDO
100
AcDbPolyline
 62
253
  6
CONTINUOUS
 90
18
 70
0
 10
124.329958727
 20
119.0563577193
 10
124.3279241963
 20
118.9379662949
 10
124.3220439391
 20
118.8174175514
 10
124.3123179556
 20
118.6947114888
 10
124.2986820855
 20
118.5693989482
 10
124.281200489
 20
118.4419290885
 10
124.2600656465
 20
118.313649386
 10
124.235236638
 20
118.1845335344
 10
124.2067543835
 20
118.0546078399
 10
124.1749341223
 20
117.9252986974
 10
124.1397413774
 20
117.7966200687
 10
124.1012106259
 20
117.6685579919
 10
124.059760539
 20
117.542496977
 10
124.0153578133
 20
117.4184538377
 10
123.9680357523
 20
117.2964117602
 10
123.9183129377
 20
117.1777048127
 10
123.8661744455
 20
117.0623870766
 10
123.8645693155
 20
117.0590913463
  0
LWPOLYLINE
  5
578
100
AcDbEntity
  8
RACCORDO
100
AcDbPolyline
 62
7
  6
CONTINUOUS
 90
76
 70
0
 10
131.6978610645
 20
100.9771080398
 10
131.7413889858
 20
101.0359939494
 10
131.7837192354
 20
101.0936954531
 10
131.8248518134
 20
101.150212551
 10
131.8647575846
 20
101.2055071803
 10
131.9034656841
 20
101.2596174038
 10
131.9410635168
 20
101.3126574091
 10
131.9775561809
 20
101.3646309338
 10
132.0129385782
 20
101.4155342403
 10
132.0472828194
 20
101.465470303
 10
132.0805963057
 20
101.5144458755
 10
132.112871636
 20
101.5624542042
 10
132.1441587169
 20
101.6095780026
 10
132.1744604392
 20
101.6558163041
 10
132.2037739123
 20
101.7011700753
 10
132.2321403707
 20
101.7457249294
 10
132.2595636875
 20
101.7894786467
 10
132.2860399897
 20
101.8324334469
 10
132.3115988924
 20
101.8746816024
 10
132.3362489229
 20
101.9162239707
 10
132.3599815539
 20
101.9570596942
 10
132.3828008186
 20
101.9972784722
 10
132.4047202406
 20
102.0368821579
 10
132.4257262963
 20
102.0758688981
 10
132.4457824481
 20
102.1143228331
 10
132.4649133438
 20
102.1522528692
 10
132.4830943356
 20
102.1896501
 10
132.5002149427
 20
102.2265719465
 10
132.5163270089
 20
102.2630751996
 10
132.5313786904
 20
102.2991030685
 10
132.5451039743
 20
102.334542602
 10
132.5575588189
 20
102.369536222
 10
132.5686872659
 20
102.4039415066
 10
132.5780554281
 20
102.4372182387
 10
132.5856101699
 20
102.4694080728
 10
132.591404627
 20
102.5004693543
 10
132.5951643179
 20
102.5297369025
 10
132.596773738
 20
102.557058622
 10
132.5963483919
 20
102.5825866083
 10
132.5939603129
 20
102.6061119667
 10
132.5895332533
 20
102.6275496661
 10
132.5831434608
 20
102.6469847377
 10
132.5750917108
 20
102.6644633813
 10
132.5653453328
 20
102.6799185872
 10
132.5539369974
 20
102.6934173651
 10
132.5412654915
 20
102.7052069432
 10
132.5273839449
 20
102.7152575775
 10
132.5122392278
 20
102.7235990121
 10
132.4960707381
 20
102.730567707
 10
132.4789266296
 20
102.736197588
 10
132.4607587486
 20
102.7404547293
 10
132.4416620322
 20
102.7435738141
 10
132.4216579461
 20
102.745587544
 10
132.4007250246
 20
102.7464632173
 10
132.3788938071
 20
102.7463374124
 10
132.3561769739
 20
102.7452307725
 10
132.3325618447
 20
102.7431226544
 10
132.3080409187
 20
102.7400877062
 10
132.2826216655
 20
102.7361392905
 10
132.2562966156
 20
102.7312640447
 10
132.2290358589
 20
102.7254965291
 10
132.200844622
 20
102.7188458146
 10
132.1717176784
 20
102.7113028303
 10
132.1416094389
 20
102.702874924
 10
132.1105239188
 20
102.6935686504
 10
132.0784571028
 20
102.6833774549
 10
132.0453513564
 20
102.6722890207
 10
132.0112100741
 20
102.6603083973
 10
131.9760298614
 20
102.6474305353
 10
131.9397429
 20
102.63362797
 10
131.902353684
 20
102.6189059629
 10
131.8638577194
 20
102.6032592525
 10
131.8241737053
 20
102.5866445894
 10
131.7832745416
 20
102.569047557
 10
131.7411873285
 20
102.5504825719
 10
131.6979120659
 20
102.530949634
  0
LINE
  5
579
100
AcDbEntity
  8
DRAFT
100
AcDbLine
 62
7
  6
CONTINUOUS
 10
131.7355667403
 20
100.7680113382
 11
132.5164427182
 21
101.6495488946
  0
LWPOLYLINE
  5
57A
100
AcDbEntity
  8
RACCORDO
100
AcDbPolyline
 62
7
  6
CONTINUOUS
 90
8
 70
0
 10
131.4498187048
 20
95.5325789864
 10
131.4565881152
 20
95.5389661299
 10
131.5105995613
 20
95.5951173079
 10
131.5597021325
 20
95.6559324324
 10
131.6034836758
 20
95.7210090649
 10
131.6415262876
 20
95.7898379873
 10
131.6735179276
 20
95.861987461
 10
131.6991444216
 20
95.9369306765
  0
LINE
  5
57B
100
AcDbEntity
  8
RACCORDO
100
AcDbLine
 62
253
  6
CONTINUOUS
 10
131.4498187048
 20
95.5325789864
 11
131.4495998109
 21
95.5323746001
  0
LINE
  5
57C
100
AcDbEntity
  8
RACCORDO
100
AcDbLine
 62
253
  6
CONTINUOUS
 10
127.6348326832
 20
92.250711296
 11
131.6227244768
 21
95.9722098062
  0
LINE
  5
57D
100
AcDbEntity
  8
RACCORDO
100
AcDbLine
 62
7
  6
CONTINUOUS
 10
127.4617142963
 20
91.8108819494
 11
131.44960609
 21
95.5323804597
  0
LINE
  5
57E
100
AcDbEntity
  8
RACCORDO
100
AcDbLine
 62
7
  6
CONTINUOUS
 10
127.4617515811
 20
91.8109167471
 11
127.4617142963
 21
91.8108819494
  0
LWPOLYLINE
  5
57F
100
AcDbEntity
  8
0
100
AcDbPolyline
 62
253
  6
CONTINUOUS
 90
10
 70
0
 10
98.5059611938
 20
113.1657661557
 10
98.5289338677
 20
113.1710363647
 10
98.5511899167
 20
113.1795733718
 10
98.5723504845
 20
113.1912320417
 10
98.5920692672
 20
113.2058253298
 10
98.6099962038
 20
113.2230982001
 10
98.6257958063
 20
113.2427135427
 10
98.6392060746
 20
113.2643096158
 10
98.6500285908
 20
113.2875241399
 10
98.658098696
 20
113.3119587053
  0
LWPOLYLINE
  5
580
100
AcDbEntity
  8
0
100
AcDbPolyline
 62
7
  6
CONTINUOUS
 90
5
 70
0
 10
102.3561245434
 20
113.710962026
 10
102.3764403744
 20
113.7151139856
 10
102.3978883856
 20
113.716199646
 10
102.4201053988
 20
113.71420358
 10
102.4427145502
 20
113.7091626848
  0
LWPOLYLINE
  5
581
100
AcDbEntity
  8
0
100
AcDbPolyline
 62
253
  6
CONTINUOUS
 90
4
 70
0
 10
106.7335805231
 20
116.7238365072
 10
106.7185998845
 20
116.7207767095
 10
106.7033347897
 20
116.7160698564
 10
106.6878288597
 20
116.7097293981
  0
LINE
  5
582
100
AcDbEntity
  8
0
100
AcDbLine
 62
7
  6
CONTINUOUS
 10
100.8620967178
 20
113.831278186
 11
101.6962725535
 21
113.9384213851
  0
LWPOLYLINE
  5
583
100
AcDbEntity
  8
0
100
AcDbPolyline
 62
253
  6
CONTINUOUS
 90
5
 70
0
 10
113.1568218852
 20
114.875240506
 10
113.1421685106
 20
114.8738365071
 10
113.1271878716
 20
114.8707767092
 10
113.1119227765
 20
114.866069856
 10
113.0964168462
 20
114.8597293975
  0
LWPOLYLINE
  5
584
100
AcDbEntity
  8
0
100
AcDbPolyline
 62
7
  6
CONTINUOUS
 90
7
 70
0
 10
103.3208001429
 20
113.9074306661
 10
103.3499734718
 20
113.9099022768
 10
103.3784383307
 20
113.9105070226
 10
103.4060771206
 20
113.9091719788
 10
103.4331073266
 20
113.9057746913
 10
103.4590757987
 20
113.9003307745
 10
103.4683685139
 20
113.8978038518
  0
LINE
  5
585
100
AcDbEntity
  8
0
100
AcDbLine
 62
7
  6
CONTINUOUS
 10
113.1129276578
 20
114.8816597994
 11
113.086709453
 21
114.880066508
  0
LWPOLYLINE
  5
586
100
AcDbEntity
  8
0
100
AcDbPolyline
 62
253
  6
CONTINUOUS
 90
7
 70
0
 10
113.6615089325
 20
114.5284613262
 10
113.6471063262
 20
114.5283942306
 10
113.6323893038
 20
114.5257979905
 10
113.6173578654
 20
114.5206726059
 10
113.6020120109
 20
114.5130180767
 10
113.5863517404
 20
114.502834403
 10
113.5703770537
 20
114.4901215847
  0
LINE
  5
587
100
AcDbEntity
  8
0
100
AcDbLine
 62
253
  6
CONTINUOUS
 10
113.5353167162
 20
114.7703922064
 11
113.5138375743
 21
114.7704728269
  0
LINE
  5
588
100
AcDbEntity
  8
0
100
AcDbLine
 62
253
  6
CONTINUOUS
 10
113.1711061225
 20
114.8749846939
 11
113.1568218852
 21
114.875240506
  0
LINE
  5
589
100
AcDbEntity
  8
0
100
AcDbLine
 62
7
  6
CONTINUOUS
 10
113.1386571808
 20
114.8808622811
 11
113.1129276578
 21
114.8816597994
  0
LINE
  5
58A
100
AcDbEntity
  8
0
100
AcDbLine
 62
7
  6
CONTINUOUS
 10
113.1386571808
 20
114.8808622811
 11
113.138454815
 21
114.8808777531
  0
LINE
  5
58B
100
AcDbEntity
  8
0
100
AcDbLine
 62
253
  6
CONTINUOUS
 10
113.1480892035
 20
114.8798553213
 11
113.1386571808
 21
114.8808622811
  0
LINE
  5
58C
100
AcDbEntity
  8
0
100
AcDbLine
 62
253
  6
CONTINUOUS
 10
113.1844909688
 20
114.8731104517
 11
113.1711061225
 21
114.8749846939
  0
LWPOLYLINE
  5
58D
100
AcDbEntity
  8
0
100
AcDbPolyline
 62
253
  6
CONTINUOUS
 90
6
 70
0
 10
100.1148086832
 20
115.298906053
 10
100.1105523466
 20
115.2998709674
 10
100.0989749389
 20
115.3000962766
 10
100.086732545
 20
115.2970546496
 10
100.0740310733
 20
115.2908004612
 10
100.061085271
 20
115.2814419974
  0
LINE
  5
58E
100
AcDbEntity
  8
0
100
AcDbLine
 62
7
  6
CONTINUOUS
 10
97.9536723439
 20
115.9216403716
 11
97.9739788416
 21
115.916910395
  0
LWPOLYLINE
  5
58F
100
AcDbEntity
  8
0
100
AcDbPolyline
 62
253
  6
CONTINUOUS
 90
4
 70
0
 10
115.1299272969
 20
110.9314419974
 10
115.1527400576
 20
110.9236143185
 10
115.1751327868
 20
110.9129326825
 10
115.1967224871
 20
110.8995797843
  0
LWPOLYLINE
  5
590
100
AcDbEntity
  8
0
100
AcDbPolyline
 62
7
  6
CONTINUOUS
 90
4
 70
0
 10
106.8543610697
 20
116.6869376896
 10
106.8318852426
 20
116.7013288595
 10
106.8082585349
 20
116.7127595164
 10
106.7828497381
 20
116.7216057569
  0
LWPOLYLINE
  5
591
100
AcDbEntity
  8
0
100
AcDbPolyline
 62
253
  6
CONTINUOUS
 90
3
 70
0
 10
115.1967224871
 20
110.8995797843
 10
115.2171398957
 20
110.8837840072
 10
115.2360358004
 20
110.8658155168
  0
LINE
  5
592
100
AcDbEntity
  8
0
100
AcDbLine
 62
253
  6
CONTINUOUS
 10
115.2360358004
 20
110.8658155168
 11
115.2530870122
 21
110.8459816398
  0
LWPOLYLINE
  5
593
100
AcDbEntity
  8
0
100
AcDbPolyline
 62
253
  6
CONTINUOUS
 90
6
 70
0
 10
113.6440585738
 20
114.6790074252
 10
113.6310917644
 20
114.7004459456
 10
113.6156792098
 20
114.7197940336
 10
113.5980817587
 20
114.7367242341
 10
113.5785972381
 20
114.7509500132
 10
113.5575554125
 20
114.7622306072
  0
LWPOLYLINE
  5
594
100
AcDbEntity
  8
RACCORDO
100
AcDbPolyline
 62
7
  6
CONTINUOUS
 90
16
 70
0
 10
123.14544863
 20
122.0268586463
 10
123.1387883059
 20
122.0913240159
 10
123.1266626593
 20
122.1554544552
 10
123.1089599867
 20
122.2187242673
 10
123.0855160338
 20
122.2808825832
 10
123.0565348375
 20
122.3411776028
 10
123.022290823
 20
122.399022639
 10
122.9828162564
 20
122.4542570807
 10
122.9387803587
 20
122.5058968782
 10
122.890351682
 20
122.5538310056
 10
122.8366676613
 20
122.5987501891
 10
122.7779789187
 20
122.6400794915
 10
122.7148766591
 20
122.6771310586
 10
122.6468413274
 20
122.7099095767
 10
122.5739022774
 20
122.7380182327
 10
122.5290108253
 20
122.7521093467
  0
LINE
  5
595
100
AcDbEntity
  8
RACCORDO
100
AcDbLine
 62
253
  6
CONTINUOUS
 10
124.3279225862
 20
119.1711070923
 11
124.329958727
 21
119.0563577193
  0
LWPOLYLINE
  5
596
100
AcDbEntity
  8
RACCORDO
100
AcDbPolyline
 62
7
  6
CONTINUOUS
 90
17
 70
0
 10
124.3675725359
 20
119.1288931141
 10
124.3667552848
 20
119.2061860505
 10
124.3608317145
 20
119.3469309931
 10
124.3487083478
 20
119.4865810871
 10
124.3294866305
 20
119.6258841465
 10
124.3026645824
 20
119.7617728475
 10
124.2689529134
 20
119.888614705
 10
124.2286533418
 20
120.0055373905
 10
124.181566599
 20
120.1132426404
 10
124.1285994958
 20
120.2100300328
 10
124.0703503756
 20
120.2956648643
 10
124.0067600091
 20
120.370929503
 10
123.9381370703
 20
120.4359060673
 10
123.8647190323
 20
120.4906486903
 10
123.7872381118
 20
120.5348418588
 10
123.7072225155
 20
120.5681079514
 10
123.6729659872
 20
120.5789183069
  0
LWPOLYLINE
  5
597
100
AcDbEntity
  8
RACCORDO
100
AcDbPolyline
 62
253
  6
CONTINUOUS
 90
7
 70
0
 10
127.0806854202
 20
107.5707497438
 10
127.0781785368
 20
107.5372324778
 10
127.0690528481
 20
107.4986794923
 10
127.0533152834
 20
107.4606632527
 10
127.0310829872
 20
107.4234667239
 10
127.0025214214
 20
107.3873667278
 10
126.9678431614
 20
107.3526319465
  0
LWPOLYLINE
  5
598
100
AcDbEntity
  8
DRAFT
100
AcDbPolyline
 62
7
  6
CONTINUOUS
 90
5
 70
0
 10
121.493477682
 20
78.4107702918
 10
121.4962275502
 20
78.4217490102
 10
121.5145774519
 20
78.5276577124
 10
121.5256789847
 20
78.6371281809
 10
121.5295321485
 20
78.7501604157
  0
LWPOLYLINE
  5
599
100
AcDbEntity
  8
0
100
AcDbPolyline
 62
253
  6
CONTINUOUS
 90
3
 70
0
 10
115.2975361094
 20
68.6007344117
 10
115.2903279481
 20
68.5814418379
 10
115.2803153664
 20
68.5640542575
  0
LWPOLYLINE
  5
59A
100
AcDbEntity
  8
0
100
AcDbPolyline
 62
7
  6
CONTINUOUS
 90
4
 70
0
 10
114.9003263388
 20
68.2176323664
 10
114.9076100217
 20
68.2369842744
 10
114.9120296589
 20
68.2579276522
 10
114.9135067447
 20
68.2801016868
  0
LWPOLYLINE
  5
59B
100
AcDbEntity
  8
0
100
AcDbPolyline
 62
253
  6
CONTINUOUS
 90
10
 70
0
 10
113.5055072617
 20
67.8705571033
 10
113.4959316091
 20
67.8513766191
 10
113.4870953311
 20
67.8309425144
 10
113.4791283248
 20
67.8095101894
 10
113.4721412404
 20
67.7873185835
 10
113.4662589231
 20
67.7646964386
 10
113.4615991519
 20
67.7420613953
 10
113.4582304358
 20
67.7197596244
 10
113.4561904315
 20
67.6980589004
 10
113.4555072617
 20
67.6772558331
  0
LINE
  5
59C
100
AcDbEntity
  8
0
100
AcDbLine
 62
253
  6
CONTINUOUS
 10
113.9691121384
 20
68.7063411453
 11
113.5055072617
 21
67.8705571033
  0
LINE
  5
59D
100
AcDbEntity
  8
0
100
AcDbLine
 62
253
  6
CONTINUOUS
 10
114.2420572515
 20
68.6410035016
 11
113.7269407219
 21
67.712354566
  0
LWPOLYLINE
  5
59E
100
AcDbEntity
  8
RACCORDO
100
AcDbPolyline
 62
253
  6
CONTINUOUS
 90
18
 70
0
 10
131.6227244768
 20
100.8360174013
 10
131.633968541
 20
100.8522949958
 10
131.6448142142
 20
100.8662199536
 10
131.6552277737
 20
100.8777910596
 10
131.6651943137
 20
100.8870569938
 10
131.6746567773
 20
100.8939649772
 10
131.68352906
 20
100.8983580982
 10
131.6918011094
 20
100.9000615645
 10
131.6994328957
 20
100.899237104
 10
131.7063286989
 20
100.8962257666
 10
131.7124665567
 20
100.8909477264
 10
131.7178756491
 20
100.8834600302
 10
131.7225602499
 20
100.8743057036
 10
131.7265121231
 20
100.863540549
 10
131.7297463841
 20
100.8510874414
 10
131.7322839368
 20
100.8372914502
 10
131.7341093002
 20
100.8221977473
 10
131.7352082671
 20
100.8057416639
  0
LWPOLYLINE
  5
59F
100
AcDbEntity
  8
RACCORDO
100
AcDbPolyline
 62
7
  6
CONTINUOUS
 90
5
 70
0
 10
127.4373196554
 20
91.7840066523
 10
127.442702354
 20
91.7904310267
 10
127.4524502252
 20
91.8014317031
 10
127.4590245982
 20
91.8082784258
 10
127.4617505105
 20
91.8109178913
  0
LWPOLYLINE
  5
5A0
100
AcDbEntity
  8
RACCORDO
100
AcDbPolyline
 62
253
  6
CONTINUOUS
 90
6
 70
0
 10
126.9678431614
 20
90.4368199158
 10
127.0087308621
 20
90.4786743247
 10
127.0407461436
 20
90.5224176978
 10
127.0635460669
 20
90.5675813204
 10
127.0768864371
 20
90.6136812639
 10
127.080685425
 20
90.65498441
  0
LINE
  5
5A1
100
AcDbEntity
  8
0
100
AcDbLine
 62
7
  6
CONTINUOUS
 10
114.523795313
 20
77.3126897258
 11
113.8523458198
 21
76.7342456658
  0
LINE
  5
5A2
100
AcDbEntity
  8
0
100
AcDbLine
 62
253
  6
CONTINUOUS
 10
113.3110239625
 20
77.9408191876
 11
113.7511205185
 21
78.3049772584
  0
LINE
  5
5A3
100
AcDbEntity
  8
0
100
AcDbLine
 62
253
  6
CONTINUOUS
 10
113.2464133409
 20
77.5549174817
 11
113.6863813344
 21
77.9187207249
  0
LWPOLYLINE
  5
5A4
100
AcDbEntity
  8
RACCORDO
100
AcDbPolyline
 62
253
  6
CONTINUOUS
 90
16
 70
0
 10
111.6777721261
 20
77.4653070777
 10
111.6486641078
 20
77.4432456651
 10
111.6153478545
 20
77.4228018744
 10
111.5781763329
 20
77.4041922957
 10
111.537543354
 20
77.3876140871
 10
111.493879401
 20
77.3732428851
 10
111.4476470687
 20
77.3612309444
 10
111.3993361623
 20
77.3517055247
 10
111.3494585082
 20
77.3447675425
 10
111.2985425317
 20
77.3404905015
 10
111.2471276586
 20
77.3389197148
 10
111.1957586
 20
77.3400718237
 10
111.144979582
 20
77.3439346225
 10
111.0953285791
 20
77.350467187
 10
111.0473316155
 20
77.3596003083
 10
111.0014971916
 20
77.3712372262
  0
LWPOLYLINE
  5
5A5
100
AcDbEntity
  8
0
100
AcDbPolyline
 62
253
  6
CONTINUOUS
 90
13
 70
0
 10
113.3110239625
 20
77.9408191137
 10
113.2926103224
 20
77.9275269079
 10
113.2709191134
 20
77.9155343631
 10
113.2463132879
 20
77.9050421466
 10
113.2192045675
 20
77.8962258215
 10
113.1900465539
 20
77.8892329085
 10
113.1593271391
 20
77.8841804181
 10
113.1275603416
 20
77.8811528918
 10
113.0952777053
 20
77.8802009884
 10
113.0630194054
 20
77.8813406358
 10
113.0313252102
 20
77.8845527646
 10
113.0007254488
 20
77.8897836273
 10
112.9717321374
 20
77.8969456975
  0
LWPOLYLINE
  5
5A6
100
AcDbEntity
  8
0
100
AcDbPolyline
 62
253
  6
CONTINUOUS
 90
13
 70
0
 10
113.246413254
 20
77.5549172417
 10
113.2281140888
 20
77.5423081197
 10
113.2067156436
 20
77.5320633895
 10
113.1825759614
 20
77.5243544767
 10
113.1560989603
 20
77.5193103781
 10
113.1277276585
 20
77.5170154988
 10
113.0979367587
 20
77.5175082457
 10
113.0672247338
 20
77.5207803859
 10
113.0361054778
 20
77.5267771792
 10
113.0050996882
 20
77.5353982982
 10
112.9747261765
 20
77.5464995026
 10
112.945493187
 20
77.5598950495
 10
112.9441786205
 20
77.5606315831
  0
LWPOLYLINE
  5
5A7
100
AcDbEntity
  8
0
100
AcDbPolyline
 62
7
  6
CONTINUOUS
 90
5
 70
0
 10
97.4197797418
 20
115.5689747279
 10
97.4400955728
 20
115.5731266875
 10
97.461543584
 20
115.5742123479
 10
97.4837605973
 20
115.5722162819
 10
97.5063697487
 20
115.5671753867
  0
LWPOLYLINE
  5
5A8
100
AcDbEntity
  8
0
100
AcDbPolyline
 62
7
  6
CONTINUOUS
 90
3
 70
0
 10
106.3103674167
 20
116.8339243647
 10
106.2731030057
 20
116.826958748
 10
106.2363032256
 20
116.8153030513
  0
LWPOLYLINE
  5
5A9
100
AcDbEntity
  8
RACCORDO
100
AcDbPolyline
 62
7
  6
CONTINUOUS
 90
5
 70
0
 10
111.5656714394
 20
118.2934982713
 10
111.5854127508
 20
118.2971753797
 10
111.6062350962
 20
118.2977473847
 10
111.6277695319
 20
118.295195168
 10
111.649639681
 20
118.2895568336
  0
LWPOLYLINE
  5
5AA
100
AcDbEntity
  8
0
100
AcDbPolyline
 62
253
  6
CONTINUOUS
 90
3
 70
0
 10
106.3813988391
 20
116.829430875
 10
106.358181016
 20
116.8258790155
 10
106.3342704862
 20
116.8184604809
  0
LINE
  5
5AB
100
AcDbEntity
  8
0
100
AcDbLine
 62
7
  6
CONTINUOUS
 10
106.3480484716
 20
116.8361013605
 11
106.3103674167
 21
116.8339243647
  0
LWPOLYLINE
  5
5AC
100
AcDbEntity
  8
RACCORDO
100
AcDbPolyline
 62
253
  6
CONTINUOUS
 90
12
 70
0
 10
112.3499610868
 20
118.4533254781
 10
112.2764573874
 20
118.4540938392
 10
112.2037042544
 20
118.4515332492
 10
112.1310626276
 20
118.4455676594
 10
112.0591715672
 20
118.4362731185
 10
111.9899482544
 20
118.4238777732
 10
111.9234697405
 20
118.4082831639
 10
111.8596589742
 20
118.3895877501
 10
111.8002019825
 20
118.3683150577
 10
111.7456607741
 20
118.344639595
 10
111.6954733403
 20
118.3183868537
 10
111.649639681
 20
118.2895568336
  0
LWPOLYLINE
  5
5AD
100
AcDbEntity
  8
RACCORDO
100
AcDbPolyline
 62
7
  6
CONTINUOUS
 90
9
 70
0
 10
112.356840572
 20
118.4792732948
 10
112.2740823387
 20
118.4801471648
 10
112.1913879573
 20
118.4772514173
 10
112.109373697
 20
118.4705833918
 10
112.0284847211
 20
118.4601382803
 10
111.9489498928
 20
118.4458571974
 10
111.8711554148
 20
118.4276605831
 10
111.7958156524
 20
118.4055345437
 10
111.7235012146
 20
118.3794423812
  0
LINE
  5
5AE
100
AcDbEntity
  8
0
100
AcDbLine
 62
253
  6
CONTINUOUS
 10
106.4037714275
 20
116.8290920025
 11
106.3813988391
 21
116.829430875
  0
LWPOLYLINE
  5
5AF
100
AcDbEntity
  8
0
100
AcDbPolyline
 62
253
  6
CONTINUOUS
 90
10
 70
0
 10
106.8879021379
 20
116.4814539126
 10
106.8782883554
 20
116.4816013643
 10
106.8685071471
 20
116.4806607036
 10
106.8585585131
 20
116.4786319305
 10
106.8484276497
 20
116.4755089834
 10
106.8381293605
 20
116.4712979239
 10
106.8277080564
 20
116.466016937
 10
106.8171785407
 20
116.4596720844
 10
106.80652601
 20
116.4522573044
 10
106.7957504643
 20
116.4437725969
  0
LWPOLYLINE
  5
5B0
100
AcDbEntity
  8
0
100
AcDbPolyline
 62
253
  6
CONTINUOUS
 90
3
 70
0
 10
106.7625181345
 20
116.7249846939
 10
106.7482338975
 20
116.725240506
 10
106.7335805231
 20
116.7238365072
  0
LINE
  5
5B1
100
AcDbEntity
  8
0
100
AcDbLine
 62
7
  6
CONTINUOUS
 10
106.3749772941
 20
116.8346313762
 11
106.3480484716
 21
116.8361013605
  0
LINE
  5
5B2
100
AcDbEntity
  8
RACCORDO
100
AcDbLine
 62
253
  6
CONTINUOUS
 10
112.4242153527
 20
118.449228166
 11
112.3499610868
 21
118.4533254781
  0
LINE
  5
5B3
100
AcDbEntity
  8
0
100
AcDbLine
 62
253
  6
CONTINUOUS
 10
106.3810456699
 20
116.8339145356
 11
106.3760645841
 21
116.8345202928
  0
LINE
  5
5B4
100
AcDbEntity
  8
0
100
AcDbLine
 62
253
  6
CONTINUOUS
 10
106.4200361285
 20
116.8262159034
 11
106.4037714275
 21
116.8290920025
  0
LWPOLYLINE
  5
5B5
100
AcDbEntity
  8
RACCORDO
100
AcDbPolyline
 62
253
  6
CONTINUOUS
 90
9
 70
0
 10
116.0681506718
 20
116.3042273157
 10
116.045383689
 20
116.3086355536
 10
116.0234621555
 20
116.3105739535
 10
116.0027543064
 20
116.3100099544
 10
115.9836079896
 20
116.3069530304
 10
115.9663448225
 20
116.3014545311
 10
115.9512547898
 20
116.2936068198
 10
115.9385913718
 20
116.2835417213
 10
115.9284266001
 20
116.2712147434
  0
LWPOLYLINE
  5
5B6
100
AcDbEntity
  8
RACCORDO
100
AcDbPolyline
 62
253
  6
CONTINUOUS
 90
9
 70
0
 10
113.6432795412
 20
117.0042273157
 10
113.6205125584
 20
117.0086355536
 10
113.5985910249
 20
117.0105739535
 10
113.5778831758
 20
117.0100099544
 10
113.558736859
 20
117.0069530304
 10
113.541473692
 20
117.0014545311
 10
113.5263836592
 20
116.9936068198
 10
113.5137202412
 20
116.9835417213
 10
113.5035554695
 20
116.9712147434
  0
LINE
  5
5B7
100
AcDbEntity
  8
0
100
AcDbLine
 62
253
  6
CONTINUOUS
 10
113.1711061225
 20
114.8749846939
 11
113.1480892035
 21
114.8798553213
  0
LINE
  5
5B8
100
AcDbEntity
  8
0
100
AcDbLine
 62
253
  6
CONTINUOUS
 10
106.4037680689
 20
116.8290786778
 11
106.3810456699
 21
116.8339145356
  0
LWPOLYLINE
  5
5B9
100
AcDbEntity
  8
RACCORDO
100
AcDbPolyline
 62
253
  6
CONTINUOUS
 90
8
 70
0
 10
131.0851566907
 20
111.2977338619
 10
131.0638803999
 20
111.3024136508
 10
131.0295658257
 20
111.3043158212
 10
130.9938560495
 20
111.2997290117
 10
130.9570964492
 20
111.2887433101
 10
130.919594444
 20
111.2715187715
 10
130.881608616
 20
111.2482404794
 10
130.8434203232
 20
111.2191401326
  0
LWPOLYLINE
  5
5BA
100
AcDbEntity
  8
0
100
AcDbPolyline
 62
253
  6
CONTINUOUS
 90
7
 70
0
 10
113.0328786122
 20
114.8184627205
 10
113.0102558818
 20
114.8234945318
 10
112.987990371
 20
114.8254512511
 10
112.9664630489
 20
114.8242993982
 10
112.9460422539
 20
114.8200586817
 10
112.9270773916
 20
114.8128016614
 10
112.9098929559
 20
114.8026525069
  0
LWPOLYLINE
  5
5BB
100
AcDbEntity
  8
0
100
AcDbPolyline
 62
253
  6
CONTINUOUS
 90
3
 70
0
 10
106.7828815886
 20
116.7215964792
 10
106.7746957177
 20
116.7234566917
 10
106.7625181345
 20
116.7249846939
  0
LWPOLYLINE
  5
5BC
100
AcDbEntity
  8
0
100
AcDbPolyline
 62
253
  6
CONTINUOUS
 90
8
 70
0
 10
106.2599708835
 20
116.7736327706
 10
106.2375836442
 20
116.7788532069
 10
106.2155494589
 20
116.7809965157
 10
106.1942451925
 20
116.7800260386
 10
106.1740352258
 20
116.7759583744
 10
106.1552652231
 20
116.7688630951
 10
106.1382562196
 20
116.7588615556
 10
106.133536588
 20
116.7553149698
  0
LWPOLYLINE
  5
5BD
100
AcDbEntity
  8
0
100
AcDbPolyline
 62
7
  6
CONTINUOUS
 90
4
 70
0
 10
113.1958710862
 20
114.8703283327
 10
113.1685899136
 20
114.8768548631
 10
113.1415918567
 20
114.8806077785
 10
113.138453648
 20
114.8808652108
  0
LWPOLYLINE
  5
5BE
100
AcDbEntity
  8
0
100
AcDbPolyline
 62
7
  6
CONTINUOUS
 90
4
 70
0
 10
106.4262827444
 20
116.824539158
 10
106.4054409373
 20
116.8297929339
 10
106.3795795151
 20
116.8341097331
 10
106.3760624292
 20
116.834504453
  0
LWPOLYLINE
  5
5BF
100
AcDbEntity
  8
RACCORDO
100
AcDbPolyline
 62
7
  6
CONTINUOUS
 90
16
 70
0
 10
114.8713577779
 20
115.8082225798
 10
114.8438375796
 20
115.8152057353
 10
114.8156519037
 20
115.8207003033
 10
114.7868007503
 20
115.8247062835
 10
114.7569772031
 20
115.8272341378
 10
114.7264881783
 20
115.8282734044
 10
114.6962544249
 20
115.8277926981
 10
114.6662837303
 20
115.82574565
 10
114.6365683071
 20
115.822178629
 10
114.6080055418
 20
115.8171993569
 10
114.5806305981
 20
115.8107647509
 10
114.5544083125
 20
115.8029178938
 10
114.530130581
 20
115.7938957556
 10
114.508061369
 20
115.7837773263
 10
114.4879367112
 20
115.7724836159
 10
114.4697566075
 20
115.7600146244
  0
LWPOLYLINE
  5
5C0
100
AcDbEntity
  8
RACCORDO
100
AcDbPolyline
 62
7
  6
CONTINUOUS
 90
16
 70
0
 10
112.4464866473
 20
116.5082225798
 10
112.418966449
 20
116.5152057353
 10
112.3907807731
 20
116.5207003033
 10
112.3619296197
 20
116.5247062835
 10
112.3321060725
 20
116.5272341378
 10
112.3016170477
 20
116.5282734044
 10
112.2713832943
 20
116.5277926981
 10
112.2414125997
 20
116.52574565
 10
112.2116971765
 20
116.522178629
 10
112.1831344112
 20
116.5171993569
 10
112.1557594676
 20
116.5107647509
 10
112.1295371819
 20
116.5029178938
 10
112.1052594504
 20
116.4938957556
 10
112.0831902384
 20
116.4837773263
 10
112.0630655806
 20
116.4724836159
 10
112.0448854769
 20
116.4600146244
  0
LWPOLYLINE
  5
5C1
100
AcDbEntity
  8
0
100
AcDbPolyline
 62
253
  6
CONTINUOUS
 90
3
 70
0
 10
113.5531434426
 20
114.7671915579
 10
113.5493170412
 20
114.7681705015
 10
113.5353167162
 20
114.7703922064
  0
LINE
  5
5C2
100
AcDbEntity
  8
0
100
AcDbLine
 62
253
  6
CONTINUOUS
 10
106.425267468
 20
116.8248323161
 11
106.4200361285
 21
116.8262159034
  0
LINE
  5
5C3
100
AcDbEntity
  8
0
100
AcDbLine
 62
253
  6
CONTINUOUS
 10
106.7832078979
 20
116.7215045383
 11
106.7828815886
 21
116.7215964792
  0
LINE
  5
5C4
100
AcDbEntity
  8
0
100
AcDbLine
 62
253
  6
CONTINUOUS
 10
113.553175806
 20
114.7671824309
 11
113.5531434426
 21
114.7671915579
  0
LINE
  5
5C5
100
AcDbEntity
  8
0
100
AcDbLine
 62
7
  6
CONTINUOUS
 10
113.1959083825
 20
114.8703180577
 11
113.1955566155
 21
114.8704189246
  0
LINE
  5
5C6
100
AcDbEntity
  8
0
100
AcDbLine
 62
7
  6
CONTINUOUS
 10
106.4261371715
 20
116.8245824897
 11
106.425267468
 21
116.8248323161
  0
LINE
  5
5C7
100
AcDbEntity
  8
0
100
AcDbLine
 62
253
  6
CONTINUOUS
 10
106.2599708835
 20
116.7736327706
 11
106.6242906242
 21
116.6684627205
  0
LINE
  5
5C8
100
AcDbEntity
  8
0
100
AcDbLine
 62
253
  6
CONTINUOUS
 10
113.0328786122
 20
114.8184627205
 11
113.3971983529
 21
114.7132926703
  0
LINE
  5
5C9
100
AcDbEntity
  8
0
100
AcDbLine
 62
7
  6
CONTINUOUS
 10
106.4277083924
 20
116.8241291293
 11
106.7822533321
 21
116.7217808211
  0
LINE
  5
5CA
100
AcDbEntity
  8
0
100
AcDbLine
 62
7
  6
CONTINUOUS
 10
113.1972691521
 20
114.8699252658
 11
113.5518072416
 21
114.7675789351
  0
LINE
  5
5CB
100
AcDbEntity
  8
0
100
AcDbLine
 62
7
  6
CONTINUOUS
 10
104.4645484697
 20
117.5206183556
 11
105.4984596242
 21
117.2221539139
  0
LINE
  5
5CC
100
AcDbEntity
  8
0
100
AcDbLine
 62
7
  6
CONTINUOUS
 10
118.2482381683
 20
113.5416098766
 11
119.2821493229
 21
113.2431454349
  0
LINE
  5
5CD
100
AcDbEntity
  8
0
100
AcDbLine
 62
7
  6
CONTINUOUS
 10
108.842259983
 20
116.4228401723
 11
114.4429035796
 21
114.8060736282
  0
LINE
  5
5CE
100
AcDbEntity
  8
RACCORDO
100
AcDbLine
 62
7
  6
CONTINUOUS
 10
115.444117973
 20
115.6428809534
 11
114.8713577779
 21
115.8082225798
  0
LINE
  5
5CF
100
AcDbEntity
  8
RACCORDO
100
AcDbLine
 62
7
  6
CONTINUOUS
 10
113.0806216158
 20
116.3251635824
 11
112.4464866473
 21
116.5082225798
  0
LINE
  5
5D0
100
AcDbEntity
  8
RACCORDO
100
AcDbLine
 62
253
  6
CONTINUOUS
 10
130.8434203232
 20
111.2191401326
 11
127.080685425
 21
112.3053481358
  0
LINE
  5
5D1
100
AcDbEntity
  8
RACCORDO
100
AcDbLine
 62
7
  6
CONTINUOUS
 10
127.080685425
 20
112.4537251456
 11
131.0851818286
 21
111.2977266073
  0
LINE
  5
5D2
100
AcDbEntity
  8
RACCORDO
100
AcDbLine
 62
253
  6
CONTINUOUS
 10
112.4464866473
 20
117.4908072396
 11
113.3753400147
 21
117.2226703687
  0
LINE
  5
5D3
100
AcDbEntity
  8
RACCORDO
100
AcDbLine
 62
253
  6
CONTINUOUS
 10
114.8713577779
 20
116.7908072396
 11
115.8002111453
 21
116.5226703687
  0
LWPOLYLINE
  5
5D4
100
AcDbEntity
  8
RACCORDO
100
AcDbPolyline
 62
253
  6
CONTINUOUS
 90
19
 70
0
 10
130.8434203232
 20
111.2191401326
 10
130.9119822923
 20
111.1971184612
 10
130.9799629182
 20
111.1692839036
 10
131.0468450279
 20
111.1358482154
 10
131.1121198054
 20
111.097065764
 10
131.1752906627
 20
111.0532315927
 10
131.2358770178
 20
111.0046791767
 10
131.2934179506
 20
110.9517778862
 10
131.3474757096
 20
110.8949301758
 10
131.3976390421
 20
110.8345685233
 10
131.4435263226
 20
110.7711521392
 10
131.4847884567
 20
110.7051634735
 10
131.5211115363
 20
110.6371045452
 10
131.5522192279
 20
110.5674931231
 10
131.5778748751
 20
110.4968587869
 10
131.5978832984
 20
110.4257388981
 10
131.6120922807
 20
110.3546745123
 10
131.620393725
 20
110.2842062628
 10
131.6227244768
 20
110.2148702477
  0
LINE
  5
5D5
100
AcDbEntity
  8
0
100
AcDbLine
 62
253
  6
CONTINUOUS
 10
113.5575554125
 20
114.7622306072
 11
113.535312403
 21
114.7703750986
  0
LINE
  5
5D6
100
AcDbEntity
  8
0
100
AcDbLine
 62
253
  6
CONTINUOUS
 10
106.7847175316
 20
116.7168023786
 11
106.7625181346
 21
116.7249846939
  0
LWPOLYLINE
  5
5D7
100
AcDbEntity
  8
RACCORDO
100
AcDbPolyline
 62
253
  6
CONTINUOUS
 90
13
 70
0
 10
111.8495876277
 20
117.5220215702
 10
111.8715674495
 20
117.513512388
 10
111.8936409038
 20
117.5027502687
 10
111.9154371823
 20
117.4899160555
 10
111.936590142
 20
117.475225396
 10
111.956744472
 20
117.4589251076
 10
111.9755616584
 20
117.4412890258
 10
111.9927256326
 20
117.422613438
 10
112.0079481321
 20
117.403212057
 10
112.0209735357
 20
117.383410731
 10
112.0315830908
 20
117.3635420524
 10
112.0395986058
 20
117.3439397753
 10
112.0448854781
 20
117.3249331538
  0
LINE
  5
5D8
100
AcDbEntity
  8
RACCORDO
100
AcDbLine
 62
253
  6
CONTINUOUS
 10
127.080685425
 20
107.6500874416
 11
127.1242227931
 21
107.6242203912
  0
LWPOLYLINE
  5
5D9
100
AcDbEntity
  8
0
100
AcDbPolyline
 62
7
  6
CONTINUOUS
 90
4
 70
0
 10
113.621788225
 20
114.7345010431
 10
113.5996436492
 20
114.7482629965
 10
113.5765996863
 20
114.7591249491
 10
113.5532263435
 20
114.767164226
  0
LWPOLYLINE
  5
5DA
100
AcDbEntity
  8
RACCORDO
100
AcDbPolyline
 62
253
  6
CONTINUOUS
 90
15
 70
0
 10
127.1242227931
 20
107.6242203912
 10
127.1873928968
 20
107.5803873216
 10
127.2479788488
 20
107.5318359227
 10
127.305519735
 20
107.4789354721
 10
127.3595777457
 20
107.4220883852
 10
127.4097416022
 20
107.3617270691
 10
127.4556296615
 20
107.2983106359
 10
127.4968927185
 20
107.2323215572
 10
127.5332167159
 20
107.1642619922
 10
127.5643252743
 20
107.0946497254
 10
127.5899816989
 20
107.0240143417
 10
127.6099907347
 20
106.9528933578
 10
127.6242001481
 20
106.8818278991
 10
127.6325018498
 20
106.8113585783
 10
127.6348326815
 20
106.7420215179
  0
LINE
  5
5DB
100
AcDbEntity
  8
0
100
AcDbLine
 62
7
  6
CONTINUOUS
 10
120.9861910625
 20
111.2265421211
 11
119.5883238821
 21
113.0279387979
  0
LWPOLYLINE
  5
5DC
100
AcDbEntity
  8
RACCORDO
100
AcDbPolyline
 62
7
  6
CONTINUOUS
 90
10
 70
0
 10
127.080685425
 20
114.4818732021
 10
127.0752780322
 20
114.6174203659
 10
127.0591376508
 20
114.7533050719
 10
127.0323843577
 20
114.8889316288
 10
126.9949664346
 20
115.0242341004
 10
126.9470569539
 20
115.1581257547
 10
126.8894209236
 20
115.2885917372
 10
126.8226701103
 20
115.4147189366
 10
126.7468925728
 20
115.5365605097
 10
126.6623225791
 20
115.6536573127
  0
LWPOLYLINE
  5
5DD
100
AcDbEntity
  8
RACCORDO
100
AcDbPolyline
 62
253
  6
CONTINUOUS
 90
13
 70
0
 10
126.9678431614
 20
114.263708873
 10
126.9644977115
 20
114.3668675465
 10
126.9544756875
 20
114.4715159763
 10
126.9378200048
 20
114.5772060419
 10
126.9146019854
 20
114.6834851626
 10
126.8849210523
 20
114.7898982345
 10
126.8489043039
 20
114.8959895792
 10
126.8067059696
 20
115.0013048974
 10
126.7585067491
 20
115.1053932125
 10
126.7045130394
 20
115.2078088014
 10
126.6449560505
 20
115.3081131045
 10
126.5800908144
 20
115.4058766037
 10
126.5101950943
 20
115.5006806609
  0
LINE
  5
5DE
100
AcDbEntity
  8
RACCORDO
100
AcDbLine
 62
253
  6
CONTINUOUS
 10
126.9678431614
 20
83.6556468034
 11
126.9678431614
 21
90.4368199158
  0
LINE
  5
5DF
100
AcDbEntity
  8
RACCORDO
100
AcDbLine
 62
253
  6
CONTINUOUS
 10
126.9678431614
 20
107.3526319501
 11
126.9678431614
 21
114.263708873
  0
LINE
  5
5E0
100
AcDbEntity
  8
RACCORDO
100
AcDbLine
 62
7
  6
CONTINUOUS
 10
127.080685425
 20
83.8738111325
 11
127.0806853976
 21
90.6550952248
  0
LINE
  5
5E1
100
AcDbEntity
  8
RACCORDO
100
AcDbLine
 62
7
  6
CONTINUOUS
 10
127.080685425
 20
107.5707962769
 11
127.080685425
 21
114.4818732021
  0
LWPOLYLINE
  5
5E2
100
AcDbEntity
  8
RACCORDO
100
AcDbPolyline
 62
7
  6
CONTINUOUS
 90
25
 70
0
 10
127.080672353
 20
90.6550952314
 10
127.0807204089
 20
90.6658826025
 10
127.0818971343
 20
90.7121502672
 10
127.0848174514
 20
90.7629840006
 10
127.0896811259
 20
90.8178212186
 10
127.0965805015
 20
90.8756694115
 10
127.1055784283
 20
90.9360402341
 10
127.1167086151
 20
90.9984840316
 10
127.1298876112
 20
91.0620245069
 10
127.1450469285
 20
91.1261154448
 10
127.1620775678
 20
91.1902515404
 10
127.1807296884
 20
91.2535371923
 10
127.2008377013
 20
91.315478815
 10
127.2221983646
 20
91.3756053091
 10
127.2444273913
 20
91.4331128107
 10
127.2672716031
 20
91.487637977
 10
127.2904625817
 20
91.5388242052
 10
127.3135161726
 20
91.5859883019
 10
127.3360814719
 20
91.628880013
 10
127.3578922777
 20
91.6674244609
 10
127.3785261232
 20
91.7013214105
 10
127.3976811697
 20
91.730571337
 10
127.4150451771
 20
91.7552113553
 10
127.4301491452
 20
91.7751082767
 10
127.4373196554
 20
91.7840066523
  0
LWPOLYLINE
  5
5E3
100
AcDbEntity
  8
RACCORDO
100
AcDbPolyline
 62
253
  6
CONTINUOUS
 90
15
 70
0
 10
126.9678431614
 20
90.4368199158
 10
126.9697340127
 20
90.5284659852
 10
126.9752433582
 20
90.6220687933
 10
126.9843711981
 20
90.71762834
 10
126.9972142184
 20
90.8157584952
 10
127.0136757329
 20
90.9158453891
 10
127.0334656832
 20
91.0160474123
 10
127.05662412
 20
91.1162631145
 10
127.0831109925
 20
91.2165939459
 10
127.1125160892
 20
91.3155026478
 10
127.1448969722
 20
91.4130089464
 10
127.1801960794
 20
91.5090931153
 10
127.2178305129
 20
91.6021587176
 10
127.257833788
 20
91.6921414469
 10
127.3001723895
 20
91.7791056096
  0
LWPOLYLINE
  5
5E4
100
AcDbEntity
  8
RACCORDO
100
AcDbPolyline
 62
253
  6
CONTINUOUS
 90
9
 70
0
 10
127.6348326832
 20
92.250711296
 10
127.6325019312
 20
92.1842319135
 10
127.6242004867
 20
92.1199180021
 10
127.6099915043
 20
92.0582588399
 10
127.589983081
 20
91.9997235083
 10
127.564327434
 20
91.9447573241
 10
127.5332197425
 20
91.8937784507
 10
127.4968966629
 20
91.847174718
 10
127.4617515811
 20
91.8109167471
  0
LWPOLYLINE
  5
5E5
100
AcDbEntity
  8
RACCORDO
100
AcDbPolyline
 62
7
  6
CONTINUOUS
 90
3
 70
0
 10
127.0660348618
 20
83.6541428758
 10
127.076997017
 20
83.7629333777
 10
127.080685425
 20
83.8738111325
  0
LINE
  5
5E6
100
AcDbEntity
  8
RACCORDO
100
AcDbLine
 62
7
  6
CONTINUOUS
 10
127.0479760222
 20
83.5478565646
 11
127.0660348618
 21
83.6541428758
  0
LWPOLYLINE
  5
5E7
100
AcDbEntity
  8
RACCORDO
100
AcDbPolyline
 62
7
  6
CONTINUOUS
 90
7
 70
0
 10
131.6227244768
 20
100.8360174013
 10
131.6331910507
 20
100.8619763537
 10
131.6444801009
 20
100.8869577677
 10
131.6565916273
 20
100.9109616433
 10
131.6695256301
 20
100.9339879805
 10
131.6832821091
 20
100.9560367793
 10
131.6978610645
 20
100.9771080398
  0
LWPOLYLINE
  5
5E8
100
AcDbEntity
  8
RACCORDO
100
AcDbPolyline
 62
253
  6
CONTINUOUS
 90
8
 70
0
 10
127.3001723895
 20
91.7791056096
 10
127.3441628739
 20
91.861647687
 10
127.389821714
 20
91.9396893966
 10
127.437132437
 20
92.013309021
 10
127.4853621816
 20
92.0813378901
 10
127.5342666606
 20
92.1433864473
 10
127.5840901611
 20
92.1998442493
 10
127.6348326832
 20
92.250711296
  0
LINE
  5
5E9
100
AcDbEntity
  8
DRAFT
100
AcDbLine
 62
7
  6
CONTINUOUS
 10
116.2589085516
 20
71.3939654189
 11
115.7362308783
 21
70.4674991974
  0
LINE
  5
5EA
100
AcDbEntity
  8
0
100
AcDbLine
 62
7
  6
CONTINUOUS
 10
115.5434105553
 20
74.634091613
 11
115.0670965832
 21
74.1692505824
  0
LINE
  5
5EB
100
AcDbEntity
  8
0
100
AcDbLine
 62
7
  6
CONTINUOUS
 10
115.5434105553
 20
74.7524782847
 11
113.2193497975
 21
72.6137640005
  0
LINE
  5
5EC
100
AcDbEntity
  8
0
100
AcDbLine
 62
7
  6
CONTINUOUS
 10
113.7511205185
 20
72.9922983065
 11
113.3110239625
 21
72.5872999486
  0
LINE
  5
5ED
100
AcDbEntity
  8
0
100
AcDbLine
 62
7
  6
CONTINUOUS
 10
115.1970003937
 20
74.2316008125
 11
115.5434105553
 21
74.5483735288
  0
LINE
  5
5EE
100
AcDbEntity
  8
0
100
AcDbLine
 62
7
  6
CONTINUOUS
 10
116.2589085516
 20
73.8252041021
 11
115.0540134817
 21
72.737472583
  0
LINE
  5
5EF
100
AcDbEntity
  8
RACCORDO
100
AcDbLine
 62
253
  6
CONTINUOUS
 10
126.9678431614
 20
83.6556468034
 11
121.5295321485
 21
78.7501604157
  0
LINE
  5
5F0
100
AcDbEntity
  8
0
100
AcDbLine
 62
253
  6
CONTINUOUS
 10
115.1970003937
 20
74.2106978357
 11
115.1296635102
 21
74.1511890664
  0
LWPOLYLINE
  5
5F1
100
AcDbEntity
  8
0
100
AcDbPolyline
 62
253
  6
CONTINUOUS
 90
11
 70
0
 10
113.082824396
 20
71.9219165797
 10
113.1212128022
 20
71.9557401293
 10
113.1596971497
 20
71.9967668624
 10
113.1941980315
 20
72.0416908074
 10
113.2245242419
 20
72.090262293
 10
113.2505041154
 20
72.1422081116
 10
113.2719917974
 20
72.1972375687
 10
113.2888705852
 20
72.2550462712
 10
113.3010456742
 20
72.3153110934
 10
113.3084448153
 20
72.3776919136
 10
113.3110239625
 20
72.4418380709
  0
LINE
  5
5F2
100
AcDbEntity
  8
0
100
AcDbLine
 62
253
  6
CONTINUOUS
 10
113.6130397683
 20
74.9433074389
 11
113.1730356202
 21
74.5749814491
  0
LINE
  5
5F3
100
AcDbEntity
  8
0
100
AcDbLine
 62
253
  6
CONTINUOUS
 10
113.6594463534
 20
74.5858239421
 11
113.2193497975
 21
74.2178619466
  0
LINE
  5
5F4
100
AcDbEntity
  8
0
100
AcDbLine
 62
253
  6
CONTINUOUS
 10
113.3110239625
 20
72.4418380709
 11
113.7511205185
 21
72.7951448999
  0
LINE
  5
5F5
100
AcDbEntity
  8
0
100
AcDbLine
 62
7
  6
CONTINUOUS
 10
113.0826609999
 20
71.9217853564
 11
113.716009362
 21
72.4302335558
  0
LWPOLYLINE
  5
5F6
100
AcDbEntity
  8
0
100
AcDbPolyline
 62
253
  6
CONTINUOUS
 90
10
 70
0
 10
113.1730353068
 20
74.5749826816
 10
113.1547036391
 20
74.5610583994
 10
113.1332221918
 20
74.5474484204
 10
113.1089504075
 20
74.5343804764
 10
113.0822944183
 20
74.5220732291
 10
113.0537002507
 20
74.5107326118
 10
113.0236463621
 20
74.5005483837
 10
112.9926356349
 20
74.4916909542
 10
112.9611869619
 20
74.484308532
 10
112.9441786205
 20
74.4811716352
  0
LINE
  5
5F7
100
AcDbEntity
  8
0
100
AcDbLine
 62
7
  6
CONTINUOUS
 10
116.2589085516
 20
76.6229807736
 11
115.0540134817
 21
75.74450224
  0
LWPOLYLINE
  5
5F8
100
AcDbEntity
  8
0
100
AcDbPolyline
 62
253
  6
CONTINUOUS
 90
11
 70
0
 10
113.2193497975
 20
74.2178611587
 10
113.2009361572
 20
74.2045689529
 10
113.1792449481
 20
74.192576408
 10
113.1546391225
 20
74.1820841915
 10
113.1275304019
 20
74.1732678663
 10
113.0983723882
 20
74.1662749534
 10
113.0676529734
 20
74.161222463
 10
113.0358861758
 20
74.1581949368
 10
113.0036035395
 20
74.1572430334
 10
112.9713452398
 20
74.1583826809
 10
112.9441786205
 20
74.161135951
  0
LWPOLYLINE
  5
5F9
100
AcDbEntity
  8
0
100
AcDbPolyline
 62
7
  6
CONTINUOUS
 90
6
 70
0
 10
119.4763299082
 20
119.2938192255
 10
119.446596437
 20
119.2937941241
 10
119.4164775841
 20
119.2903384972
 10
119.3862996673
 20
119.2833782036
 10
119.3562773419
 20
119.2728487512
 10
119.3265783191
 20
119.2586725903
  0
LWPOLYLINE
  5
5FA
100
AcDbEntity
  8
0
100
AcDbPolyline
 62
7
  6
CONTINUOUS
 90
7
 70
0
 10
112.2582853868
 20
118.9678074923
 10
112.3465181897
 20
118.9657854772
 10
112.4327912047
 20
118.9601064482
 10
112.5171044319
 20
118.9507704054
 10
112.5994578714
 20
118.9377773488
 10
112.679851523
 20
118.9211272784
 10
112.7582853868
 20
118.9008201942
  0
LINE
  5
5FB
100
AcDbEntity
  8
RACCORDO
100
AcDbLine
 62
7
  6
CONTINUOUS
 10
112.4391458738
 20
118.4746486118
 11
112.356840572
 21
118.4792732948
  0
LWPOLYLINE
  5
5FC
100
AcDbEntity
  8
RACCORDO
100
AcDbPolyline
 62
7
  6
CONTINUOUS
 90
5
 70
0
 10
112.4391447314
 20
118.4746487022
 10
112.4453682428
 20
118.474057429
 10
112.4539165188
 20
118.4729232295
 10
112.4624106935
 20
118.471421058
 10
112.4708377002
 20
118.4695526701
  0
LINE
  5
5FD
100
AcDbEntity
  8
RACCORDO
100
AcDbLine
 62
253
  6
CONTINUOUS
 10
112.4734761631
 20
118.4685570919
 11
112.4788132655
 21
118.467427567
  0
LWPOLYLINE
  5
5FE
100
AcDbEntity
  8
RACCORDO
100
AcDbPolyline
 62
7
  6
CONTINUOUS
 90
13
 70
0
 10
111.5512606521
 20
118.2100277374
 10
111.536062668
 20
118.2135629361
 10
111.5215768562
 20
118.2158087339
 10
111.5078705839
 20
118.2168516716
 10
111.4949831386
 20
118.21677288
 10
111.4829496501
 20
118.2156809758
 10
111.4718035128
 20
118.2137092932
 10
111.4615711907
 20
118.210967125
 10
111.4522038911
 20
118.2075437989
 10
111.4436182924
 20
118.2035221839
 10
111.4357702064
 20
118.1989628002
 10
111.4286611951
 20
118.1939468762
 10
111.4263654849
 20
118.1921172024
  0
LINE
  5
5FF
100
AcDbEntity
  8
RACCORDO
100
AcDbLine
 62
7
  6
CONTINUOUS
 10
112.4708377002
 20
118.4695526701
 11
112.4788178723
 21
118.4674262367
  0
LINE
  5
600
100
AcDbEntity
  8
RACCORDO
100
AcDbLine
 62
253
  6
CONTINUOUS
 10
112.5189229117
 20
117.7200342944
 11
113.4477762791
 21
117.4518974235
  0
LINE
  5
601
100
AcDbEntity
  8
RACCORDO
100
AcDbLine
 62
253
  6
CONTINUOUS
 10
114.9437940423
 20
117.0200342944
 11
115.8726474097
 21
116.7518974235
  0
LINE
  5
602
100
AcDbEntity
  8
RACCORDO
100
AcDbLine
 62
7
  6
CONTINUOUS
 10
116.7277261696
 20
116.7157108574
 11
111.5512606521
 21
118.2100277374
  0
LINE
  5
603
100
AcDbEntity
  8
RACCORDO
100
AcDbLine
 62
253
  6
CONTINUOUS
 10
117.0845518341
 20
117.103904905
 11
112.4242153527
 21
118.449228166
  0
LINE
  5
604
100
AcDbEntity
  8
RACCORDO
100
AcDbLine
 62
7
  6
CONTINUOUS
 10
117.1391492002
 20
117.1221044638
 11
112.4788127188
 21
118.4674277248
  0
LINE
  5
605
100
AcDbEntity
  8
0
100
AcDbLine
 62
7
  6
CONTINUOUS
 10
112.7582853868
 20
118.9008201942
 11
117.0884124057
 21
117.6508201942
  0
LINE
  5
606
100
AcDbEntity
  8
0
100
AcDbLine
 62
7
  6
CONTINUOUS
 10
113.0252726849
 20
119.6320379768
 11
118.0331888521
 21
118.1863771032
  0
LINE
  5
607
100
AcDbEntity
  8
RACCORDO
100
AcDbLine
 62
253
  6
CONTINUOUS
 10
125.9538574197
 20
116.2176191886
 11
124.6701043667
 21
116.588206774
  0
LINE
  5
608
100
AcDbEntity
  8
RACCORDO
100
AcDbLine
 62
253
  6
CONTINUOUS
 10
123.1406588577
 20
117.0297196621
 11
122.7460434729
 21
117.1436353114
  0
LINE
  5
609
100
AcDbEntity
  8
RACCORDO
100
AcDbLine
 62
7
  6
CONTINUOUS
 10
126.1404768679
 20
116.3121238041
 11
124.5217273568
 21
116.7794165371
  0
LINE
  5
60A
100
AcDbEntity
  8
RACCORDO
100
AcDbLine
 62
7
  6
CONTINUOUS
 10
123.2766013404
 20
117.1388534575
 11
122.7460434729
 21
117.2920123213
  0
LINE
  5
60B
100
AcDbEntity
  8
DRAFT
100
AcDbLine
 62
7
  6
CONTINUOUS
 10
124.4317577336
 20
116.8953581534
 11
123.3590311855
 21
117.205027634
  0
LINE
  5
60C
100
AcDbEntity
  8
DRAFT
100
AcDbLine
 62
7
  6
CONTINUOUS
 10
110.290395479
 20
120.9776178056
 11
109.314940059
 21
121.2592075302
  0
LWPOLYLINE
  5
60D
100
AcDbEntity
  8
RACCORDO
100
AcDbPolyline
 62
7
  6
CONTINUOUS
 90
7
 70
0
 10
117.1391374594
 20
117.122107851
 10
117.1481495217
 20
117.1192746743
 10
117.1575586759
 20
117.1158049773
 10
117.1667844446
 20
117.11186691
 10
117.1758175409
 20
117.1074627141
 10
117.1846352965
 20
117.1026002141
 10
117.1890661902
 20
117.099931787
  0
LWPOLYLINE
  5
60E
100
AcDbEntity
  8
0
100
AcDbPolyline
 62
7
  6
CONTINUOUS
 90
7
 70
0
 10
117.0884124057
 20
117.6508201942
 10
117.1628022393
 20
117.627010877
 10
117.231837833
 20
117.6005244399
 10
117.2955191869
 20
117.5713608829
 10
117.353846301
 20
117.5395202059
 10
117.4068191752
 20
117.5050024091
 10
117.4544378095
 20
117.4678074923
  0
LWPOLYLINE
  5
60F
100
AcDbEntity
  8
RACCORDO
100
AcDbPolyline
 62
253
  6
CONTINUOUS
 90
16
 70
0
 10
113.4477762791
 20
117.4518974235
 10
113.4898450414
 20
117.4376341019
 10
113.5284187012
 20
117.4204796594
 10
113.5634972584
 20
117.400434096
 10
113.5953860036
 20
117.3772825036
 10
113.6237796462
 20
117.3512397902
 10
113.6477623144
 20
117.3229506803
 10
113.6672437549
 20
117.2923244798
 10
113.682314221
 20
117.2594518826
 10
113.6923286009
 20
117.2252496948
 10
113.6971336093
 20
117.1896428314
 10
113.6968825315
 20
117.1527063774
 10
113.6913901114
 20
117.1155823927
 10
113.680594597
 20
117.0786515643
 10
113.6645577402
 20
117.0415332053
 10
113.6432795412
 20
117.0042273157
  0
LWPOLYLINE
  5
610
100
AcDbEntity
  8
RACCORDO
100
AcDbPolyline
 62
253
  6
CONTINUOUS
 90
16
 70
0
 10
115.8726474097
 20
116.7518974235
 10
115.914716172
 20
116.7376341019
 10
115.9532898318
 20
116.7204796594
 10
115.988368389
 20
116.700434096
 10
116.0202571342
 20
116.6772825036
 10
116.0486507768
 20
116.6512397902
 10
116.072633445
 20
116.6229506803
 10
116.0921148855
 20
116.5923244798
 10
116.1071853516
 20
116.5594518826
 10
116.1171997315
 20
116.5252496948
 10
116.1220047399
 20
116.4896428314
 10
116.1217536621
 20
116.4527063774
 10
116.116261242
 20
116.4155823927
 10
116.1054657276
 20
116.3786515643
 10
116.0894288708
 20
116.3415332053
 10
116.0681506718
 20
116.3042273157
  0
LWPOLYLINE
  5
611
100
AcDbEntity
  8
RACCORDO
100
AcDbPolyline
 62
253
  6
CONTINUOUS
 90
12
 70
0
 10
113.3753400147
 20
117.2226703687
 10
113.4002243828
 20
117.2140031258
 10
113.4234606435
 20
117.2029508052
 10
113.4448074938
 20
117.1895952568
 10
113.4640270776
 20
117.1740003096
 10
113.4809278634
 20
117.156303096
 10
113.4953503402
 20
117.1367074498
 10
113.507120621
 20
117.1152925479
 10
113.5160725424
 20
117.0922332825
 10
113.5220765335
 20
117.0678868582
 10
113.5250287106
 20
117.0423620876
 10
113.5253397712
 20
117.0309926903
  0
LWPOLYLINE
  5
612
100
AcDbEntity
  8
RACCORDO
100
AcDbPolyline
 62
253
  6
CONTINUOUS
 90
12
 70
0
 10
115.8002111453
 20
116.5226703687
 10
115.8250955134
 20
116.5140031258
 10
115.8483317741
 20
116.5029508052
 10
115.8696786244
 20
116.4895952568
 10
115.8888982082
 20
116.4740003096
 10
115.905798994
 20
116.456303096
 10
115.9202214708
 20
116.4367074498
 10
115.9319917516
 20
116.4152925479
 10
115.940943673
 20
116.3922332825
 10
115.9469476641
 20
116.3678868582
 10
115.9498998412
 20
116.3423620876
 10
115.9502109018
 20
116.3309926903
  0
LWPOLYLINE
  5
613
100
AcDbEntity
  8
RACCORDO
100
AcDbPolyline
 62
253
  6
CONTINUOUS
 90
13
 70
0
 10
114.2744587583
 20
116.8220215702
 10
114.2964385801
 20
116.813512388
 10
114.3185120344
 20
116.8027502687
 10
114.3403083129
 20
116.7899160555
 10
114.3614612726
 20
116.775225396
 10
114.3816156026
 20
116.7589251076
 10
114.400432789
 20
116.7412890258
 10
114.4175967632
 20
116.722613438
 10
114.4328192627
 20
116.703212057
 10
114.4458446663
 20
116.683410731
 10
114.4564542214
 20
116.6635420524
 10
114.4644697364
 20
116.6439397753
 10
114.4697566087
 20
116.6249331538
  0
LINE
  5
614
100
AcDbEntity
  8
RACCORDO
100
AcDbLine
 62
253
  6
CONTINUOUS
 10
117.128377342
 20
117.0739154267
 11
117.0845518341
 21
117.103904905
  0
LINE
  5
615
100
AcDbEntity
  8
RACCORDO
100
AcDbLine
 62
253
  6
CONTINUOUS
 10
117.1423707305
 20
117.0622676071
 11
117.128377342
 21
117.0739154267
  0
LWPOLYLINE
  5
616
100
AcDbEntity
  8
RACCORDO
100
AcDbPolyline
 62
253
  6
CONTINUOUS
 90
26
 70
0
 10
131.7355667403
 20
105.5122812385
 10
131.7628389368
 20
105.4890814473
 10
131.9074056061
 20
105.3525672619
 10
132.0451657546
 20
105.2083714965
 10
132.1754768337
 20
105.0571667175
 10
132.2977310369
 20
104.8996581848
 10
132.4113581355
 20
104.7365805632
 10
132.5158281401
 20
104.5686944931
 10
132.6106537734
 20
104.3967830425
 10
132.6953927424
 20
104.2216480539
 10
132.7696498014
 20
104.0441064053
 10
132.8330785946
 20
103.8649862002
 10
132.8853832725
 20
103.6851229053
 10
132.9263198715
 20
103.5053554532
 10
132.9556974518
 20
103.3265223294
 10
132.9733789882
 20
103.1494576614
 10
132.9792820091
 20
102.974987328
 10
132.9733789812
 20
102.8039251076
 10
132.9556974378
 20
102.637068882
 10
132.9263198506
 20
102.4751969151
 10
132.8853832447
 20
102.3190642228
 10
132.83307856
 20
102.1693990515
 10
132.76964976
 20
102.0268994815
 10
132.6953926945
 20
101.8922301705
 10
132.6106537191
 20
101.7660192535
 10
132.5164427165
 20
101.6495488926
  0
LWPOLYLINE
  5
617
100
AcDbEntity
  8
RACCORDO
100
AcDbPolyline
 62
7
  6
CONTINUOUS
 90
25
 70
0
 10
131.7355667403
 20
105.5878913711
 10
131.8746327417
 20
105.4646926043
 10
132.0201969011
 20
105.3208556706
 10
132.1579278674
 20
105.1691883396
 10
132.2872041182
 20
105.010406294
 10
132.4074316791
 20
104.8452536846
 10
132.5180199915
 20
104.6745464195
 10
132.6184785633
 20
104.4990266535
 10
132.7083019259
 20
104.3195367151
 10
132.7869784626
 20
104.1370726249
 10
132.8541652997
 20
103.9523947611
 10
132.90950611
 20
103.7664047044
 10
132.9526419708
 20
103.5803175239
 10
132.9833952857
 20
103.3950511867
 10
133.0016662271
 20
103.2113438431
 10
133.0073763913
 20
103.0301173147
 10
133.0005043786
 20
102.8520483753
 10
132.981075404
 20
102.6780611402
 10
132.9492759752
 20
102.50939965
 10
132.905391166
 20
102.346956718
 10
132.8496848893
 20
102.1912775017
 10
132.7824978019
 20
102.0430422868
 10
132.7042375642
 20
101.9029244292
 10
132.6153756586
 20
101.7715627218
 10
132.5164427165
 20
101.6495488926
  0
LWPOLYLINE
  5
618
100
AcDbEntity
  8
0
100
AcDbPolyline
 62
253
  6
CONTINUOUS
 90
8
 70
0
 10
114.1266072275
 20
120.6330231431
 10
114.1375915937
 20
120.623175667
 10
114.1472751263
 20
120.6105622296
 10
114.1556257193
 20
120.5950497959
 10
114.1626754787
 20
120.5767714009
 10
114.1681886322
 20
120.5564234975
 10
114.172086589
 20
120.5342382365
 10
114.1744479399
 20
120.5099834671
  0
LWPOLYLINE
  5
619
100
AcDbEntity
  8
RACCORDO
100
AcDbPolyline
 62
253
  6
CONTINUOUS
 90
11
 70
0
 10
118.7427796433
 20
118.8186937764
 10
118.7159018116
 20
118.8558395773
 10
118.6657386302
 20
118.9162018707
 10
118.6116807401
 20
118.973050429
 10
118.55413948
 20
119.0259526186
 10
118.4935526038
 20
119.0745059438
 10
118.4303810265
 20
119.1183410029
 10
118.365105446
 20
119.1571242216
 10
118.2982225071
 20
119.1905605256
 10
118.2302410099
 20
119.2183955592
 10
118.1616781477
 20
119.2404175574
  0
LWPOLYLINE
  5
61A
100
AcDbEntity
  8
0
100
AcDbPolyline
 62
7
  6
CONTINUOUS
 90
9
 70
0
 10
117.5517016098
 20
117.6965284432
 10
117.5433939617
 20
117.7092619616
 10
117.5347374474
 20
117.7193897929
 10
117.5258559801
 20
117.7269206346
 10
117.516803971
 20
117.7318299911
 10
117.5077444353
 20
117.7341642043
 10
117.4989853196
 20
117.7340475422
 10
117.4906988291
 20
117.7314904862
 10
117.482606447
 20
117.7262424305
  0
LWPOLYLINE
  5
61B
100
AcDbEntity
  8
RACCORDO
100
AcDbPolyline
 62
7
  6
CONTINUOUS
 90
11
 70
0
 10
127.0937633022
 20
107.4124973879
 10
127.0954317736
 20
107.4081947103
 10
127.0961408188
 20
107.4061695725
 10
127.0951518992
 20
107.4097398464
 10
127.0929652835
 20
107.4191681147
 10
127.0901170425
 20
107.4343586492
 10
127.0870615334
 20
107.4553750555
 10
127.084219315
 20
107.4823470454
 10
127.0819975125
 20
107.515352079
 10
127.0807864809
 20
107.5544601174
 10
127.0806752977
 20
107.5707497439
  0
LWPOLYLINE
  5
61C
100
AcDbEntity
  8
RACCORDO
100
AcDbPolyline
 62
7
  6
CONTINUOUS
 90
17
 70
0
 10
131.7355667008
 20
110.4329011761
 10
131.7346612192
 20
110.4733965117
 10
131.7278879021
 20
110.5503501523
 10
131.7145231442
 20
110.6265174821
 10
131.6946343959
 20
110.701367883
 10
131.6682952931
 20
110.7744480466
 10
131.6356340429
 20
110.8452145259
 10
131.5968495125
 20
110.9130851373
 10
131.5521578839
 20
110.9775500797
 10
131.5018292804
 20
111.0380917869
 10
131.446205221
 20
111.0941855768
 10
131.3856755066
 20
111.1453409331
 10
131.3206390735
 20
111.1911274679
 10
131.2515922014
 20
111.231109015
 10
131.1791526434
 20
111.264869132
 10
131.1039162707
 20
111.292097141
 10
131.0852898587
 20
111.2976953827
  0
LINE
  5
61D
100
AcDbEntity
  8
RACCORDO
100
AcDbLine
 62
253
  6
CONTINUOUS
 10
131.7352082671
 20
100.8057416639
 11
131.7355667402
 21
100.7886697674
  0
LWPOLYLINE
  5
61E
100
AcDbEntity
  8
RACCORDO
100
AcDbPolyline
 62
253
  6
CONTINUOUS
 90
3
 70
0
 10
131.7824439377
 20
103.100390297
 10
131.7832616737
 20
103.054366759
 10
131.7831916284
 20
103.0096589764
  0
LINE
  5
61F
100
AcDbEntity
  8
RACCORDO
100
AcDbLine
 62
253
  6
CONTINUOUS
 10
131.6227244768
 20
110.2148702477
 11
131.6227244768
 21
102.5364800902
  0
LINE
  5
620
100
AcDbEntity
  8
RACCORDO
100
AcDbLine
 62
253
  6
CONTINUOUS
 10
131.6227244768
 20
100.8360174013
 11
131.6227244768
 21
95.9722098062
  0
LINE
  5
621
100
AcDbEntity
  8
RACCORDO
100
AcDbLine
 62
7
  6
CONTINUOUS
 10
131.7355667403
 20
110.4330345768
 11
131.7355667403
 21
103.0209143836
  0
LINE
  5
622
100
AcDbEntity
  8
RACCORDO
100
AcDbLine
 62
7
  6
CONTINUOUS
 10
131.7355667403
 20
100.7886145939
 11
131.7355667403
 21
96.1903741353
  0
LINE
  5
623
100
AcDbEntity
  8
RACCORDO
100
AcDbLine
 62
7
  6
CONTINUOUS
 10
131.7355667316
 20
103.0199142224
 11
131.7355666911
 21
103.0196226754
  0
LWPOLYLINE
  5
624
100
AcDbEntity
  8
RACCORDO
100
AcDbPolyline
 62
253
  6
CONTINUOUS
 90
20
 70
0
 10
131.7355666911
 20
103.0196226754
 10
131.7352603475
 20
102.980846213
 10
131.7343070857
 20
102.9413270818
 10
131.7327274935
 20
102.9031349174
 10
131.7305266367
 20
102.8663289711
 10
131.7277121557
 20
102.8308643817
 10
131.7242949294
 20
102.7968016389
 10
131.720264579
 20
102.7643587153
 10
131.7156214182
 20
102.7335048378
 10
131.7103689152
 20
102.7042869729
 10
131.7044864814
 20
102.6770410989
 10
131.6979631922
 20
102.6517486665
 10
131.6908018571
 20
102.6284465691
 10
131.6829953464
 20
102.6075551203
 10
131.6745316657
 20
102.5891361107
 10
131.6654159291
 20
102.5731474553
 10
131.6556710337
 20
102.5598531392
 10
131.6453088713
 20
102.5493468045
 10
131.634325295
 20
102.5415527597
 10
131.6227244768
 20
102.5364800902
  0
LWPOLYLINE
  5
625
100
AcDbEntity
  8
RACCORDO
100
AcDbPolyline
 62
7
  6
CONTINUOUS
 90
5
 70
0
 10
131.7355669665
 20
100.7882080474
 10
131.7356603993
 20
100.7931186749
 10
131.7360797865
 20
100.7985334548
 10
131.7363149238
 20
100.8001511043
 10
131.7363063865
 20
100.8001043724
  0
LWPOLYLINE
  5
626
100
AcDbEntity
  8
RACCORDO
100
AcDbPolyline
 62
253
  6
CONTINUOUS
 90
15
 70
0
 10
131.7831916284
 20
103.0096589764
 10
131.7822584027
 20
102.9662723401
 10
131.7804797885
 20
102.924142894
 10
131.7779097305
 20
102.8832385546
 10
131.7745664458
 20
102.8436114729
 10
131.7704133139
 20
102.8053222298
 10
131.76549738
 20
102.7683255539
 10
131.7598389237
 20
102.7326817713
 10
131.7533660219
 20
102.6986096493
 10
131.7461210377
 20
102.6660769467
 10
131.7381261084
 20
102.6351284943
 10
131.7292858757
 20
102.6060995781
 10
131.719589669
 20
102.5791063927
 10
131.7091050226
 20
102.5540450559
 10
131.6978534467
 20
102.5309212951
  0
LWPOLYLINE
  5
627
100
AcDbEntity
  8
RACCORDO
100
AcDbPolyline
 62
253
  6
CONTINUOUS
 90
9
 70
0
 10
131.6227244768
 20
95.9722098062
 10
131.620385144
 20
95.9056249623
 10
131.6120558025
 20
95.8412125599
 10
131.5977997954
 20
95.7794643107
 10
131.5777255974
 20
95.7208513528
 10
131.5519862642
 20
95.6658214984
 10
131.5207785338
 20
95.6147956353
 10
131.4843379632
 20
95.5681601842
 10
131.4498187048
 20
95.5325789864
  0
LWPOLYLINE
  5
628
100
AcDbEntity
  8
RACCORDO
100
AcDbPolyline
 62
253
  6
CONTINUOUS
 90
7
 70
0
 10
131.7355667403
 20
96.1903780414
 10
131.7331521401
 20
96.1574330892
 10
131.7240883455
 20
96.1187337885
 10
131.7083660759
 20
96.0805773687
 10
131.6861116674
 20
96.043257407
 10
131.657492085
 20
96.0070446996
 10
131.6227244768
 20
95.9722098062
  0
LWPOLYLINE
  5
629
100
AcDbEntity
  8
RACCORDO
100
AcDbPolyline
 62
7
  6
CONTINUOUS
 90
4
 70
0
 10
131.7181312492
 20
96.0140792873
 10
131.7302698763
 20
96.0928738869
 10
131.7353933493
 20
96.1727085341
 10
131.7355667349
 20
96.190423775
  0
LINE
  5
62A
100
AcDbEntity
  8
RACCORDO
100
AcDbLine
 62
7
  6
CONTINUOUS
 10
131.6991444216
 20
95.9369306765
 11
131.7181312492
 21
96.0140792873
  0
LWPOLYLINE
  5
62B
100
AcDbEntity
  8
0
100
AcDbPolyline
 62
253
  6
CONTINUOUS
 90
3
 70
0
 10
115.2803153664
 20
68.5640542575
 10
115.2676697823
 20
68.5488764172
 10
115.2646353865
 20
68.5459357806
  0
LWPOLYLINE
  5
62C
100
AcDbEntity
  8
0
100
AcDbPolyline
 62
253
  6
CONTINUOUS
 90
5
 70
0
 10
115.3031059977
 20
69.0511711379
 10
115.3141587622
 20
69.0628666924
 10
115.3220996362
 20
69.0751777656
 10
115.3267957476
 20
69.0878983602
 10
115.3281820562
 20
69.0996521
  0
LWPOLYLINE
  5
62D
100
AcDbEntity
  8
RACCORDO
100
AcDbPolyline
 62
253
  6
CONTINUOUS
 90
7
 70
0
 10
126.9678431614
 20
83.6556468034
 10
127.0025210058
 20
83.6903811198
 10
127.0310823197
 20
83.7264806184
 10
127.0533145349
 20
83.7636766277
 10
127.0690521877
 20
83.8016923157
 10
127.0781781502
 20
83.8402447496
 10
127.080685425
 20
83.8738111325
  0
LWPOLYLINE
  5
62E
100
AcDbEntity
  8
0
100
AcDbPolyline
 62
7
  6
CONTINUOUS
 90
7
 70
0
 10
115.2645026373
 20
68.5458120996
 10
115.2723174286
 20
68.5535022392
 10
115.2891211685
 20
68.573419005
 10
115.3032229298
 20
68.5954057937
 10
115.3143921464
 20
68.6191783705
 10
115.3223880776
 20
68.6443650304
 10
115.3270065341
 20
68.6705045813
  0
LWPOLYLINE
  5
62F
100
AcDbEntity
  8
RACCORDO
100
AcDbPolyline
 62
7
  6
CONTINUOUS
 90
10
 70
0
 10
126.60649422
 20
82.7606353173
 10
126.6769289386
 20
82.8296333534
 10
126.7428334579
 20
82.9039301894
 10
126.803798197
 20
82.983246325
 10
126.8593842841
 20
83.0671651827
 10
126.9093193181
 20
83.1554174824
 10
126.9534430503
 20
83.2479481212
 10
126.9914584924
 20
83.3444705264
 10
127.0230413825
 20
83.4445241667
 10
127.0479760222
 20
83.5478565646
  0
LWPOLYLINE
  5
630
100
AcDbEntity
  8
0
100
AcDbPolyline
 62
7
  6
CONTINUOUS
 90
4
 70
0
 10
114.8743466696
 20
68.1817186292
 10
114.8777222312
 20
68.1850034272
 10
114.8903064275
 20
68.2002057581
 10
114.9003263388
 20
68.2176323664
  0
LWPOLYLINE
  5
631
100
AcDbEntity
  8
RACCORDO
100
AcDbPolyline
 62
253
  6
CONTINUOUS
 90
12
 70
0
 10
126.60649422
 20
82.7606353173
 10
126.6449560505
 20
82.7976615323
 10
126.7045130395
 20
82.8635805918
 10
126.7585067491
 20
82.9348228979
 10
126.8067059696
 20
83.0110833802
 10
126.8489043039
 20
83.0920354787
 10
126.8849210523
 20
83.177332544
 10
126.9146019854
 20
83.2666093212
 10
126.9378200048
 20
83.3594835121
 10
126.9544756875
 20
83.4555574148
 10
126.9644977115
 20
83.5544196263
 10
126.9678431614
 20
83.6556468034
  0
LWPOLYLINE
  5
632
100
AcDbEntity
  8
RACCORDO
100
AcDbPolyline
 62
253
  6
CONTINUOUS
 90
16
 70
0
 10
112.1943608193
 20
67.7794019604
 10
112.1655436628
 20
67.7517728739
 10
112.1325138326
 20
67.7258210458
 10
112.0956213798
 20
67.7018215142
 10
112.0552572919
 20
67.680028627
 10
112.0118493489
 20
67.660673346
 10
111.9658575896
 20
67.643960799
 10
111.9177694362
 20
67.6300681063
 10
111.8680945285
 20
67.6191425029
 10
111.8173593229
 20
67.6112997789
 10
111.7661015127
 20
67.6066230516
 10
111.71486433
 20
67.6051618854
 10
111.6641907881
 20
67.6069317654
 10
111.614617927
 20
67.6119139343
 10
111.5666711215
 20
67.6200555912
 10
111.5208585134
 20
67.6312704504
  0
LINE
  5
633
100
AcDbEntity
  8
0
100
AcDbLine
 62
253
  6
CONTINUOUS
 10
115.7362308783
 20
70.1210230859
 11
116.2211143486
 21
70.5735160837
  0
LINE
  5
634
100
AcDbEntity
  8
0
100
AcDbLine
 62
7
  6
CONTINUOUS
 10
115.6377539778
 20
69.8745270725
 11
116.1232593829
 21
70.3276004595
  0
LINE
  5
635
100
AcDbEntity
  8
DRAFT
100
AcDbLine
 62
7
  6
CONTINUOUS
 10
126.60649422
 20
82.7606353173
 11
121.4814374743
 21
78.0799375646
  0
LINE
  5
636
100
AcDbEntity
  8
0
100
AcDbLine
 62
253
  6
CONTINUOUS
 10
116.3228334187
 20
73.6713844857
 11
121.493477682
 21
78.2737961059
  0
LINE
  5
637
100
AcDbEntity
  8
RACCORDO
100
AcDbLine
 62
7
  6
CONTINUOUS
 10
116.2589085516
 20
72.9787973966
 11
121.0822870727
 21
77.2721063583
  0
LWPOLYLINE
  5
638
100
AcDbEntity
  8
0
100
AcDbPolyline
 62
7
  6
CONTINUOUS
 90
3
 70
0
 10
115.6376065868
 20
69.8743895628
 10
115.6241053404
 20
69.8625777092
 10
115.6113012804
 20
69.8526713161
  0
LWPOLYLINE
  5
639
100
AcDbEntity
  8
0
100
AcDbPolyline
 62
7
  6
CONTINUOUS
 90
3
 70
0
 10
114.6769403374
 20
72.2187450492
 10
114.690095447
 20
72.2279128746
 10
114.703783056
 20
72.2377843979
  0
LWPOLYLINE
  5
63A
100
AcDbEntity
  8
0
100
AcDbPolyline
 62
7
  6
CONTINUOUS
 90
4
 70
0
 10
112.9441786205
 20
71.8368006035
 10
112.9860158094
 20
71.8570611032
 10
113.0479057013
 20
71.8956944031
 10
113.0828831472
 20
71.9219695326
  0
LWPOLYLINE
  5
63B
100
AcDbEntity
  8
0
100
AcDbPolyline
 62
7
  6
CONTINUOUS
 90
20
 70
0
 10
111.3394391917
 20
121.649366327
 10
111.3224814412
 20
121.6529894036
 10
111.3055768458
 20
121.6554036022
 10
111.2888260703
 20
121.6566513688
 10
111.2724361913
 20
121.6567871688
 10
111.2564429817
 20
121.6558883522
 10
111.2409355009
 20
121.6540357347
 10
111.2261720885
 20
121.651357448
 10
111.2120629032
 20
121.6479410426
 10
111.1987216354
 20
121.6439142535
 10
111.1866256128
 20
121.6395703788
 10
111.1757639662
 20
121.6350907608
 10
111.1659380259
 20
121.6305585823
 10
111.1572608075
 20
121.6261809044
 10
111.1498701758
 20
121.6221873715
 10
111.1433417085
 20
121.6184748058
 10
111.1370000992
 20
121.6147230913
 10
111.1307342403
 20
121.6108971873
 10
111.1245105029
 20
121.6070005053
 10
111.119770742
 20
121.6039793971
  0
LWPOLYLINE
  5
63C
100
AcDbEntity
  8
0
100
AcDbPolyline
 62
253
  6
CONTINUOUS
 90
6
 70
0
 10
119.39899329
 20
119.2404806875
 10
119.3763705596
 20
119.2455124989
 10
119.3541050488
 20
119.2474692181
 10
119.3325777267
 20
119.2463173652
 10
119.3121569317
 20
119.2420766487
 10
119.2931920694
 20
119.2348196284
  0
LWPOLYLINE
  5
63D
100
AcDbEntity
  8
RACCORDO
100
AcDbPolyline
 62
253
  6
CONTINUOUS
 90
5
 70
0
 10
123.4151666908
 20
120.6533548696
 10
123.3572232012
 20
120.6662621328
 10
123.2805057198
 20
120.6724458452
 10
123.2010965263
 20
120.6670538115
 10
123.1470285986
 20
120.6558422257
  0
LWPOLYLINE
  5
63E
100
AcDbEntity
  8
0
100
AcDbPolyline
 62
253
  6
CONTINUOUS
 90
7
 70
0
 10
119.5333052374
 20
119.2841398401
 10
119.522140835
 20
119.2866383453
 10
119.4992290753
 20
119.2876309192
 10
119.4751966111
 20
119.283439102
 10
119.4503009338
 20
119.2741078062
 10
119.4248087832
 20
119.2597370103
 10
119.39899329
 20
119.2404806875
  0
LWPOLYLINE
  5
63F
100
AcDbEntity
  8
0
100
AcDbPolyline
 62
7
  6
CONTINUOUS
 90
3
 70
0
 10
119.5333052374
 20
119.2841398401
 10
119.5053365223
 20
119.2905418464
 10
119.4763299082
 20
119.2938192255
  0
LWPOLYLINE
  5
640
100
AcDbEntity
  8
0
100
AcDbPolyline
 62
253
  6
CONTINUOUS
 90
9
 70
0
 10
111.3480081401
 20
121.6470314364
 10
111.3462804842
 20
121.6474375236
 10
111.337290202
 20
121.6475474496
 10
111.3262856424
 20
121.6449054733
 10
111.3134602365
 20
121.6395649701
 10
111.2989891613
 20
121.6316383037
 10
111.2830186583
 20
121.621265239
 10
111.2656600982
 20
121.6085835993
 10
111.2470339506
 20
121.593748647
  0
LWPOLYLINE
  5
641
100
AcDbEntity
  8
0
100
AcDbPolyline
 62
253
  6
CONTINUOUS
 90
10
 70
0
 10
111.2470339506
 20
121.593748647
 10
111.2282516278
 20
121.5984441771
 10
111.2095956506
 20
121.6014420966
 10
111.1912080023
 20
121.6027195906
 10
111.1732286253
 20
121.6022669376
 10
111.1557943515
 20
121.6000875843
 10
111.1390378619
 20
121.5961981176
 10
111.1230866821
 20
121.5906281377
 10
111.108062212
 20
121.5834200354
 10
111.0940787969
 20
121.5746286682
  0
LINE
  5
642
100
AcDbEntity
  8
0
100
AcDbLine
 62
7
  6
CONTINUOUS
 10
111.3480808676
 20
121.6470402435
 11
111.3394391917
 21
121.649366327
  0
LINE
  5
643
100
AcDbEntity
  8
0
100
AcDbLine
 62
7
  6
CONTINUOUS
 10
114.2020676042
 20
120.1294844354
 11
118.7776816061
 21
118.8086184476
  0
LINE
  5
644
100
AcDbEntity
  8
0
100
AcDbLine
 62
253
  6
CONTINUOUS
 10
111.2470339506
 20
121.593748647
 11
113.8564307058
 21
120.8404806875
  0
LINE
  5
645
100
AcDbEntity
  8
0
100
AcDbLine
 62
253
  6
CONTINUOUS
 10
119.39899329
 20
119.2404806875
 11
122.0083900451
 21
118.487212728
  0
LINE
  5
646
100
AcDbEntity
  8
0
100
AcDbLine
 62
7
  6
CONTINUOUS
 10
111.3467719272
 20
121.6473884453
 11
113.9907426532
 21
120.8841398401
  0
LINE
  5
647
100
AcDbEntity
  8
0
100
AcDbLine
 62
7
  6
CONTINUOUS
 10
119.5333052374
 20
119.2841398401
 11
122.1772786404
 21
118.5208904621
  0
LWPOLYLINE
  5
648
100
AcDbEntity
  8
0
100
AcDbPolyline
 62
253
  6
CONTINUOUS
 90
10
 70
0
 10
122.0083900451
 20
118.487212728
 10
122.0273519969
 20
118.4810128714
 10
122.0461512909
 20
118.4731979221
 10
122.0646448532
 20
118.4638277571
 10
122.0826918207
 20
118.4529741781
 10
122.1001551355
 20
118.4407200508
 10
122.1169025249
 20
118.4271585371
 10
122.132806816
 20
118.4123928673
 10
122.1477469646
 20
118.3965356805
 10
122.1616094542
 20
118.3797077661
  0
LWPOLYLINE
  5
649
100
AcDbEntity
  8
0
100
AcDbPolyline
 62
253
  6
CONTINUOUS
 90
13
 70
0
 10
113.8564307058
 20
120.8404806875
 10
113.8790235751
 20
120.8324598795
 10
113.9012000125
 20
120.8215873132
 10
113.9225805732
 20
120.8080490212
 10
113.9427994297
 20
120.7920766474
 10
113.9615106318
 20
120.7739434836
 10
113.9783940255
 20
120.7539597936
 10
113.993160731
 20
120.732467504
 10
114.0055580863
 20
120.7098343538
 10
114.0153739693
 20
120.6864476021
 10
114.0224404276
 20
120.6627074027
 10
114.0266365521
 20
120.6390199571
 10
114.0278905459
 20
120.615790564
  0
LWPOLYLINE
  5
64A
100
AcDbEntity
  8
RACCORDO
100
AcDbPolyline
 62
7
  6
CONTINUOUS
 90
3
 70
0
 10
126.1415578411
 20
116.3118117159
 10
126.1513145386
 20
116.3076182212
 10
126.1628386212
 20
116.2972672811
  0
LWPOLYLINE
  5
64B
100
AcDbEntity
  8
0
100
AcDbPolyline
 62
253
  6
CONTINUOUS
 90
8
 70
0
 10
122.5454839868
 20
118.2194764199
 10
122.5452428282
 20
118.219797293
 10
122.5420605351
 20
118.2209008144
 10
122.5361160454
 20
118.2202929785
 10
122.5274872998
 20
118.2179817583
 10
122.5162874343
 20
118.2139974611
 10
122.5026632963
 20
118.2083923313
 10
122.4867935198
 20
118.2012398656
  0
LWPOLYLINE
  5
64C
100
AcDbEntity
  8
0
100
AcDbPolyline
 62
7
  6
CONTINUOUS
 90
6
 70
0
 10
122.5281058445
 20
118.2469687102
 10
122.4978384274
 20
118.2894692542
 10
122.4649401658
 20
118.3295358687
 10
122.4296444395
 20
118.3668552435
 10
122.3924165568
 20
118.4009423003
 10
122.3534792886
 20
118.4316018356
  0
LINE
  5
64D
100
AcDbEntity
  8
0
100
AcDbLine
 62
7
  6
CONTINUOUS
 10
122.5454832612
 20
118.2194695158
 11
122.5281058445
 21
118.2469687102
  0
LINE
  5
64E
100
AcDbEntity
  8
0
100
AcDbLine
 62
253
  6
CONTINUOUS
 10
122.4867935198
 20
118.2012398656
 11
122.5133704364
 21
118.1558234172
  0
LWPOLYLINE
  5
64F
100
AcDbEntity
  8
0
100
AcDbPolyline
 62
253
  6
CONTINUOUS
 90
18
 70
0
 10
122.5133704364
 20
118.1558234172
 10
122.5379911539
 20
118.1097505871
 10
122.5606556724
 20
118.0630213751
 10
122.581676931
 20
118.015089393
 10
122.6007419906
 20
117.966501029
 10
122.6169120338
 20
117.9188954485
 10
122.6299646812
 20
117.8723313484
 10
122.6401223124
 20
117.8267500318
 10
122.6471132485
 20
117.7836145726
 10
122.6507314174
 20
117.7432349338
 10
122.6511828914
 20
117.7053011524
 10
122.6488142085
 20
117.6703464134
 10
122.6435902084
 20
117.6385476978
 10
122.6355460515
 20
117.6097280245
 10
122.6251337568
 20
117.5838896351
 10
122.6125039974
 20
117.5610332767
 10
122.5975061003
 20
117.541158202
 10
122.5801400656
 20
117.5242644112
  0
LINE
  5
650
100
AcDbEntity
  8
0
100
AcDbLine
 62
253
  6
CONTINUOUS
 10
114.9135067447
 20
68.2801016868
 11
115.3031059977
 21
68.6436755034
  0
LINE
  5
651
100
AcDbEntity
  8
0
100
AcDbLine
 62
7
  6
CONTINUOUS
 10
114.8743814592
 20
68.1817510223
 11
115.264635245
 21
68.5459356486
  0
LWPOLYLINE
  5
652
100
AcDbEntity
  8
0
100
AcDbPolyline
 62
253
  6
CONTINUOUS
 90
7
 70
0
 10
113.6807117849
 20
67.223076553
 10
113.6904337721
 20
67.2318553606
 10
113.7030831248
 20
67.2471094502
 10
113.7132083913
 20
67.2646199918
 10
113.7206363926
 20
67.2840874912
 10
113.7252400828
 20
67.3051789831
 10
113.7269407219
 20
67.3275337259
  0
LINE
  5
653
100
AcDbEntity
  8
0
100
AcDbLine
 62
7
  6
CONTINUOUS
 10
114.8680196399
 20
68.1762400523
 11
114.8743466696
 21
68.1817186292
  0
LWPOLYLINE
  5
654
100
AcDbEntity
  8
0
100
AcDbPolyline
 62
253
  6
CONTINUOUS
 90
10
 70
0
 10
114.927158874
 20
69.3538692187
 10
114.9499372753
 20
69.3723963481
 10
114.9731382531
 20
69.395896357
 10
114.9936882769
 20
69.4221005226
 10
115.0114264831
 20
69.4508071688
 10
115.0262152001
 20
69.4817967652
 10
115.0379492918
 20
69.5148398179
 10
115.0465386305
 20
69.5496851974
 10
115.05190882
 20
69.5860620646
 10
115.0540134817
 20
69.6236904592
  0
LINE
  5
655
100
AcDbEntity
  8
0
100
AcDbLine
 62
253
  6
CONTINUOUS
 10
113.7269407219
 20
67.3275337259
 11
114.9135067447
 21
68.2801016868
  0
LINE
  5
656
100
AcDbEntity
  8
0
100
AcDbLine
 62
7
  6
CONTINUOUS
 10
113.6807117849
 20
67.223076553
 11
114.8680006491
 21
68.1762248067
  0
LINE
  5
657
100
AcDbEntity
  8
0
100
AcDbLine
 62
253
  6
CONTINUOUS
 10
112.4459254566
 20
67.6164889107
 11
112.9441786205
 21
68.0014085887
  0
LINE
  5
658
100
AcDbEntity
  8
RACCORDO
100
AcDbLine
 62
7
  6
CONTINUOUS
 10
112.8262468918
 20
67.7384492327
 11
112.3242403707
 21
67.3506338101
  0
LINE
  5
659
100
AcDbEntity
  8
0
100
AcDbLine
 62
253
  6
CONTINUOUS
 10
115.0540134817
 20
69.6236904592
 11
115.7362308783
 21
70.1210892395
  0
LINE
  5
65A
100
AcDbEntity
  8
0
100
AcDbLine
 62
7
  6
CONTINUOUS
 10
114.9268297254
 20
69.3536288803
 11
115.6111818821
 21
69.8525840956
  0
LWPOLYLINE
  5
65B
100
AcDbEntity
  8
0
100
AcDbPolyline
 62
253
  6
CONTINUOUS
 90
13
 70
0
 10
113.7269407219
 20
67.3275337259
 10
113.7125589788
 20
67.317120738
 10
113.6955378597
 20
67.3076382483
 10
113.6761044131
 20
67.2992623381
 10
113.6544851229
 20
67.2921419308
 10
113.6310461495
 20
67.2864445039
 10
113.6063222622
 20
67.2823190815
 10
113.5807861765
 20
67.2798395288
 10
113.5548201592
 20
67.2790381235
 10
113.5288748067
 20
67.2799281086
 10
113.5033922377
 20
67.2824921758
 10
113.4787983911
 20
67.2866852876
 10
113.4555072617
 20
67.292434993
  0
LWPOLYLINE
  5
65C
100
AcDbEntity
  8
0
100
AcDbPolyline
 62
7
  6
CONTINUOUS
 90
10
 70
0
 10
113.6807117849
 20
67.223076553
 10
113.6639824223
 20
67.2110106904
 10
113.6458257213
 20
67.200592875
 10
113.6264459437
 20
67.1920410003
 10
113.6061166828
 20
67.1855467455
 10
113.585097073
 20
67.1812385781
 10
113.5635983973
 20
67.1792012666
 10
113.5418859249
 20
67.1795019421
 10
113.5203506542
 20
67.1821517769
 10
113.5000441565
 20
67.1868817535
  0
LWPOLYLINE
  5
65D
100
AcDbEntity
  8
RACCORDO
100
AcDbPolyline
 62
253
  6
CONTINUOUS
 90
19
 70
0
 10
122.1495699432
 20
122.7132662874
 10
122.2310782668
 20
122.7021630322
 10
122.3118969955
 20
122.6849052515
 10
122.3914930115
 20
122.6616697248
 10
122.4695917416
 20
122.6326932607
 10
122.5453998328
 20
122.5982114114
 10
122.6176613781
 20
122.5585641458
 10
122.6857915425
 20
122.5142330332
 10
122.7495437848
 20
122.465655306
 10
122.8082876227
 20
122.4132548988
 10
122.8616558865
 20
122.3575837834
 10
122.9094632771
 20
122.2991230557
 10
122.9514196675
 20
122.2382096876
 10
122.987316666
 20
122.1753683726
 10
123.0170337496
 20
122.1110907515
 10
123.0404242601
 20
122.0456463569
 10
123.0573712111
 20
121.9794483177
 10
123.0678267439
 20
121.9130553817
 10
123.0717720966
 20
121.8469392243
  0
LWPOLYLINE
  5
65E
100
AcDbEntity
  8
RACCORDO
100
AcDbPolyline
 62
7
  6
CONTINUOUS
 90
6
 70
0
 10
123.4153610477
 20
120.6532828103
 10
123.4028214395
 20
120.6567847189
 10
123.3252249322
 20
120.6732117239
 10
123.2452640416
 20
120.6811971262
 10
123.1631773345
 20
120.6805074105
 10
123.1470285986
 20
120.6786637719
  0
LINE
  5
65F
100
AcDbEntity
  8
RACCORDO
100
AcDbLine
 62
7
  6
CONTINUOUS
 10
123.672988792
 20
120.5789270269
 11
123.6738878555
 21
120.5786685027
  0
LINE
  5
660
100
AcDbEntity
  8
RACCORDO
100
AcDbLine
 62
7
  6
CONTINUOUS
 10
122.5289412695
 20
122.7521281188
 11
122.5293650569
 21
122.7520058656
  0
LINE
  5
661
100
AcDbEntity
  8
ASSI
100
AcDbLine
 62
7
  6
CONTINUOUS
 10
123.6739604806
 20
120.5786475376
 11
123.4151499288
 21
120.6533597085
  0
LINE
  5
662
100
AcDbEntity
  8
RACCORDO
100
AcDbLine
 62
253
  6
CONTINUOUS
 10
122.1495699432
 20
122.7132662874
 11
113.868657666
 21
125.1037597536
  0
LINE
  5
663
100
AcDbEntity
  8
RACCORDO
100
AcDbLine
 62
7
  6
CONTINUOUS
 10
122.5285891199
 20
122.7522298854
 11
114.1655612286
 21
125.1664280876
  0
LINE
  5
664
100
AcDbEntity
  8
RACCORDO
100
AcDbLine
 62
7
  6
CONTINUOUS
 10
123.4153774963
 20
120.6532939671
 11
123.4151666908
 21
120.6533548696
  0
LWPOLYLINE
  5
665
100
AcDbEntity
  8
RACCORDO
100
AcDbPolyline
 62
253
  6
CONTINUOUS
 90
16
 70
0
 10
123.1470285986
 20
120.4480644091
 10
123.1683817611
 20
120.440910094
 10
123.1951789993
 20
120.4288799316
 10
123.2211914288
 20
120.414094182
 10
123.2461348386
 20
120.3967143328
 10
123.2697366193
 20
120.3769302598
 10
123.2917387609
 20
120.3549581828
 10
123.311900805
 20
120.331038211
 10
123.3300024604
 20
120.3054316782
 10
123.3458459171
 20
120.2784183647
 10
123.359257925
 20
120.2502936881
 10
123.3700920558
 20
120.2213647314
 10
123.3782300759
 20
120.1919468141
 10
123.383582846
 20
120.1623611178
 10
123.3860915346
 20
120.1329312318
 10
123.3857284693
 20
120.1039788306
  0
LWPOLYLINE
  5
666
100
AcDbEntity
  8
0
100
AcDbPolyline
 62
7
  6
CONTINUOUS
 90
6
 70
0
 10
122.3431582918
 20
118.4389722355
 10
122.3168903834
 20
118.4564355425
 10
122.2750047562
 20
118.4807483604
 10
122.2323893462
 20
118.5010913745
 10
122.1890884731
 20
118.5172927037
 10
122.1758085677
 20
118.5213466406
  0
LINE
  5
667
100
AcDbEntity
  8
0
100
AcDbLine
 62
7
  6
CONTINUOUS
 10
122.3429598421
 20
118.4390880618
 11
122.3431476304
 21
118.4389569669
  0
LINE
  5
668
100
AcDbEntity
  8
0
100
AcDbLine
 62
7
  6
CONTINUOUS
 10
122.3534792886
 20
118.4316018356
 11
122.3429598421
 21
118.4390880618
  0
LWPOLYLINE
  5
669
100
AcDbEntity
  8
0
100
AcDbPolyline
 62
253
  6
CONTINUOUS
 90
10
 70
0
 10
122.3555391432
 20
118.3447690359
 10
122.3716100941
 20
118.3329757136
 10
122.3873767051
 20
118.3200963485
 10
122.4028389762
 20
118.3061309407
 10
122.418086831
 20
118.2910162209
 10
122.433030346
 20
118.2748154584
 10
122.4473997495
 20
118.2577184608
 10
122.4611051177
 20
118.2397884975
 10
122.4742363745
 20
118.2209622991
 10
122.4867935198
 20
118.2012398656
  0
LWPOLYLINE
  5
66A
100
AcDbEntity
  8
0
100
AcDbPolyline
 62
253
  6
CONTINUOUS
 90
7
 70
0
 10
122.3431476304
 20
118.4389569669
 10
122.351538536
 20
118.4306122852
 10
122.3575593882
 20
118.4189745586
 10
122.3610046872
 20
118.4043091064
 10
122.3618180693
 20
118.3868558558
 10
122.3599862302
 20
118.3669003418
 10
122.355539143
 20
118.3447690358
  0
LINE
  5
66B
100
AcDbEntity
  8
DRAFT
100
AcDbLine
 62
7
  6
CONTINUOUS
 10
125.3536159527
 20
115.7073823889
 11
124.4317577336
 21
116.8953581534
  0
LINE
  5
66C
100
AcDbEntity
  8
RACCORDO
100
AcDbLine
 62
253
  6
CONTINUOUS
 10
126.5101950943
 20
115.5006806609
 11
125.9538574197
 21
116.2176191886
  0
LINE
  5
66D
100
AcDbEntity
  8
RACCORDO
100
AcDbLine
 62
7
  6
CONTINUOUS
 10
126.6623225791
 20
115.6536573127
 11
126.1642001597
 21
116.2955752886
  0
LWPOLYLINE
  5
66E
100
AcDbEntity
  8
RACCORDO
100
AcDbPolyline
 62
253
  6
CONTINUOUS
 90
10
 70
0
 10
131.7355667403
 20
103.5188310115
 10
131.7363402522
 20
103.5150887981
 10
131.7466687387
 20
103.4588121845
 10
131.7554616857
 20
103.4038401518
 10
131.7629151806
 20
103.3500927447
 10
131.7691034235
 20
103.2975643284
 10
131.7740568694
 20
103.2463131492
 10
131.7778954057
 20
103.196349395
 10
131.7806797826
 20
103.147706422
 10
131.7824439377
 20
103.100390297
  0
ELLIPSE
  5
66F
100
AcDbEntity
  8
0
100
AcDbEllipse
 62
7
  6
CONTINUOUS
 10
112.5110174851
 20
68.1267482539
 30
0.0
 11
-0.3274867375
 21
0.3782770582
 31
0.0
 40
0.7494915063
 41
-3.1831865874
 42
-2.4280364926
  0
ELLIPSE
  5
670
100
AcDbEntity
  8
0
100
AcDbEllipse
 62
7
  6
CONTINUOUS
 10
112.5110174851
 20
105.5585673633
 30
0.0
 11
-0.327391565
 21
0.3779107362
 31
0.0
 40
0.750508813
 41
-2.4277008703
 42
-0.8575897762
  0
ELLIPSE
  5
671
100
AcDbEntity
  8
0
100
AcDbEllipse
 62
7
  6
CONTINUOUS
 10
94.2356803075
 20
110.8342027828
 30
0.0
 11
-0.3274867375
 21
0.3782770582
 31
0.0
 40
0.7494915063
 41
-0.8565549331
 42
0.042276458
  0
ELLIPSE
  5
672
100
AcDbEntity
  8
0
100
AcDbEllipse
 62
7
  6
CONTINUOUS
 10
117.7016718889
 20
90.7136024534
 30
0.0
 11
0.0816675612
 21
0.288673698
 31
0.0
 40
0.4264576265
 41
1.414759522
 42
2.8982893862
  0
ELLIPSE
  5
673
100
AcDbEntity
  8
0
100
AcDbEllipse
 62
7
  6
CONTINUOUS
 10
119.7613609208
 20
78.7738697819
 30
0.0
 11
1.3094291666
 21
-1.511858666
 31
0.0
 40
0.7499732042
 41
0.0106456142
 42
0.7136609084
  0
ELLIPSE
  5
674
100
AcDbEntity
  8
0
100
AcDbEllipse
 62
7
  6
CONTINUOUS
 10
119.7613609208
 20
110.3553672534
 30
0.0
 11
1.3094116619
 21
-1.5117912201
 31
0.0
 40
0.7500200344
 41
0.7136763465
 42
1.4990429661
  0
ELLIPSE
  5
675
100
AcDbEntity
  8
0
100
AcDbEllipse
 62
7
  6
CONTINUOUS
 10
119.2821356637
 20
112.8101201877
 30
0.0
 11
-0.3273109775
 21
0.377981144
 31
0.0
 40
0.7500267949
 41
-1.642406629
 42
-0.8570400095
  0
ELLIPSE
  5
676
100
AcDbEntity
  8
0
100
AcDbEllipse
 62
7
  6
CONTINUOUS
 10
104.4645621289
 20
117.0875852222
 30
0.0
 11
-0.327315361
 21
0.3779979986
 31
0.0
 40
0.7499799627
 41
-0.8569923833
 42
-0.0716257637
  0
ELLIPSE
  5
677
100
AcDbEntity
  8
RACCORDO
100
AcDbEllipse
 62
7
  6
CONTINUOUS
 10
114.5907166574
 20
74.1714581617
 30
0.0
 11
1.3094291666
 21
-1.511858666
 31
0.0
 40
0.7499732042
 41
0.441553759
 42
0.7136609084
  0
ELLIPSE
  5
678
100
AcDbEntity
  8
0
100
AcDbEllipse
 62
7
  6
CONTINUOUS
 10
100.9955216055
 20
113.3488731889
 30
0.0
 11
0.1512091202
 21
-0.0699641503
 31
0.0
 40
0.2062983466
 41
8.4937302601
 42
10.0642220004
  0
ELLIPSE
  5
679
100
AcDbEntity
  8
RACCORDO
100
AcDbEllipse
 62
7
  6
CONTINUOUS
 10
114.5907166574
 20
105.818696078
 30
0.0
 11
1.3094116619
 21
-1.5117912201
 31
0.0
 40
0.7500200344
 41
0.7136763465
 42
0.985783496
  0
ELLIPSE
  5
67A
100
AcDbEntity
  8
0
100
AcDbEllipse
 62
7
  6
CONTINUOUS
 10
115.7880356868
 20
108.6002147411
 30
0.0
 11
-0.3273555701
 21
0.3779406205
 31
0.0
 40
0.7502261284
 41
-2.4277937625
 42
-0.8573020222
  0
ELLIPSE
  5
67B
100
AcDbEntity
  8
0
100
AcDbEllipse
 62
7
  6
CONTINUOUS
 10
115.7880356868
 20
70.6986670346
 30
0.0
 11
-0.3273978665
 21
0.3781034197
 31
0.0
 40
0.7497739347
 41
-3.1131986683
 42
-2.4279429475
  0
ELLIPSE
  5
67C
100
AcDbEntity
  8
0
100
AcDbEllipse
 62
7
  6
CONTINUOUS
 10
121.9460434729
 20
116.6444436405
 30
0.0
 11
0.6646681665
 21
0.5815581159
 31
0.0
 40
0.7655551516
 41
-0.7788182317
 42
-0.5897373279
  0
ELLIPSE
  5
67D
100
AcDbEntity
  8
0
100
AcDbEllipse
 62
7
  6
CONTINUOUS
 10
114.2483143658
 20
83.7132977393
 30
0.0
 11
0.1499982552
 21
-0.0014860015
 31
0.0
 40
0.4868722452
 41
-2.0895717977
 42
-0.5187754709
  0
ELLIPSE
  5
67E
100
AcDbEntity
  8
0
100
AcDbEllipse
 62
7
  6
CONTINUOUS
 10
114.2483143658
 20
92.3735517771
 30
0.0
 11
0.1499982552
 21
-0.0014860015
 31
0.0
 40
0.4868722452
 41
-2.0895717977
 42
-0.5187754709
  0
ELLIPSE
  5
67F
100
AcDbEntity
  8
0
100
AcDbEllipse
 62
7
  6
CONTINUOUS
 10
113.0967321374
 20
104.3325820672
 30
0.0
 11
0.2499780233
 21
-0.0071999153
 31
0.0
 40
0.4603932456
 41
4.2020497628
 42
5.7553927971
  0
ELLIPSE
  5
680
100
AcDbEntity
  8
0
100
AcDbEllipse
 62
7
  6
CONTINUOUS
 10
114.8834854488
 20
104.3753528055
 30
0.0
 11
0.1999824187
 21
-0.0057599323
 31
0.0
 40
0.4603932456
 41
-2.0811355443
 42
-0.5365191563
  0
ELLIPSE
  5
681
100
AcDbEntity
  8
0
100
AcDbEllipse
 62
7
  6
CONTINUOUS
 10
114.8834854488
 20
75.7965144806
 30
0.0
 11
0.1999824187
 21
-0.0057599323
 31
0.0
 40
0.4603932456
 41
-2.0811355443
 42
-0.5365191563
  0
ELLIPSE
  5
682
100
AcDbEntity
  8
0
100
AcDbEllipse
 62
7
  6
CONTINUOUS
 10
105.471998804
 20
111.8988299907
 30
0.0
 11
0.1999976736
 21
-0.0019813354
 31
0.0
 40
0.4868722452
 41
-0.5013221784
 42
0.0040040407
  0
ELLIPSE
  5
683
100
AcDbEntity
  8
0
100
AcDbEllipse
 62
7
  6
CONTINUOUS
 10
102.2690549023
 20
111.5640955024
 30
0.0
 11
0.1999702832
 21
0.0063972751
 31
0.0
 40
0.5389145921
 41
-0.5931974315
 42
-0.5408375539
  0
ELLIPSE
  5
684
100
AcDbEntity
  8
0
100
AcDbEllipse
 62
7
  6
CONTINUOUS
 10
109.1342789898
 20
109.5822760149
 30
0.0
 11
0.1999702832
 21
0.0063972751
 31
0.0
 40
0.5389145921
 41
-0.5931974315
 42
-0.5582908464
  0
ELLIPSE
  5
685
100
AcDbEntity
  8
0
100
AcDbEllipse
 62
7
  6
CONTINUOUS
 10
99.0017817655
 20
112.5072760149
 30
0.0
 11
0.1999702832
 21
0.0063972751
 31
0.0
 40
0.5389145921
 41
-0.5931974315
 42
-0.5582908464
  0
ELLIPSE
  5
686
100
AcDbEntity
  8
0
100
AcDbEllipse
 62
7
  6
CONTINUOUS
 10
112.2582853868
 20
118.8230908827
 30
0.0
 11
0.9999883679
 21
-0.0099066768
 31
0.0
 40
0.4868722452
 41
1.8274183525
 42
2.6228171827
  0
ELLIPSE
  5
687
100
AcDbEntity
  8
0
100
AcDbEllipse
 62
7
  6
CONTINUOUS
 10
116.5884124057
 20
117.5730908827
 30
0.0
 11
0.9999883679
 21
-0.0099066768
 31
0.0
 40
0.4868722452
 41
5.7644098363
 42
6.5598086665
  0
ELLIPSE
  5
688
100
AcDbEntity
  8
0
100
AcDbEllipse
 62
7
  6
CONTINUOUS
 10
121.2011005543
 20
120.965595375
 30
0.0
 11
12.7656766936
 21
11.5210560421
 31
0.0
 40
0.0170992316
 41
2.2155608743
 42
2.6293847693
  0
ELLIPSE
  5
689
100
AcDbEntity
  8
0
100
AcDbEllipse
 62
7
  6
CONTINUOUS
 10
98.5890598033
 20
110.0583453468
 30
0.0
 11
-0.654795733
 21
0.7562068395
 31
0.0
 40
0.7497739347
 41
-0.8568420343
 42
0.0275381957
  0
ELLIPSE
  5
68A
100
AcDbEntity
  8
0
100
AcDbEllipse
 62
7
  6
CONTINUOUS
 10
114.0020676042
 20
120.1202468311
 30
0.0
 11
0.1998578043
 21
-0.0264181955
 31
0.0
 40
0.2854256053
 41
-0.4858876907
 42
0.037306577
  0
ELLIPSE
  5
68B
100
AcDbEntity
  8
0
100
AcDbEllipse
 62
7
  6
CONTINUOUS
 10
113.3040381351
 20
113.4562041563
 30
0.0
 11
0.4087109361
 21
-0.0040490143
 31
0.0
 40
0.4868722452
 41
-0.5013221784
 42
0.0051147407
  0
ELLIPSE
  5
68C
100
AcDbEntity
  8
0
100
AcDbEllipse
 62
7
  6
CONTINUOUS
 10
106.5339439671
 20
115.4105620015
 30
0.0
 11
0.4087109361
 21
-0.0040490143
 31
0.0
 40
0.4868722452
 41
-0.5187754709
 42
0.0052194504
  0
ELLIPSE
  5
68D
100
AcDbEntity
  8
0
100
AcDbEllipse
 62
7
  6
CONTINUOUS
 10
114.2483143658
 20
84.5233919834
 30
0.0
 11
0.1499979224
 21
0.0015388017
 31
0.0
 40
0.5130515173
 41
-2.0996583569
 42
-0.5288620301
  0
ELLIPSE
  5
68E
100
AcDbEntity
  8
0
100
AcDbEllipse
 62
7
  6
CONTINUOUS
 10
114.2483143658
 20
93.1836460212
 30
0.0
 11
0.1499979224
 21
0.0015388017
 31
0.0
 40
0.5130515173
 41
-2.0996583569
 42
-0.5288620301
  0
ELLIPSE
  5
68F
100
AcDbEntity
  8
0
100
AcDbEllipse
 62
7
  6
CONTINUOUS
 10
121.2011005543
 20
120.965595375
 30
0.0
 11
12.7656766936
 21
11.5210560421
 31
0.0
 40
0.0170992316
 41
-2.6602465206
 42
-2.3768210907
  0
ELLIPSE
  5
690
100
AcDbEntity
  8
0
100
AcDbEllipse
 62
7
  6
CONTINUOUS
 10
113.0050579723
 20
72.6783417857
 30
0.0
 11
0.249962854
 21
0.0079965939
 31
0.0
 40
0.5389145921
 41
-1.8343207608
 42
-0.5582908464
  0
ELLIPSE
  5
691
100
AcDbEntity
  8
0
100
AcDbEllipse
 62
7
  6
CONTINUOUS
 10
113.8541438244
 20
101.1970403687
 30
0.0
 11
0.0575629817
 21
0.19154714
 31
0.0
 40
0.4460615836
 41
-4.1195262807
 42
-3.136582266
  0
ELLIPSE
  5
692
100
AcDbEntity
  8
0
100
AcDbEllipse
 62
7
  6
CONTINUOUS
 10
114.0706237914
 20
108.1572760149
 30
0.0
 11
0.1999702832
 21
0.0063972751
 31
0.0
 40
0.5389145921
 41
-0.5931974315
 42
-0.5582908464
  0
ELLIPSE
  5
693
100
AcDbEntity
  8
0
100
AcDbEllipse
 62
7
  6
CONTINUOUS
 10
114.8834854488
 20
101.3687983802
 30
0.0
 11
0.1999702832
 21
0.0063972751
 31
0.0
 40
0.5389145921
 41
-2.1116338807
 42
-0.5670174927
  0
ELLIPSE
  5
694
100
AcDbEntity
  8
0
100
AcDbEllipse
 62
7
  6
CONTINUOUS
 10
107.0171407237
 20
110.8161779262
 30
0.0
 11
0.1999702832
 21
0.0063972751
 31
0.0
 40
0.5389145921
 41
3.1235459848
 42
4.1715514265
  0
ELLIPSE
  5
695
100
AcDbEntity
  8
0
100
AcDbEllipse
 62
7
  6
CONTINUOUS
 10
113.0967321374
 20
72.6518777337
 30
0.0
 11
0.249962854
 21
0.0079965939
 31
0.0
 40
0.5389145921
 41
-2.1116338807
 42
-0.5582908464
  0
ELLIPSE
  5
696
100
AcDbEntity
  8
0
100
AcDbEllipse
 62
7
  6
CONTINUOUS
 10
114.8834854488
 20
72.7899600553
 30
0.0
 11
0.1999702832
 21
0.0063972751
 31
0.0
 40
0.5389145921
 41
-2.1116338807
 42
-0.5670174927
  0
ELLIPSE
  5
697
100
AcDbEntity
  8
0
100
AcDbEllipse
 62
7
  6
CONTINUOUS
 10
104.9295570689
 20
111.4188114188
 30
0.0
 11
0.1999702832
 21
0.0063972751
 31
0.0
 40
0.5389145921
 41
-2.1116338807
 42
-0.5582908464
  0
ELLIPSE
  5
698
100
AcDbEntity
  8
0
100
AcDbEllipse
 62
7
  6
CONTINUOUS
 10
112.8837219143
 20
107.0942225611
 30
0.0
 11
0.4999930746
 21
0.0051293389
 31
0.0
 40
0.5130515173
 41
3.1366345762
 42
4.1835269503
  0
ELLIPSE
  5
699
100
AcDbEntity
  8
0
100
AcDbEllipse
 62
7
  6
CONTINUOUS
 10
99.8629758783
 20
110.8529881756
 30
0.0
 11
0.4999930746
 21
0.0051293389
 31
0.0
 40
0.5130515173
 41
-2.0996583569
 42
-0.5463153226
  0
ELLIPSE
  5
69A
100
AcDbEntity
  8
0
100
AcDbEllipse
 62
7
  6
CONTINUOUS
 10
114.803783056
 20
93.3491527617
 30
0.0
 11
0.1999972298
 21
0.0020517355
 31
0.0
 40
0.5130515173
 41
3.1358888816
 42
4.1835269503
  0
ELLIPSE
  5
69B
100
AcDbEntity
  8
0
100
AcDbEllipse
 62
7
  6
CONTINUOUS
 10
114.803783056
 20
84.6888987238
 30
0.0
 11
0.1999972298
 21
0.0020517355
 31
0.0
 40
0.5130515173
 41
3.1358888816
 42
4.1835269503
  0
ELLIPSE
  5
69C
100
AcDbEntity
  8
0
100
AcDbEllipse
 62
7
  6
CONTINUOUS
 10
113.8541438244
 20
76.5625631561
 30
0.0
 11
0.0575629817
 21
0.19154714
 31
0.0
 40
0.4460615836
 41
0.6103159922
 42
2.1636590265
  0
ELLIPSE
  5
69D
100
AcDbEntity
  8
0
100
AcDbEllipse
 62
7
  6
CONTINUOUS
 10
101.3587796251
 20
109.3547465897
 30
0.0
 11
0.1999972298
 21
0.0020517355
 31
0.0
 40
0.5130515173
 41
3.1355101351
 42
4.1835269503
  0
ELLIPSE
  5
69E
100
AcDbEntity
  8
0
100
AcDbEllipse
 62
7
  6
CONTINUOUS
 10
101.7936895334
 20
109.2291989134
 30
0.0
 11
0.1999972298
 21
0.0020517355
 31
0.0
 40
0.5130515173
 41
-2.0996583569
 42
-0.5463153226
  0
ELLIPSE
  5
69F
100
AcDbEntity
  8
0
100
AcDbEllipse
 62
7
  6
CONTINUOUS
 10
109.1530082592
 20
107.1047465897
 30
0.0
 11
0.1999972298
 21
0.0020517355
 31
0.0
 40
0.5130515173
 41
3.1355101351
 42
4.1835269503
  0
ELLIPSE
  5
6A0
100
AcDbEntity
  8
0
100
AcDbEllipse
 62
7
  6
CONTINUOUS
 10
109.5879181674
 20
106.9791989134
 30
0.0
 11
0.1999972298
 21
0.0020517355
 31
0.0
 40
0.5130515173
 41
-2.0996583569
 42
-0.5463153226
  0
ELLIPSE
  5
6A1
100
AcDbEntity
  8
0
100
AcDbEllipse
 62
7
  6
CONTINUOUS
 10
114.1773323835
 20
86.1595615368
 30
0.0
 11
0.2619624021
 21
-0.3023302184
 31
0.0
 40
0.7499836501
 41
0.7134551952
 42
2.284251522
  0
ELLIPSE
  5
6A2
100
AcDbEntity
  8
0
100
AcDbEllipse
 62
7
  6
CONTINUOUS
 10
112.8849631948
 20
105.0427733128
 30
0.0
 11
-0.6547111402
 21
0.7558812409
 31
0.0
 40
0.7502261284
 41
-2.4277937625
 42
-2.0957273054
  0
ELLIPSE
  5
6A3
100
AcDbEntity
  8
0
100
AcDbEllipse
 62
7
  6
CONTINUOUS
 10
128.4176364527
 20
118.4239474338
 30
0.0
 11
29.524088955
 21
24.5556703926
 31
0.0
 40
0.0194308162
 41
-2.1077085471
 42
-2.0813048748
  0
ELLIPSE
  5
6A4
100
AcDbEntity
  8
0
100
AcDbEllipse
 62
7
  6
CONTINUOUS
 10
113.6576379892
 20
105.7084215108
 30
0.0
 11
-0.6547111402
 21
0.7558812409
 31
0.0
 40
0.7502261284
 41
-1.9044116379
 42
-0.8573020222
  0
ELLIPSE
  5
6A5
100
AcDbEntity
  8
0
100
AcDbEllipse
 62
7
  6
CONTINUOUS
 10
112.8849631948
 20
73.0454468017
 30
0.0
 11
-0.654795733
 21
0.7562068395
 31
0.0
 40
0.7497739347
 41
-2.7600094046
 42
-2.4279429475
  0
ENDSEC
  0
SECTION
  2
OBJECTS
  0
DICTIONARY
  5
C
100
AcDbDictionary
280
0
281
1
  3
ACAD_GROUP
350
D
  3
ACAD_MLINESTYLE
350
17
  3
ACAD_LAYOUT
350
1A
  3
ACAD_PLOTSETTINGS
350
19
  3
ACAD_PLOTSTYLENAME
350
E
  0
DICTIONARY
  5
D
102
{ACAD_REACTORS
330
C
102
}
100
AcDbDictionary
280
0
281
1
  0
ACDBDICTIONARYWDFLT
  5
E
102
{ACAD_REACTORS
330
C
102
}
100
AcDbDictionary
281
1
  3
Normal
350
F
100
AcDbDictionaryWithDefault
340
F
  0
DICTIONARY
  5
17
102
{ACAD_REACTORS
330
C
102
}
100
AcDbDictionary
280
0
281
1
  3
Standard
350
18
  0
DICTIONARY
  5
19
102
{ACAD_REACTORS
330
C
102
}
100
AcDbDictionary
281
1
  0
DICTIONARY
  5
1A
102
{ACAD_REACTORS
330
C
102
}
100
AcDbDictionary
281
1
  3
Model
350
6A6
  3
Layout1
350
6A7
  0
ACDBPLACEHOLDER
  5
F
102
{ACAD_REACTORS
330
E
102
}
  0
MLINESTYLE
  5
18
102
{ACAD_REACTORS
330
17
102
}
100
AcDbMlineStyle
  2
STANDARD
 70
0
  3

 62
256
 51
90.0
 52
90.0
 71
2
 49
0.5
 62
256
  6
BYLAYER
 49
-0.5
 62
256
  6
BYLAYER
  0
LAYOUT
  5
6A6
102
{ACAD_REACTORS
330
1A
102
}
100
AcDbPlotSettings
  1

  2
none_device
  4
ISO_A4_(297.00_x_210.00_MM)
  6

 40
0.0
 41
0.0
 42
0.0
 43
0.0
 44
297.0
 45
210.0
 46
0.0
 47
0.0
 48
0.0
 49
0.0
140
0.0
141
0.0
142
1.0
143
1.0
 70
1024
 72
1
 73
0
 74
0
  7

 75
0
147
1.0
148
0.0
149
0.0
100
AcDbLayout
  1
Model
 70
0
 71
0
 10
0.0
 20
0.0
 11
297.0
 21
210.0
 12
0.0
 22
0.0
 32
0.0
 14
0.0
 24
0.0
 34
0.0
 15
0.0
 25
0.0
 35
0.0
146
0.0
 13
0.0
 23
0.0
 33
0.0
 16
1.0
 26
0.0
 36
0.0
 17
0.0
 27
1.0
 37
0.0
 76
0
330
21F
345
0
346
0
  0
LAYOUT
  5
6A7
102
{ACAD_REACTORS
330
1A
102
}
100
AcDbPlotSettings
  1

  2
none_device
  4
ISO_A4_(297.00_x_210.00_MM)
  6

 40
0.0
 41
0.0
 42
0.0
 43
0.0
 44
297.0
 45
210.0
 46
0.0
 47
0.0
 48
0.0
 49
0.0
140
0.0
141
0.0
142
1.0
143
1.0
 70
0
 72
1
 73
0
 74
0
  7

 75
0
147
1.0
148
0.0
149
0.0
100
AcDbLayout
  1
Layout1
 70
0
 71
1
 10
0.0
 20
0.0
 11
297.0
 21
210.0
 12
0.0
 22
0.0
 32
0.0
 14
0.0
 24
0.0
 34
0.0
 15
0.0
 25
0.0
 35
0.0
146
0.0
 13
0.0
 23
0.0
 33
0.0
 16
1.0
 26
0.0
 36
0.0
 17
0.0
 27
1.0
 37
0.0
 76
0
330
220
345
0
346
0
  0
ENDSEC
  0
EOF
