  0
SECTION
  2
HEADER
  9
$ACADVER
  1
AC1015
  9
$DWGCODEPAGE
  3
ANSI_1252
  9
$EXTMAX
 10
297.0
 20
210.0
 30
0.0
  9
$EXTMIN
 10
0.0
 20
0.0
 30
0.0
  9
$LIMMIN
 10
0.0
 20
0.0
  9
$LIMMAX
 10
297.0
 20
210.0
  9
$VIEWCTR
 10
148.5
 20
105.0
  9
$VIEWSIZE
 40
210.0
  9
$CLAYER
  8
0
  9
$LTSCALE
 40
16.335
  9
$CELTYPE
  6
BYLAYER
  9
$DIMSCALE
 40
1.0
  9
$DIMASZ
 40
3.0
  9
$DIMEXO
 40
1.85625
  9
$DIMDLI
 40
11.286
  9
$DIMEXE
 40
5.346
  9
$DIMCEN
 40
2.673
  9
$DIMLFAC
 40
1.0
  9
$DIMBLK
  1
_FILLED
  9
$DIMTXT
 40
3.0
  9
$DIMTOL
 70
1
  9
$DIMLIM
 70
0
  9
$DIMTFAC
 40
1.0
  9
$DIMTP
 40
0.01
  9
$DIMTM
 40
0.01
  9
$PDMODE
 70
3
  9
$PDSIZE
 40
3.0
  9
$HANDSEED
  5
705
  9
$TILEMODE
 70
1
  9
$MEASUREMENT
 70
1
  9
$INSUNITS
 70
4
  0
ENDSEC
  0
SECTION
  2
CLASSES
  0
CLASS
  1
ACDBDICTIONARYWDFLT
  2
AcDbDictionaryWithDefault
  3
AutoCAD 2000
 90
0
280
0
281
0
  0
CLASS
  1
ACDBPLACEHOLDER
  2
AcDbPlaceHolder
  3
AutoCAD 2000
 90
0
280
0
281
0
  0
CLASS
  1
LAYOUT
  2
AcDbLayout
  3
AutoCAD 2000
 90
0
280
0
281
0
  0
ENDSEC
  0
SECTION
  2
TABLES
  0
TABLE
  2
VPORT
  5
8
100
AcDbSymbolTable
 70
2
  0
VPORT
  5
1F4
100
AcDbSymbolTableRecord
100
AcDbViewportTableRecord
  2
*ACTIVE
 70
0
 10
0.0
 20
0.0
 11
1.0
 21
1.0
 12
148.5
 22
105.0
 13
0.0
 23
0.0
 14
1.0
 24
1.0
 15
0.0
 25
0.0
 16
0.0
 26
0.0
 36
1.0
 17
0.0
 27
0.0
 37
0.0
 40
210.0
 41
1.4142857143
 42
50.0
 43
0.0
 44
0.0
 50
0.0
 51
0.0
 71
0
 72
100
 73
1
 74
1
 75
0
 76
0
 77
0
 78
0
  0
ENDTAB
  0
TABLE
  2
LTYPE
  5
5
100
AcDbSymbolTable
 70
6
  0
LTYPE
  5
14
100
AcDbSymbolTableRecord
100
AcDbLinetypeTableRecord
  2
BYBLOCK
 70
0
  3

 72
65
 73
0
 40
0.0
  0
LTYPE
  5
15
100
AcDbSymbolTableRecord
100
AcDbLinetypeTableRecord
  2
BYLAYER
 70
0
  3

 72
65
 73
0
 40
0.0
  0
LTYPE
  5
16
100
AcDbSymbolTableRecord
100
AcDbLinetypeTableRecord
  2
CONTINUOUS
 70
64
  3
Solid line
 72
65
 73
0
 40
0.0
  0
LTYPE
  5
1F5
100
AcDbSymbolTableRecord
100
AcDbLinetypeTableRecord
  2
CENTER
 70
64
  3
____ _ ____ _ ____ _ ____ _ ____ _ ____ _ ____
 72
65
 73
4
 40
0.6
 49
0.375
 74
0
 49
-0.075
 74
0
 49
0.075
 74
0
 49
-0.075
 74
0
  0
LTYPE
  5
1F6
100
AcDbSymbolTableRecord
100
AcDbLinetypeTableRecord
  2
HIDDEN
 70
64
  3
- - - - - - - - - - - - - - - - - - - -
 72
65
 73
2
 40
0.2
 49
0.1
 74
0
 49
-0.1
 74
0
  0
LTYPE
  5
1F7
100
AcDbSymbolTableRecord
100
AcDbLinetypeTableRecord
  2
PHANTOM
 70
64
  3
_____ _ _ _____ _ _ _____ _ _ _____
 72
65
 73
6
 40
0.8
 49
0.45
 74
0
 49
-0.05
 74
0
 49
0.1
 74
0
 49
-0.05
 74
0
 49
0.1
 74
0
 49
-0.05
 74
0
  0
LTYPE
  5
1F8
100
AcDbSymbolTableRecord
100
AcDbLinetypeTableRecord
  2
DOT
 70
64
  3
. . . . . . . . . . . . . . . . . . . .
 72
65
 73
2
 40
0.2
 49
0.1
 74
0
 49
-0.1
 74
0
  0
LTYPE
  5
1F9
100
AcDbSymbolTableRecord
100
AcDbLinetypeTableRecord
  2
DASHED
 70
64
  3
- - - - - - - - - - - - - - - - - - - -
 72
65
 73
2
 40
0.2
 49
0.1
 74
0
 49
-0.1
 74
0
  0
ENDTAB
  0
TABLE
  2
LAYER
  5
2
100
AcDbSymbolTable
 70
36
  0
LAYER
  5
10
100
AcDbSymbolTableRecord
100
AcDbLayerTableRecord
  2
0
 70
0
 62
7
  6
CONTINUOUS
370
-3
390
F
  0
LAYER
  5
1FA
100
AcDbSymbolTableRecord
100
AcDbLayerTableRecord
  2
DEFAULT_1
 70
0
 62
7
  6
CENTER
370
-3
390
F
  0
LAYER
  5
1FB
100
AcDbSymbolTableRecord
100
AcDbLayerTableRecord
  2
DEFAULT_2
 70
0
 62
7
  6
HIDDEN
370
-3
390
F
  0
LAYER
  5
1FC
100
AcDbSymbolTableRecord
100
AcDbLayerTableRecord
  2
DEFAULT_3
 70
0
 62
7
  6
PHANTOM
370
-3
390
F
  0
LAYER
  5
1FD
100
AcDbSymbolTableRecord
100
AcDbLayerTableRecord
  2
ASSI
 70
0
 62
7
  6
CONTINUOUS
370
-3
390
F
  0
LAYER
  5
1FE
100
AcDbSymbolTableRecord
100
AcDbLayerTableRecord
  2
COLOR9
 70
0
 62
7
  6
CONTINUOUS
370
-3
390
F
  0
LAYER
  5
1FF
100
AcDbSymbolTableRecord
100
AcDbLayerTableRecord
  2
COLORE_TOP
 70
0
 62
7
  6
CONTINUOUS
370
-3
390
F
  0
LAYER
  5
200
100
AcDbSymbolTableRecord
100
AcDbLayerTableRecord
  2
COORDINATE
 70
0
 62
7
  6
CONTINUOUS
370
-3
390
F
  0
LAYER
  5
201
100
AcDbSymbolTableRecord
100
AcDbLayerTableRecord
  2
COORD_ORIGINE
 70
0
 62
7
  6
CONTINUOUS
370
-3
390
F
  0
LAYER
  5
202
100
AcDbSymbolTableRecord
100
AcDbLayerTableRecord
  2
COPY-PUBBLISH
 70
0
 62
7
  6
CONTINUOUS
370
-3
390
F
  0
LAYER
  5
203
100
AcDbSymbolTableRecord
100
AcDbLayerTableRecord
  2
COPY_PUBLISH
 70
0
 62
7
  6
CONTINUOUS
370
-3
390
F
  0
LAYER
  5
204
100
AcDbSymbolTableRecord
100
AcDbLayerTableRecord
  2
COSMETIC
 70
0
 62
7
  6
CONTINUOUS
370
-3
390
F
  0
LAYER
  5
205
100
AcDbSymbolTableRecord
100
AcDbLayerTableRecord
  2
COSMETICHE
 70
0
 62
7
  6
CONTINUOUS
370
-3
390
F
  0
LAYER
  5
206
100
AcDbSymbolTableRecord
100
AcDbLayerTableRecord
  2
COSMETICI
 70
0
 62
7
  6
CONTINUOUS
370
-3
390
F
  0
LAYER
  5
207
100
AcDbSymbolTableRecord
100
AcDbLayerTableRecord
  2
CURVE
 70
0
 62
7
  6
CONTINUOUS
370
-3
390
F
  0
LAYER
  5
208
100
AcDbSymbolTableRecord
100
AcDbLayerTableRecord
  2
DRAFT
 70
0
 62
7
  6
CONTINUOUS
370
-3
390
F
  0
LAYER
  5
209
100
AcDbSymbolTableRecord
100
AcDbLayerTableRecord
  2
IMPORTED
 70
0
 62
7
  6
CONTINUOUS
370
-3
390
F
  0
LAYER
  5
20A
100
AcDbSymbolTableRecord
100
AcDbLayerTableRecord
  2
IMPORT_IGES
 70
0
 62
7
  6
CONTINUOUS
370
-3
390
F
  0
LAYER
  5
20B
100
AcDbSymbolTableRecord
100
AcDbLayerTableRecord
  2
INCISIONI
 70
0
 62
7
  6
CONTINUOUS
370
-3
390
F
  0
LAYER
  5
20C
100
AcDbSymbolTableRecord
100
AcDbLayerTableRecord
  2
INCISIONI_LASER
 70
0
 62
7
  6
CONTINUOUS
370
-3
390
F
  0
LAYER
  5
20D
100
AcDbSymbolTableRecord
100
AcDbLayerTableRecord
  2
INTF_1
 70
0
 62
7
  6
CONTINUOUS
370
-3
390
F
  0
LAYER
  5
20E
100
AcDbSymbolTableRecord
100
AcDbLayerTableRecord
  2
INTF_YELLOW
 70
0
 62
7
  6
CONTINUOUS
370
-3
390
F
  0
LAYER
  5
20F
100
AcDbSymbolTableRecord
100
AcDbLayerTableRecord
  2
NOTE
 70
0
 62
7
  6
CONTINUOUS
370
-3
390
F
  0
LAYER
  5
210
100
AcDbSymbolTableRecord
100
AcDbLayerTableRecord
  2
PIANI
 70
0
 62
7
  6
CONTINUOUS
370
-3
390
F
  0
LAYER
  5
211
100
AcDbSymbolTableRecord
100
AcDbLayerTableRecord
  2
PIANI_DI_RIFERIMENTO
 70
0
 62
7
  6
CONTINUOUS
370
-3
390
F
  0
LAYER
  5
212
100
AcDbSymbolTableRecord
100
AcDbLayerTableRecord
  2
PIANI_ORIGINE
 70
0
 62
7
  6
CONTINUOUS
370
-3
390
F
  0
LAYER
  5
213
100
AcDbSymbolTableRecord
100
AcDbLayerTableRecord
  2
PIANI_RIFERIMENTO
 70
0
 62
7
  6
CONTINUOUS
370
-3
390
F
  0
LAYER
  5
214
100
AcDbSymbolTableRecord
100
AcDbLayerTableRecord
  2
PIANI_SFORMO
 70
0
 62
7
  6
CONTINUOUS
370
-3
390
F
  0
LAYER
  5
215
100
AcDbSymbolTableRecord
100
AcDbLayerTableRecord
  2
PUNTI
 70
0
 62
7
  6
CONTINUOUS
370
-3
390
F
  0
LAYER
  5
216
100
AcDbSymbolTableRecord
100
AcDbLayerTableRecord
  2
RACCORDO
 70
0
 62
7
  6
CONTINUOUS
370
-3
390
F
  0
LAYER
  5
217
100
AcDbSymbolTableRecord
100
AcDbLayerTableRecord
  2
SIMBOLI
 70
0
 62
7
  6
CONTINUOUS
370
-3
390
F
  0
LAYER
  5
218
100
AcDbSymbolTableRecord
100
AcDbLayerTableRecord
  2
SMUSSO
 70
0
 62
7
  6
CONTINUOUS
370
-3
390
F
  0
LAYER
  5
219
100
AcDbSymbolTableRecord
100
AcDbLayerTableRecord
  2
SNAPLINE
 70
0
 62
7
  6
CONTINUOUS
370
-3
390
F
  0
LAYER
  5
21A
100
AcDbSymbolTableRecord
100
AcDbLayerTableRecord
  2
SUPERFICI
 70
0
 62
7
  6
CONTINUOUS
370
-3
390
F
  0
LAYER
  5
21B
100
AcDbSymbolTableRecord
100
AcDbLayerTableRecord
  2
SUP_COLORE
 70
0
 62
7
  6
CONTINUOUS
370
-3
390
F
  0
LAYER
  5
21C
100
AcDbSymbolTableRecord
100
AcDbLayerTableRecord
  2
TRASH
 70
0
 62
7
  6
CONTINUOUS
370
-3
390
F
  0
LAYER
  5
21D
100
AcDbSymbolTableRecord
100
AcDbLayerTableRecord
  2
XSEC_DATUMS
 70
0
 62
7
  6
CONTINUOUS
370
-3
390
F
  0
ENDTAB
  0
TABLE
  2
STYLE
  5
3
100
AcDbSymbolTable
 70
1
  0
STYLE
  5
11
100
AcDbSymbolTableRecord
100
AcDbTextStyleTableRecord
  2
STANDARD
 70
0
 40
0.0
 41
0.8
 50
0.0
 71
0
 42
0.2
  3
txt
  4

  0
STYLE
  5
21E
100
AcDbSymbolTableRecord
100
AcDbTextStyleTableRecord
  2
TEXTSTYLE_1
 70
0
 40
0.0
 41
0.8
 50
0.0
 71
0
 42
0.2
  3
gdt
  4

  0
ENDTAB
  0
TABLE
  2
VIEW
  5
6
100
AcDbSymbolTable
 70
0
  0
ENDTAB
  0
TABLE
  2
UCS
  5
7
100
AcDbSymbolTable
 70
0
  0
ENDTAB
  0
TABLE
  2
APPID
  5
9
100
AcDbSymbolTable
 70
1
  0
APPID
  5
21F
100
AcDbSymbolTableRecord
100
AcDbRegAppTableRecord
  2
ACAD
 70
0
  0
ENDTAB
  0
TABLE
  2
BLOCK_RECORD
  5
1
100
AcDbSymbolTable
 70
0
  0
BLOCK_RECORD
  5
220
100
AcDbSymbolTableRecord
100
AcDbBlockTableRecord
  2
*Model_Space
  0
BLOCK_RECORD
  5
221
100
AcDbSymbolTableRecord
100
AcDbBlockTableRecord
  2
*Paper_Space
  0
ENDTAB
  0
TABLE
  2
DIMSTYLE
  5
A
100
AcDbSymbolTable
 70
1
100
AcDbDimStyleTable
 71
0
  0
DIMSTYLE
105
222
100
AcDbSymbolTableRecord
100
AcDbDimStyleTableRecord
  2
STANDARD
 70
0
  3

  4

 40
1.0
 41
3.0
 42
0.0625
 43
0.38
 44
0.18
 45
0.0
 46
0.0
 47
0.01
 48
0.01
140
3.0
141
0.09
142
0.0
143
25.4
144
1.0
145
0.0
146
1.0
147
0.09
 71
1.0
 72
0.0
 73
0
 74
0
 75
0
 76
0
 77
1
 78
8
170
0
171
2
172
0
173
0
174
0
175
0
176
0
177
0
178
0
270
2
271
2
272
2
273
2
274
2
275
0
280
0
281
0
282
0
283
1
284
8
285
0
286
0
287
3
288
0
340
11
  0
ENDTAB
  0
ENDSEC
  0
SECTION
  2
BLOCKS
  0
BLOCK
  5
20
100
AcDbEntity
  8
0
100
AcDbBlockBegin
  2
*Model_Space
 70
0
 10
0.0
 20
0.0
 30
0.0
  3
*Model_Space
  1

  0
ENDBLK
  5
21
100
AcDbEntity
  8
0
100
AcDbBlockEnd
  0
BLOCK
  5
1C
100
AcDbEntity
  8
0
100
AcDbBlockBegin
  2
*Paper_Space
 70
0
 10
0.0
 20
0.0
 30
0.0
  3
*Paper_Space
  1

  0
ENDBLK
  5
1D
100
AcDbEntity
  8
0
100
AcDbBlockEnd
  0
ENDSEC
  0
SECTION
  2
ENTITIES
  0
LINE
  5
223
100
AcDbEntity
  8
0
100
AcDbLine
 62
253
  6
CONTINUOUS
 10
70.1312046222
 20
115.7605048744
 11
69.5729682116
 21
115.8732147523
  0
LINE
  5
224
100
AcDbEntity
  8
0
100
AcDbLine
 62
253
  6
CONTINUOUS
 10
70.0580473402
 20
116.0153260505
 11
69.5729682116
 21
116.1132652181
  0
LWPOLYLINE
  5
225
100
AcDbEntity
  8
0
100
AcDbPolyline
 62
7
  6
CONTINUOUS
 90
16
 70
0
 10
68.6351727983
 20
115.5186602598
 10
68.6208109446
 20
115.5217386226
 10
68.6052710684
 20
115.5256479871
 10
68.5885908731
 20
115.5302968467
 10
68.5707577065
 20
115.5354909017
 10
68.551910486
 20
115.541204794
 10
68.5323359907
 20
115.5475834349
 10
68.5121358321
 20
115.5544832616
 10
68.4914338366
 20
115.5617621806
 10
68.4705711905
 20
115.5695512779
 10
68.449731595
 20
115.5776690371
 10
68.4290634137
 20
115.5859569781
 10
68.4088783134
 20
115.5945561033
 10
68.3894301626
 20
115.6033711916
 10
68.3709145943
 20
115.6120882896
 10
68.3535855085
 20
115.6205006915
  0
LWPOLYLINE
  5
226
100
AcDbEntity
  8
0
100
AcDbPolyline
 62
253
  6
CONTINUOUS
 90
13
 70
0
 10
67.635370392
 20
114.6725014686
 10
67.6548396553
 20
114.6639535714
 10
67.6763563493
 20
114.6567356605
 10
67.699559515
 20
114.6509690139
 10
67.7240601347
 20
114.6467505261
 10
67.749446755
 20
114.644151242
 10
67.7752923015
 20
114.6432149571
 10
67.8011807914
 20
114.6439584634
 10
67.8266591587
 20
114.64637047
 10
67.8512480033
 20
114.6504001511
 10
67.8745263484
 20
114.6559654448
 10
67.8961336806
 20
114.6629664253
 10
67.9157234223
 20
114.6712781666
  0
LWPOLYLINE
  5
227
100
AcDbEntity
  8
RACCORDO
100
AcDbPolyline
 62
7
  6
CONTINUOUS
 90
12
 70
0
 10
64.8411583125
 20
114.5377845363
 10
64.8678667367
 20
114.5251000789
 10
64.9239084928
 20
114.5027741975
 10
64.9823031928
 20
114.4851714608
 10
65.0425843964
 20
114.4725599183
 10
65.1044096766
 20
114.4651225462
 10
65.1676141673
 20
114.4629958074
 10
65.2318257337
 20
114.4663233592
 10
65.2966073441
 20
114.4752100943
 10
65.3618069845
 20
114.4897884111
 10
65.4271628671
 20
114.5101645655
 10
65.4877521231
 20
114.5343567224
  0
LINE
  5
228
100
AcDbEntity
  8
RACCORDO
100
AcDbLine
 62
7
  6
CONTINUOUS
 10
49.9669898752
 20
121.9748627104
 11
49.9661269207
 21
121.9752927662
  0
LINE
  5
229
100
AcDbEntity
  8
ASSI
100
AcDbLine
 62
7
  6
CONTINUOUS
 10
64.8418533382
 20
114.5374295575
 11
49.9661054851
 21
121.975303484
  0
LINE
  5
22A
100
AcDbEntity
  8
RACCORDO
100
AcDbLine
 62
253
  6
CONTINUOUS
 10
64.5865771258
 20
114.954544749
 11
49.7174678053
 21
122.3890994092
  0
LINE
  5
22B
100
AcDbEntity
  8
0
100
AcDbLine
 62
7
  6
CONTINUOUS
 10
67.6873490291
 20
114.1795058684
 11
66.2538980052
 21
114.8962313804
  0
LINE
  5
22C
100
AcDbEntity
  8
0
100
AcDbLine
 62
253
  6
CONTINUOUS
 10
67.635370392
 20
114.2876806285
 11
66.2919414859
 21
114.9593950815
  0
LINE
  5
22D
100
AcDbEntity
  8
0
100
AcDbLine
 62
253
  6
CONTINUOUS
 10
67.635370392
 20
114.6725014686
 11
66.3212968325
 21
115.3295382483
  0
LINE
  5
22E
100
AcDbEntity
  8
0
100
AcDbLine
 62
253
  6
CONTINUOUS
 10
67.7060810701
 20
114.8578568076
 11
66.3212968325
 21
115.5502489264
  0
LINE
  5
22F
100
AcDbEntity
  8
RACCORDO
100
AcDbLine
 62
7
  6
CONTINUOUS
 10
64.8412481009
 20
114.5377327945
 11
64.8418310519
 21
114.5374407006
  0
LINE
  5
230
100
AcDbEntity
  8
RACCORDO
100
AcDbLine
 62
253
  6
CONTINUOUS
 10
49.9661269207
 20
121.9752927662
 11
49.9454854981
 21
121.9864553307
  0
LWPOLYLINE
  5
231
100
AcDbEntity
  8
RACCORDO
100
AcDbPolyline
 62
253
  6
CONTINUOUS
 90
10
 70
0
 10
49.9454854981
 20
121.9864553307
 10
49.9063916719
 20
122.0127103487
 10
49.8703071999
 20
122.0441220435
 10
49.8374413968
 20
122.0805064747
 10
49.8079929574
 20
122.1216460693
 10
49.782142948
 20
122.1672921344
 10
49.7600433885
 20
122.2171719342
 10
49.7418268865
 20
122.2709859638
 10
49.7276061557
 20
122.32841013
 10
49.7174678053
 20
122.3890994092
  0
LWPOLYLINE
  5
232
100
AcDbEntity
  8
0
100
AcDbPolyline
 62
253
  6
CONTINUOUS
 90
13
 70
0
 10
69.018518532
 20
116.4061201347
 10
69.0378417267
 20
116.3976284786
 10
69.0591850927
 20
116.3904472623
 10
69.082195494
 20
116.3846953022
 10
69.1064922126
 20
116.3804677674
 10
69.1316732481
 20
116.3778346042
 10
69.1573219685
 20
116.3768393797
 10
69.1830140036
 20
116.3774985602
 10
69.2083242668
 20
116.3798012395
 10
69.2328339877
 20
116.3837093186
 10
69.2561376417
 20
116.3891581366
 10
69.2778496587
 20
116.3960575402
 10
69.2976108034
 20
116.4042933757
  0
LWPOLYLINE
  5
233
100
AcDbEntity
  8
0
100
AcDbPolyline
 62
7
  6
CONTINUOUS
 90
10
 70
0
 10
68.8586485127
 20
116.1440692315
 10
68.8952908451
 20
116.1278302903
 10
68.9308448976
 20
116.1159462562
 10
68.9666096883
 20
116.107709225
 10
69.0021931827
 20
116.1031741936
 10
69.0373023963
 20
116.1023191876
 10
69.0716778929
 20
116.1050649657
 10
69.1048660619
 20
116.1112623911
 10
69.1365129984
 20
116.1206924994
 10
69.1512820196
 20
116.1263782234
  0
LWPOLYLINE
  5
234
100
AcDbEntity
  8
0
100
AcDbPolyline
 62
253
  6
CONTINUOUS
 90
19
 70
0
 10
68.8066045
 20
116.2522694074
 10
68.8252962156
 20
116.2439678412
 10
68.84357815
 20
116.2377746508
 10
68.8614503032
 20
116.2336898361
 10
68.8790444353
 20
116.231713499
 10
68.8962287862
 20
116.2318455376
 10
68.9126080756
 20
116.2340856462
 10
68.9281613155
 20
116.2384821839
 10
68.9429094939
 20
116.2449867916
 10
68.9565202949
 20
116.253454086
 10
68.9689677013
 20
116.26392916
 10
68.9802777302
 20
116.2763669208
 10
68.9901961172
 20
116.2904867072
 10
68.9986919926
 20
116.3063374286
 10
69.0057962261
 20
116.3238701757
 10
69.0113471624
 20
116.3426575588
 10
69.0152909162
 20
116.3625571147
 10
69.0176813728
 20
116.3837113067
 10
69.018518532
 20
116.4061201347
  0
LWPOLYLINE
  5
235
100
AcDbEntity
  8
0
100
AcDbPolyline
 62
253
  6
CONTINUOUS
 90
3
 70
0
 10
70.0765188391
 20
116.0089857894
 10
70.071855898
 20
116.0110998658
 10
70.0580473402
 20
116.0153260505
  0
LWPOLYLINE
  5
236
100
AcDbEntity
  8
0
100
AcDbPolyline
 62
253
  6
CONTINUOUS
 90
22
 70
0
 10
66.6802344939
 20
119.068728611
 10
66.7199985906
 20
119.0506936394
 10
66.7591733128
 20
119.0364889365
 10
66.7977586607
 20
119.0261145022
 10
66.8359842747
 20
119.0195438186
 10
66.8736205143
 20
119.0168034037
 10
66.9099784578
 20
119.0179728112
 10
66.9450163905
 20
119.0231263527
 10
66.9787760271
 20
119.0321897166
 10
67.0106935894
 20
119.0450195223
 10
67.0407398932
 20
119.0616812094
 10
67.0689441227
 20
119.0821093383
 10
67.0948300525
 20
119.1059642102
 10
67.1183578894
 20
119.1333070445
 10
67.1395674266
 20
119.1640766216
 10
67.1581018188
 20
119.1977495845
 10
67.1739136963
 20
119.2343991719
 10
67.1870504288
 20
119.273952145
 10
67.1972972798
 20
119.3156654299
 10
67.2045826706
 20
119.3592913354
 10
67.20897818
 20
119.4050775528
 10
67.210483808
 20
119.4530240819
  0
LWPOLYLINE
  5
237
100
AcDbEntity
  8
0
100
AcDbPolyline
 62
7
  6
CONTINUOUS
 90
11
 70
0
 10
66.74524569
 20
118.9335091342
 10
66.7973031857
 20
118.9096744591
 10
66.8556985234
 20
118.8880746177
 10
66.9140308192
 20
118.8718785512
 10
66.9720371982
 20
118.8610974814
 10
67.0293149464
 20
118.8557351136
 10
67.0855927669
 20
118.8557490161
 10
67.1405308443
 20
118.8610579612
 10
67.1935339511
 20
118.8714585663
 10
67.2441792879
 20
118.8866683454
 10
67.2901407225
 20
118.9054312739
  0
LINE
  5
238
100
AcDbEntity
  8
0
100
AcDbLine
 62
7
  6
CONTINUOUS
 10
66.6204209058
 20
116.4870829929
 11
68.3535855085
 21
115.6205006915
  0
LINE
  5
239
100
AcDbEntity
  8
0
100
AcDbLine
 62
7
  6
CONTINUOUS
 10
66.3212968325
 20
117.4127377996
 11
66.5619987537
 21
117.2923868391
  0
LINE
  5
23A
100
AcDbEntity
  8
0
100
AcDbLine
 62
7
  6
CONTINUOUS
 10
68.5159649349
 20
116.3154037484
 11
68.8586456231
 21
116.1440634407
  0
LINE
  5
23B
100
AcDbEntity
  8
0
100
AcDbLine
 62
253
  6
CONTINUOUS
 10
66.3212968325
 20
117.4949232411
 11
66.6191866463
 21
117.3459783342
  0
LINE
  5
23C
100
AcDbEntity
  8
0
100
AcDbLine
 62
253
  6
CONTINUOUS
 10
68.354819768
 20
116.4781617734
 11
68.8066045
 21
116.2522694074
  0
LINE
  5
23D
100
AcDbEntity
  8
0
100
AcDbLine
 62
253
  6
CONTINUOUS
 10
70.0580473402
 20
116.0153260505
 11
69.5729682116
 21
116.2578656148
  0
LINE
  5
23E
100
AcDbEntity
  8
0
100
AcDbLine
 62
7
  6
CONTINUOUS
 10
70.0767793812
 20
116.0088561496
 11
69.5729682116
 21
116.2607617344
  0
LINE
  5
23F
100
AcDbEntity
  8
0
100
AcDbLine
 62
253
  6
CONTINUOUS
 10
66.3212968325
 20
118.2820306664
 11
68.9534418008
 21
116.9659581823
  0
LINE
  5
240
100
AcDbEntity
  8
0
100
AcDbLine
 62
253
  6
CONTINUOUS
 10
66.3212968325
 20
118.5941625804
 11
68.8948631571
 21
117.3073794182
  0
LWPOLYLINE
  5
241
100
AcDbEntity
  8
RACCORDO
100
AcDbPolyline
 62
7
  6
CONTINUOUS
 90
15
 70
0
 10
50.1543385742
 20
160.2605408449
 10
50.0809989943
 20
160.2149215841
 10
50.0150254596
 20
160.16549729
 10
49.9522493071
 20
160.1101348995
 10
49.8929117702
 20
160.0492175426
 10
49.8376603272
 20
159.9835765993
 10
49.7865144077
 20
159.9134432565
 10
49.7396531252
 20
159.8390628938
 10
49.6978185537
 20
159.7616675695
 10
49.6611050253
 20
159.6815683959
 10
49.6297033836
 20
159.5990050024
 10
49.6041451162
 20
159.5152862418
 10
49.5846244259
 20
159.4309735975
 10
49.5712087037
 20
159.3459777034
 10
49.570209667
 20
159.3374268692
  0
LWPOLYLINE
  5
242
100
AcDbEntity
  8
0
100
AcDbPolyline
 62
7
  6
CONTINUOUS
 90
12
 70
0
 10
53.7622275102
 20
162.3042070727
 10
53.7531363385
 20
162.298609139
 10
53.7247719966
 20
162.2781688785
 10
53.6985534157
 20
162.2544612158
 10
53.6748159608
 20
162.2277081473
 10
53.6536815349
 20
162.1979618671
 10
53.6353919309
 20
162.1654095389
 10
53.6201870266
 20
162.1302842191
 10
53.6081791786
 20
162.0925502404
 10
53.5995460223
 20
162.0522438597
 10
53.5945303964
 20
162.0095729228
 10
53.5932614676
 20
161.9736343914
  0
LWPOLYLINE
  5
243
100
AcDbEntity
  8
0
100
AcDbPolyline
 62
253
  6
CONTINUOUS
 90
13
 70
0
 10
55.4706656126
 20
162.7014107517
 10
55.4528276452
 20
162.6907233727
 10
55.4351961401
 20
162.6773538579
 10
55.4180670262
 20
162.6614679669
 10
55.4017027704
 20
162.6432378251
 10
55.3864379475
 20
162.6229603
 10
55.3726441434
 20
162.601093203
 10
55.3605789542
 20
162.5780558998
 10
55.3504170638
 20
162.5541944789
 10
55.3423340011
 20
162.5299231835
 10
55.3364648806
 20
162.5056561492
 10
55.332905135
 20
162.4817995501
 10
55.3317123994
 20
162.4587554443
  0
LINE
  5
244
100
AcDbEntity
  8
0
100
AcDbLine
 62
7
  6
CONTINUOUS
 10
53.7620796903
 20
162.3041263166
 11
54.1943987362
 21
162.5604059943
  0
LINE
  5
245
100
AcDbEntity
  8
0
100
AcDbLine
 62
253
  6
CONTINUOUS
 10
53.997763856
 20
162.296725089
 11
54.2569500099
 21
162.4503712091
  0
LWPOLYLINE
  5
246
100
AcDbEntity
  8
0
100
AcDbPolyline
 62
253
  6
CONTINUOUS
 90
7
 70
0
 10
57.8275466295
 20
163.5694336446
 10
57.8442768446
 20
163.5793003497
 10
57.8583198204
 20
163.5901643086
 10
57.86944058
 20
163.6018437379
 10
57.8774530433
 20
163.6141432096
 10
57.8822231402
 20
163.6268569202
 10
57.8836786694
 20
163.6388994817
  0
LINE
  5
247
100
AcDbEntity
  8
RACCORDO
100
AcDbLine
 62
7
  6
CONTINUOUS
 10
50.1542284646
 20
160.2604978379
 11
50.8142135425
 21
160.6299730132
  0
LINE
  5
248
100
AcDbEntity
  8
0
100
AcDbLine
 62
253
  6
CONTINUOUS
 10
50.3892165861
 20
160.252448856
 11
51.0456295763
 21
160.6199242926
  0
LINE
  5
249
100
AcDbEntity
  8
0
100
AcDbLine
 62
7
  6
CONTINUOUS
 10
53.6672210594
 20
163.5609562627
 11
55.2685534938
 21
164.4249118484
  0
LINE
  5
24A
100
AcDbEntity
  8
0
100
AcDbLine
 62
253
  6
CONTINUOUS
 10
53.7597176805
 20
163.5568847178
 11
55.3601003706
 21
164.4203278946
  0
LINE
  5
24B
100
AcDbEntity
  8
0
100
AcDbLine
 62
253
  6
CONTINUOUS
 10
55.4706656126
 20
162.7014107517
 11
57.1279104019
 21
163.536422879
  0
LINE
  5
24C
100
AcDbEntity
  8
0
100
AcDbLine
 62
253
  6
CONTINUOUS
 10
55.6120654297
 20
162.4575321424
 11
57.269310219
 21
163.2925442697
  0
LINE
  5
24D
100
AcDbEntity
  8
0
100
AcDbLine
 62
7
  6
CONTINUOUS
 10
55.2685969281
 20
164.4249352387
 11
55.2727633647
 21
164.4270187431
  0
LINE
  5
24E
100
AcDbEntity
  8
0
100
AcDbLine
 62
253
  6
CONTINUOUS
 10
57.1279104019
 20
163.536422879
 11
57.6861468124
 21
163.813312254
  0
LINE
  5
24F
100
AcDbEntity
  8
0
100
AcDbLine
 62
253
  6
CONTINUOUS
 10
57.269310219
 20
163.2925442697
 11
57.8275466295
 21
163.5694336446
  0
LWPOLYLINE
  5
250
100
AcDbEntity
  8
RACCORDO
100
AcDbPolyline
 62
253
  6
CONTINUOUS
 90
8
 70
0
 10
50.1543306625
 20
160.2605550091
 10
50.1778845636
 20
160.2716724871
 10
50.2091867401
 20
160.2809885316
 10
50.2425609532
 20
160.2853043983
 10
50.2776418665
 20
160.2845728428
 10
50.3140454611
 20
160.2788018731
 10
50.3513732391
 20
160.2680546622
 10
50.3892165861
 20
160.252448856
  0
LINE
  5
251
100
AcDbEntity
  8
0
100
AcDbLine
 62
7
  6
CONTINUOUS
 10
55.2728191705
 20
164.427044516
 11
55.851847211
 21
164.6944588535
  0
LINE
  5
252
100
AcDbEntity
  8
0
100
AcDbLine
 62
253
  6
CONTINUOUS
 10
55.3601003706
 20
164.4203278946
 11
55.938171096
 21
164.6873001122
  0
LWPOLYLINE
  5
253
100
AcDbEntity
  8
0
100
AcDbPolyline
 62
253
  6
CONTINUOUS
 90
7
 70
0
 10
55.938171096
 20
164.6873001122
 10
55.9560090634
 20
164.6944507006
 10
55.9736405685
 20
164.6987126908
 10
55.9907696824
 20
164.6999559138
 10
56.0071339382
 20
164.6980900277
 10
56.0223987611
 20
164.6930773255
 10
56.0251219338
 20
164.691784642
  0
LWPOLYLINE
  5
254
100
AcDbEntity
  8
0
100
AcDbPolyline
 62
7
  6
CONTINUOUS
 90
6
 70
0
 10
55.851847211
 20
164.6944588535
 10
55.874310269
 20
164.7032309247
 10
55.8979964771
 20
164.7093003086
 10
55.9225147871
 20
164.7124520469
 10
55.9475307101
 20
164.7125372483
 10
55.9724697765
 20
164.7094787907
  0
LWPOLYLINE
  5
255
100
AcDbEntity
  8
0
100
AcDbPolyline
 62
7
  6
CONTINUOUS
 90
3
 70
0
 10
55.2727633647
 20
164.4270187431
 10
55.289400835
 20
164.4324810164
 10
55.3059877326
 20
164.4342038077
  0
LWPOLYLINE
  5
256
100
AcDbEntity
  8
0
100
AcDbPolyline
 62
253
  6
CONTINUOUS
 90
6
 70
0
 10
55.851847211
 20
164.6944588535
 10
55.8683865529
 20
164.699876194
 10
55.8848259257
 20
164.7015313695
 10
55.9021354816
 20
164.6999600432
 10
55.9200191637
 20
164.6951890905
 10
55.938171096
 20
164.6873001122
  0
LWPOLYLINE
  5
257
100
AcDbEntity
  8
0
100
AcDbPolyline
 62
253
  6
CONTINUOUS
 90
13
 70
0
 10
67.210483808
 20
119.4530240819
 10
67.2347818355
 20
119.442354043
 10
67.2616312413
 20
119.4333415173
 10
67.2905827624
 20
119.4261373088
 10
67.3211519621
 20
119.4208619632
 10
67.3528273356
 20
119.4176037512
 10
67.3850788686
 20
119.4164171914
 10
67.4173669062
 20
119.4173221383
 10
67.4491511828
 20
119.4203034495
 10
67.479899862
 20
119.4253112392
 10
67.5090984356
 20
119.4322617133
 10
67.5362583329
 20
119.4410385719
 10
67.5609250959
 20
119.4514949545
  0
LINE
  5
258
100
AcDbEntity
  8
0
100
AcDbLine
 62
7
  6
CONTINUOUS
 10
66.3212968325
 20
119.1454656398
 11
66.7452077884
 21
118.9335101619
  0
LINE
  5
259
100
AcDbEntity
  8
0
100
AcDbLine
 62
253
  6
CONTINUOUS
 10
66.3212968325
 20
119.2481974417
 11
66.6802344939
 21
119.068728611
  0
LINE
  5
25A
100
AcDbEntity
  8
0
100
AcDbLine
 62
7
  6
CONTINUOUS
 10
67.7115316924
 20
118.8404563616
 11
68.8948631571
 21
118.2487906292
  0
LINE
  5
25B
100
AcDbEntity
  8
0
100
AcDbLine
 62
253
  6
CONTINUOUS
 10
66.3835428076
 20
119.9280595983
 11
66.3212968325
 21
119.9591825859
  0
LINE
  5
25C
100
AcDbEntity
  8
0
100
AcDbLine
 62
7
  6
CONTINUOUS
 10
67.1356321656
 20
119.6247631896
 11
67.210483808
 21
119.5873373684
  0
LINE
  5
25D
100
AcDbEntity
  8
0
100
AcDbLine
 62
253
  6
CONTINUOUS
 10
66.4886687995
 20
120.1105358949
 11
66.3212968325
 21
120.1942218785
  0
LINE
  5
25E
100
AcDbEntity
  8
0
100
AcDbLine
 62
7
  6
CONTINUOUS
 10
68.8970302317
 20
119.0101173669
 11
68.1425046498
 21
119.3873801579
  0
LINE
  5
25F
100
AcDbEntity
  8
0
100
AcDbLine
 62
253
  6
CONTINUOUS
 10
68.9534418008
 20
119.0640970239
 11
68.1369614656
 21
119.4723371915
  0
LINE
  5
260
100
AcDbEntity
  8
0
100
AcDbLine
 62
7
  6
CONTINUOUS
 10
69.018518532
 20
119.5110625807
 11
68.1755960962
 21
119.9325237986
  0
LINE
  5
261
100
AcDbEntity
  8
0
100
AcDbLine
 62
7
  6
CONTINUOUS
 10
66.6175801391
 20
121.0709130138
 11
66.3212968325
 21
121.2190546671
  0
LINE
  5
262
100
AcDbEntity
  8
0
100
AcDbLine
 62
253
  6
CONTINUOUS
 10
66.6663747503
 20
121.1492475101
 11
66.3212968325
 21
121.321786469
  0
LINE
  5
263
100
AcDbEntity
  8
0
100
AcDbLine
 62
253
  6
CONTINUOUS
 10
66.3212968325
 20
121.6934294051
 11
66.5930648906
 21
121.557545376
  0
LWPOLYLINE
  5
264
100
AcDbEntity
  8
0
100
AcDbPolyline
 62
253
  6
CONTINUOUS
 90
7
 70
0
 10
66.6663747503
 20
120.1330405983
 10
66.6535039052
 20
120.1403734346
 10
66.6426457344
 20
120.1484795594
 10
66.6339839452
 20
120.1572217932
 10
66.627665075
 20
120.166452196
 10
66.623796012
 20
120.1760145716
 10
66.6224407779
 20
120.1860455404
  0
LWPOLYLINE
  5
265
100
AcDbEntity
  8
0
100
AcDbPolyline
 62
253
  6
CONTINUOUS
 90
4
 70
0
 10
70.0580473402
 20
116.0153260505
 10
70.0760696792
 20
116.0045126134
 10
70.0925868338
 20
115.990736559
 10
70.1073182843
 20
115.9742313455
  0
LWPOLYLINE
  5
266
100
AcDbEntity
  8
0
100
AcDbPolyline
 62
7
  6
CONTINUOUS
 90
8
 70
0
 10
68.1419861496
 20
119.3876394564
 10
68.13703461
 20
119.3908783525
 10
68.1312542265
 20
119.3980936275
 10
68.1279869248
 20
119.4078624376
 10
68.1267909217
 20
119.4203778539
 10
68.1276621899
 20
119.4355514902
 10
68.1310051828
 20
119.4529829325
 10
68.1369614656
 20
119.4723371915
  0
LWPOLYLINE
  5
267
100
AcDbEntity
  8
RACCORDO
100
AcDbPolyline
 62
253
  6
CONTINUOUS
 90
8
 70
0
 10
49.5711664151
 20
122.5645843854
 10
49.5771613689
 20
122.5367201699
 10
49.5885778187
 20
122.5079964347
 10
49.6050653378
 20
122.480550747
 10
49.6264491849
 20
122.454673987
 10
49.6525027257
 20
122.4306404066
 10
49.6829498346
 20
122.4087047232
 10
49.7174678209
 20
122.3890994199
  0
LWPOLYLINE
  5
268
100
AcDbEntity
  8
RACCORDO
100
AcDbPolyline
 62
7
  6
CONTINUOUS
 90
11
 70
0
 10
49.571182042
 20
122.5645864147
 10
49.5789576166
 20
122.5148435455
 10
49.5982051203
 20
122.4326155477
 10
49.624389089
 20
122.3555844633
 10
49.656797856
 20
122.2843535996
 10
49.6949523805
 20
122.2188453345
 10
49.7387757981
 20
122.1586633945
 10
49.7876361185
 20
122.1043367376
 10
49.8409575086
 20
122.0561503079
 10
49.8989642606
 20
122.013813942
 10
49.9668969006
 20
121.9749165538
  0
LINE
  5
269
100
AcDbEntity
  8
RACCORDO
100
AcDbLine
 62
7
  6
CONTINUOUS
 10
49.5711156966
 20
122.564976271
 11
49.5711664151
 21
122.5645843854
  0
LWPOLYLINE
  5
26A
100
AcDbEntity
  8
RACCORDO
100
AcDbPolyline
 62
253
  6
CONTINUOUS
 90
9
 70
0
 10
48.8865423218
 20
132.3697887882
 10
48.8875722245
 20
132.3552551755
 10
48.8935362708
 20
132.3291553445
 10
48.9047228212
 20
132.3035666751
 10
48.9210133604
 20
132.2787602649
 10
48.9422352996
 20
132.2549989236
 10
48.9681638042
 20
132.2325343891
 10
48.9985241767
 20
132.2116046603
 10
49.0329947662
 20
132.1924314759
  0
LWPOLYLINE
  5
26B
100
AcDbEntity
  8
RACCORDO
100
AcDbPolyline
 62
253
  6
CONTINUOUS
 90
9
 70
0
 10
48.8865405177
 20
148.8229260182
 10
48.8875722403
 20
148.8053606778
 10
48.8935362875
 20
148.7803464712
 10
48.9047228383
 20
148.7557039726
 10
48.9210133778
 20
148.7316942551
 10
48.9422353169
 20
148.7085716882
 10
48.9681638212
 20
148.6865812421
 10
48.9985241931
 20
148.6659558932
 10
49.0329947816
 20
148.6469141552
  0
LWPOLYLINE
  5
26C
100
AcDbEntity
  8
RACCORDO
100
AcDbPolyline
 62
7
  6
CONTINUOUS
 90
10
 70
0
 10
48.886542345
 20
132.3697889426
 10
48.9089311826
 20
131.2972767443
 10
48.9457304328
 20
130.1686781632
 10
48.9959859888
 20
129.047868526
 10
49.0596898756
 20
127.93512277
 10
49.1368302102
 20
126.8306658844
 10
49.2273951741
 20
125.7347043654
 10
49.3313703492
 20
124.6474622112
 10
49.4487310525
 20
123.5692046948
 10
49.5711156966
 20
122.564976271
  0
LWPOLYLINE
  5
26D
100
AcDbEntity
  8
RACCORDO
100
AcDbPolyline
 62
253
  6
CONTINUOUS
 90
10
 70
0
 10
49.0329947658
 20
132.1924314757
 10
49.0084402225
 20
134.0076931228
 10
48.9900245331
 20
135.8262658985
 10
48.9777476491
 20
137.6481171744
 10
48.9716094522
 20
139.4731894892
 10
48.9716094554
 20
141.3014748015
 10
48.9777476578
 20
143.1330149179
 10
48.9900245444
 20
144.9678022833
 10
49.0084402316
 20
146.8057795534
 10
49.0329947658
 20
148.6469141476
  0
LWPOLYLINE
  5
26E
100
AcDbEntity
  8
RACCORDO
100
AcDbPolyline
 62
7
  6
CONTINUOUS
 90
10
 70
0
 10
48.8865405047
 20
148.8229261429
 10
48.8625699406
 20
147.0315154806
 10
48.8438655499
 20
145.1787263356
 10
48.8313989283
 20
143.3291316786
 10
48.8251704611
 20
141.4827694357
 10
48.8251802558
 20
139.6396711086
 10
48.8314283686
 20
137.7998657894
 10
48.8439148003
 20
135.9633849924
 10
48.8626392744
 20
134.1302663664
 10
48.8865423218
 20
132.3697887882
  0
LWPOLYLINE
  5
26F
100
AcDbEntity
  8
RACCORDO
100
AcDbPolyline
 62
253
  6
CONTINUOUS
 90
10
 70
0
 10
49.0329947658
 20
148.6469141476
 10
49.0566912593
 20
149.7931645196
 10
49.0935050497
 20
150.9457704427
 10
49.1434281468
 20
152.1044879745
 10
49.2064492766
 20
153.2690720645
 10
49.2825551842
 20
154.4392761579
 10
49.3717306443
 20
155.6148522509
 10
49.4739567267
 20
156.7955515384
 10
49.5892107925
 20
157.9811244637
 10
49.7174678053
 20
159.1713203258
  0
LWPOLYLINE
  5
270
100
AcDbEntity
  8
RACCORDO
100
AcDbPolyline
 62
253
  6
CONTINUOUS
 90
10
 70
0
 10
49.570209667
 20
159.3374268692
 10
49.5699806625
 20
159.3350466303
 10
49.5709479072
 20
159.3142337992
 10
49.5771730097
 20
159.2930732263
 10
49.5885899957
 20
159.2717891737
 10
49.6050778665
 20
159.2506072126
 10
49.6264618818
 20
159.2297518322
 10
49.6525154111
 20
159.2094440604
 10
49.682962336
 20
159.1898991215
 10
49.7174799762
 20
159.171324155
  0
LWPOLYLINE
  5
271
100
AcDbEntity
  8
RACCORDO
100
AcDbPolyline
 62
7
  6
CONTINUOUS
 90
10
 70
0
 10
49.5702144696
 20
159.3375568881
 10
49.4474257849
 20
158.2003328018
 10
49.3303235373
 20
157.0003714168
 10
49.2265676773
 20
155.8053136772
 10
49.1361872531
 20
154.6154518274
 10
49.0592011215
 20
153.4310273095
 10
48.9956257342
 20
152.2522630318
 10
48.9454773807
 20
151.0794000313
 10
48.9087684035
 20
149.912724434
 10
48.8865405177
 20
148.8229260182
  0
LWPOLYLINE
  5
272
100
AcDbEntity
  8
RACCORDO
100
AcDbPolyline
 62
253
  6
CONTINUOUS
 90
19
 70
0
 10
49.7174678053
 20
159.1713203258
 10
49.7276060953
 20
159.2424214104
 10
49.7418268172
 20
159.3144428357
 10
49.7600434362
 20
159.3869529808
 10
49.7821434081
 20
159.4595193405
 10
49.8079941151
 20
159.5317054717
 10
49.8374432231
 20
159.6030736762
 10
49.8703094319
 20
159.6731955908
 10
49.9063941622
 20
159.7416535504
 10
49.945488198
 20
159.8080372054
 10
49.9873532729
 20
159.8719501374
 10
50.0317356198
 20
159.9330103118
 10
50.0783783746
 20
159.990850558
 10
50.1269992079
 20
160.0451267444
 10
50.1773020259
 20
160.0955128122
 10
50.2289914606
 20
160.1417005718
 10
50.2817567045
 20
160.1834122485
 10
50.3352735471
 20
160.22040174
 10
50.3892165861
 20
160.252448856
  0
LWPOLYLINE
  5
273
100
AcDbEntity
  8
0
100
AcDbPolyline
 62
7
  6
CONTINUOUS
 90
7
 70
0
 10
57.8392340727
 20
163.1056957865
 10
57.8541054975
 20
163.1267393314
 10
57.866151889
 20
163.1495289279
 10
57.8751689638
 20
163.1736849838
 10
57.8810129051
 20
163.198858551
 10
57.8835626992
 20
163.2245939549
 10
57.8836786688
 20
163.2313959776
  0
LINE
  5
274
100
AcDbEntity
  8
0
100
AcDbLine
 62
253
  6
CONTINUOUS
 10
57.8275466295
 20
163.1619380101
 11
57.269310219
 21
162.4711574068
  0
LINE
  5
275
100
AcDbEntity
  8
0
100
AcDbLine
 62
7
  6
CONTINUOUS
 10
57.8392340727
 20
163.1056957865
 11
57.269310219
 21
162.4004527459
  0
LWPOLYLINE
  5
276
100
AcDbEntity
  8
0
100
AcDbPolyline
 62
7
  6
CONTINUOUS
 90
15
 70
0
 10
56.3315148057
 20
161.9200933955
 10
56.317145847
 20
161.9040836093
 10
56.3014863859
 20
161.888927053
 10
56.2846515155
 20
161.8746975381
 10
56.2667917755
 20
161.8613750731
 10
56.2480413722
 20
161.8491111487
 10
56.2285113786
 20
161.8382364651
 10
56.2083866541
 20
161.8288027365
 10
56.1878605954
 20
161.8208651498
 10
56.1670775063
 20
161.8147656834
 10
56.1462386919
 20
161.8105449436
 10
56.1256282966
 20
161.8082319713
 10
56.1055372221
 20
161.8081390334
 10
56.0862467671
 20
161.8103581886
 10
56.0815672095
 20
161.8112588855
  0
LWPOLYLINE
  5
277
100
AcDbEntity
  8
0
100
AcDbPolyline
 62
7
  6
CONTINUOUS
 90
4
 70
0
 10
53.8033084807
 20
159.3035453904
 10
53.7865850321
 20
159.2927394196
 10
53.7707489853
 20
159.2821800667
 10
53.7495859301
 20
159.2679461157
  0
LWPOLYLINE
  5
278
100
AcDbEntity
  8
0
100
AcDbPolyline
 62
7
  6
CONTINUOUS
 90
7
 70
0
 10
56.1579146591
 20
161.034653407
 10
56.1384702901
 20
161.022301742
 10
56.1196034337
 20
161.0099350932
 10
56.1012409843
 20
160.9978073973
 10
56.0835193049
 20
160.9860116087
 10
56.0667512798
 20
160.9744335656
 10
56.0511617753
 20
160.9630384858
  0
LWPOLYLINE
  5
279
100
AcDbEntity
  8
0
100
AcDbPolyline
 62
7
  6
CONTINUOUS
 90
3
 70
0
 10
53.8578019415
 20
159.337782754
 10
53.8389129592
 20
159.3262114159
 10
53.8033084807
 20
159.3035453904
  0
LWPOLYLINE
  5
27A
100
AcDbEntity
  8
0
100
AcDbPolyline
 62
253
  6
CONTINUOUS
 90
13
 70
0
 10
58.8578323337
 20
161.2970380002
 10
58.840004925
 20
161.2863577763
 10
58.822380225
 20
161.2729957087
 10
58.8052540711
 20
161.2571158977
 10
58.7888882358
 20
161.2388878785
 10
58.7736189344
 20
161.2186082366
 10
58.7598209263
 20
161.1967379258
 10
58.7477525659
 20
161.1736976863
 10
58.7375879435
 20
161.1498326984
 10
58.7295028818
 20
161.1255579456
 10
58.7236324911
 20
161.1012879374
 10
58.7200720591
 20
161.0774288026
 10
58.7188791204
 20
161.0543826928
  0
LINE
  5
27B
100
AcDbEntity
  8
0
100
AcDbLine
 62
7
  6
CONTINUOUS
 10
53.9786909817
 20
159.4072863841
 11
53.9586930051
 21
159.3959586459
  0
LWPOLYLINE
  5
27C
100
AcDbEntity
  8
0
100
AcDbPolyline
 62
7
  6
CONTINUOUS
 90
4
 70
0
 10
53.9586930051
 20
159.3959586459
 10
53.9174273817
 20
159.3732921795
 10
53.8970665043
 20
159.3615757084
 10
53.8578019415
 20
159.337782754
  0
LINE
  5
27D
100
AcDbEntity
  8
0
100
AcDbLine
 62
7
  6
CONTINUOUS
 10
56.3315148057
 20
161.1350995413
 11
57.269310219
 21
161.6470696225
  0
LINE
  5
27E
100
AcDbEntity
  8
0
100
AcDbLine
 62
7
  6
CONTINUOUS
 10
59.2990621466
 20
161.9766448201
 11
58.3924938986
 21
161.4875304521
  0
LINE
  5
27F
100
AcDbEntity
  8
0
100
AcDbLine
 62
253
  6
CONTINUOUS
 10
59.3906090234
 20
161.9720608663
 11
58.4849905197
 21
161.4834589072
  0
LINE
  5
280
100
AcDbEntity
  8
0
100
AcDbLine
 62
7
  6
CONTINUOUS
 10
54.4186470161
 20
158.9334155727
 11
55.7862910624
 21
159.6712909118
  0
LINE
  5
281
100
AcDbEntity
  8
0
100
AcDbLine
 62
253
  6
CONTINUOUS
 10
54.6782641532
 20
158.8036070041
 11
56.2438976905
 21
159.6483022158
  0
LWPOLYLINE
  5
282
100
AcDbEntity
  8
0
100
AcDbPolyline
 62
7
  6
CONTINUOUS
 90
9
 70
0
 10
56.3264092528
 20
161.1324023906
 10
56.3109919329
 20
161.1243317073
 10
56.2943057775
 20
161.1153535353
 10
56.2764986761
 20
161.1055372586
 10
56.2576757465
 20
161.0948293115
 10
56.238071311
 20
161.0834065624
 10
56.2180650437
 20
161.0716449089
 10
56.1979397179
 20
161.0595283651
 10
56.1579146591
 20
161.034653407
  0
LINE
  5
283
100
AcDbEntity
  8
0
100
AcDbLine
 62
253
  6
CONTINUOUS
 10
58.8578323337
 20
161.2970380002
 11
59.5649391149
 21
161.6657079204
  0
LINE
  5
284
100
AcDbEntity
  8
0
100
AcDbLine
 62
253
  6
CONTINUOUS
 10
59.0017218329
 20
161.0543826928
 11
59.5674072578
 21
161.3493186289
  0
LINE
  5
285
100
AcDbEntity
  8
0
100
AcDbLine
 62
7
  6
CONTINUOUS
 10
59.2991055809
 20
161.9766682104
 11
59.3032720175
 21
161.9787517148
  0
LINE
  5
286
100
AcDbEntity
  8
0
100
AcDbLine
 62
7
  6
CONTINUOUS
 10
64.2566592548
 20
165.3306869552
 11
57.6775964209
 21
162.1349167731
  0
LINE
  5
287
100
AcDbEntity
  8
0
100
AcDbLine
 62
253
  6
CONTINUOUS
 10
64.4783021491
 20
165.315523041
 11
57.8021988136
 21
162.0726155767
  0
LINE
  5
288
100
AcDbEntity
  8
0
100
AcDbLine
 62
253
  6
CONTINUOUS
 10
60.3476928601
 20
162.0495265282
 11
65.019533902
 21
164.2855724255
  0
LINE
  5
289
100
AcDbEntity
  8
0
100
AcDbLine
 62
253
  6
CONTINUOUS
 10
65.1584871152
 20
164.0404489751
 11
60.7151375625
 21
161.913764131
  0
LINE
  5
28A
100
AcDbEntity
  8
DRAFT
100
AcDbLine
 62
7
  6
CONTINUOUS
 10
64.800520257
 20
165.1544139871
 11
71.5506411529
 21
168.3668605752
  0
LINE
  5
28B
100
AcDbEntity
  8
0
100
AcDbLine
 62
7
  6
CONTINUOUS
 10
57.9414492457
 20
162.0029903607
 11
58.7381890863
 21
162.379322109
  0
LINE
  5
28C
100
AcDbEntity
  8
0
100
AcDbLine
 62
7
  6
CONTINUOUS
 10
72.7484876244
 20
168.3988139121
 11
58.5246424642
 21
161.7113937514
  0
LINE
  5
28D
100
AcDbEntity
  8
0
100
AcDbLine
 62
253
  6
CONTINUOUS
 10
72.8579419163
 20
168.3905875036
 11
58.5861655394
 21
161.6806322138
  0
LINE
  5
28E
100
AcDbEntity
  8
0
100
AcDbLine
 62
7
  6
CONTINUOUS
 10
72.7609298993
 20
168.4045696925
 11
72.7483257378
 21
168.3987330158
  0
LINE
  5
28F
100
AcDbEntity
  8
0
100
AcDbLine
 62
253
  6
CONTINUOUS
 10
64.7220680793
 20
164.4343053368
 11
59.3906090234
 21
161.9720608663
  0
LINE
  5
290
100
AcDbEntity
  8
0
100
AcDbLine
 62
7
  6
CONTINUOUS
 10
64.6358568567
 20
164.4415159955
 11
59.3033278232
 21
161.9787774877
  0
LWPOLYLINE
  5
291
100
AcDbEntity
  8
0
100
AcDbPolyline
 62
253
  6
CONTINUOUS
 90
11
 70
0
 10
65.4085192514
 20
164.0877962734
 10
65.4083481833
 20
164.0877222954
 10
65.4057735868
 20
164.0869789485
 10
65.4001994514
 20
164.085557554
 10
65.3917471763
 20
164.0835046791
 10
65.3805628559
 20
164.0809109
 10
65.3668000977
 20
164.0779021942
 10
65.3505820294
 20
164.0745696272
 10
65.3320532044
 20
164.0710027452
 10
65.3114010647
 20
164.0672841184
 10
65.2888092617
 20
164.0634856737
  0
LWPOLYLINE
  5
292
100
AcDbEntity
  8
0
100
AcDbPolyline
 62
253
  6
CONTINUOUS
 90
13
 70
0
 10
55.6120654297
 20
162.0727113023
 10
55.5923320195
 20
162.0643461948
 10
55.5706041018
 20
162.0573247069
 10
55.5472452431
 20
162.0517643271
 10
55.5226462999
 20
162.0477580955
 10
55.4972188786
 20
162.045373047
 10
55.4713884485
 20
162.0446490901
 10
55.4455872221
 20
162.0455983383
 10
55.4202469232
 20
162.0482049084
 10
55.3957915633
 20
162.0524251852
 10
55.3726303462
 20
162.0581885523
 10
55.3511508215
 20
162.065398573
 10
55.3317123994
 20
162.0739346043
  0
LINE
  5
293
100
AcDbEntity
  8
0
100
AcDbLine
 62
7
  6
CONTINUOUS
 10
64.6658445426
 20
164.4541973035
 11
64.6358625802
 21
164.4415035713
  0
LINE
  5
294
100
AcDbEntity
  8
0
100
AcDbLine
 62
7
  6
CONTINUOUS
 10
55.0495685679
 20
159.8124540752
 11
54.0011391619
 21
159.4174299626
  0
LWPOLYLINE
  5
295
100
AcDbEntity
  8
0
100
AcDbPolyline
 62
7
  6
CONTINUOUS
 90
3
 70
0
 10
59.3032720175
 20
161.9787517148
 10
59.3199094878
 20
161.9842139881
 10
59.3364963854
 20
161.9859367795
  0
LWPOLYLINE
  5
296
100
AcDbEntity
  8
0
100
AcDbPolyline
 62
253
  6
CONTINUOUS
 90
3
 70
0
 10
64.7919803462
 20
164.4600141289
 10
64.7571707178
 20
164.4489632123
 10
64.7220680793
 20
164.4343053368
  0
LINE
  5
297
100
AcDbEntity
  8
0
100
AcDbLine
 62
253
  6
CONTINUOUS
 10
66.3212968325
 20
122.0860940665
 11
66.5491309078
 21
121.9721770288
  0
LINE
  5
298
100
AcDbEntity
  8
0
100
AcDbLine
 62
7
  6
CONTINUOUS
 10
70.9703426777
 20
120.4163836314
 11
69.9972322804
 21
120.90293883
  0
LINE
  5
299
100
AcDbEntity
  8
0
100
AcDbLine
 62
7
  6
CONTINUOUS
 10
70.1032982975
 20
120.9497560515
 11
70.38614101
 21
120.8083346953
  0
LINE
  5
29A
100
AcDbEntity
  8
RACCORDO
100
AcDbLine
 62
253
  6
CONTINUOUS
 10
63.8655030141
 20
124.7761773516
 11
49.0329947658
 21
132.1924314757
  0
LINE
  5
29B
100
AcDbEntity
  8
0
100
AcDbLine
 62
7
  6
CONTINUOUS
 10
69.018518532
 20
122.5357715933
 11
68.1007444538
 21
122.9946586324
  0
LINE
  5
29C
100
AcDbEntity
  8
0
100
AcDbLine
 62
7
  6
CONTINUOUS
 10
66.8765265531
 20
123.6513042356
 11
66.5930648906
 21
123.7930350669
  0
LINE
  5
29D
100
AcDbEntity
  8
0
100
AcDbLine
 62
7
  6
CONTINUOUS
 10
66.7629021251
 20
123.9905262648
 11
66.7445410869
 21
123.9997067839
  0
LINE
  5
29E
100
AcDbEntity
  8
0
100
AcDbLine
 62
253
  6
CONTINUOUS
 10
68.9534418008
 20
123.0281360088
 11
68.1755960962
 21
123.4170588611
  0
LINE
  5
29F
100
AcDbEntity
  8
0
100
AcDbLine
 62
253
  6
CONTINUOUS
 10
68.8948631571
 20
123.3695572447
 11
68.3169747468
 21
123.6585014498
  0
LWPOLYLINE
  5
2A0
100
AcDbEntity
  8
RACCORDO
100
AcDbPolyline
 62
253
  6
CONTINUOUS
 90
10
 70
0
 10
49.7174678053
 20
122.3890994092
 10
49.5892107925
 20
123.4441779415
 10
49.4739567268
 20
124.5083342214
 10
49.3717306445
 20
125.5813425845
 10
49.2825551847
 20
126.6629752524
 10
49.2064492776
 20
127.7530032108
 10
49.143428148
 20
128.8511962624
 10
49.0935050507
 20
129.9573219675
 10
49.0566912599
 20
131.0711456894
 10
49.0329947658
 20
132.1924314757
  0
LWPOLYLINE
  5
2A1
100
AcDbEntity
  8
0
100
AcDbPolyline
 62
7
  6
CONTINUOUS
 90
10
 70
0
 10
53.5621858235
 20
163.3849400885
 10
53.5638047296
 20
163.4103325112
 10
53.5687013837
 20
163.4355727306
 10
53.5768703128
 20
163.4601608404
 10
53.5882309304
 20
163.4836299353
 10
53.6025862323
 20
163.5054721071
 10
53.6196368998
 20
163.5252248145
 10
53.6392012304
 20
163.5426574741
 10
53.6608769057
 20
163.55738284
 10
53.667217537
 20
163.5609543622
  0
LWPOLYLINE
  5
2A2
100
AcDbEntity
  8
0
100
AcDbPolyline
 62
7
  6
CONTINUOUS
 90
3
 70
0
 10
58.740247723
 20
159.6444475033
 10
58.7291467527
 20
159.6366642086
 10
58.7188791204
 20
159.6291798133
  0
LWPOLYLINE
  5
2A3
100
AcDbEntity
  8
0
100
AcDbPolyline
 62
7
  6
CONTINUOUS
 90
4
 70
0
 10
58.7923528881
 20
159.6794189688
 10
58.7782429734
 20
159.6701742512
 10
58.7648341802
 20
159.6611601188
 10
58.740247723
 20
159.6444475033
  0
LWPOLYLINE
  5
2A4
100
AcDbEntity
  8
0
100
AcDbPolyline
 62
7
  6
CONTINUOUS
 90
3
 70
0
 10
58.8382609977
 20
159.7087317332
 10
58.8223710917
 20
159.6987834825
 10
58.7923528881
 20
159.6794189688
  0
LWPOLYLINE
  5
2A5
100
AcDbEntity
  8
0
100
AcDbPolyline
 62
253
  6
CONTINUOUS
 90
13
 70
0
 10
61.328981747
 20
160.7836866044
 10
61.3111437795
 20
160.7729992253
 10
61.2935122744
 20
160.7596297105
 10
61.2763831605
 20
160.7437438195
 10
61.2600189047
 20
160.7255136777
 10
61.2447540819
 20
160.7052361526
 10
61.2309602778
 20
160.6833690557
 10
61.2188950886
 20
160.6603317524
 10
61.2087331981
 20
160.6364703316
 10
61.2006501354
 20
160.6121990362
 10
61.194781015
 20
160.5879320018
 10
61.1912212693
 20
160.5640754027
 10
61.1900285337
 20
160.541031297
  0
LWPOLYLINE
  5
2A6
100
AcDbEntity
  8
0
100
AcDbPolyline
 62
7
  6
CONTINUOUS
 90
3
 70
0
 10
58.8886407046
 20
159.7394929738
 10
58.8714039864
 20
159.729211411
 10
58.8382609977
 20
159.7087317332
  0
LWPOLYLINE
  5
2A7
100
AcDbEntity
  8
0
100
AcDbPolyline
 62
253
  6
CONTINUOUS
 90
7
 70
0
 10
62.2469640119
 20
160.9267122515
 10
62.2636942271
 20
160.9365789566
 10
62.2777372028
 20
160.9474429155
 10
62.2888579624
 20
160.9591223448
 10
62.2968704257
 20
160.9714218165
 10
62.3016405226
 20
160.9841355271
 10
62.3030960519
 20
160.9961780886
  0
LINE
  5
2A8
100
AcDbEntity
  8
0
100
AcDbLine
 62
7
  6
CONTINUOUS
 10
59.0017218329
 20
159.8026225913
 11
59.5674072578
 21
160.1217744784
  0
LWPOLYLINE
  5
2A9
100
AcDbEntity
  8
0
100
AcDbPolyline
 62
7
  6
CONTINUOUS
 90
3
 70
0
 10
58.9417495433
 20
159.7702940264
 10
58.9238611273
 20
159.7602458221
 10
58.8886407046
 20
159.7394929738
  0
LWPOLYLINE
  5
2AA
100
AcDbEntity
  8
0
100
AcDbPolyline
 62
7
  6
CONTINUOUS
 90
3
 70
0
 10
58.9941265979
 20
159.798543718
 10
58.9772332559
 20
159.7893098399
 10
58.9417495433
 20
159.7702940264
  0
LINE
  5
2AB
100
AcDbEntity
  8
0
100
AcDbLine
 62
7
  6
CONTINUOUS
 10
61.470381564
 20
159.3181594115
 11
61.6887276014
 21
159.4373609313
  0
LINE
  5
2AC
100
AcDbEntity
  8
0
100
AcDbLine
 62
7
  6
CONTINUOUS
 10
63.152794104
 20
160.0497788413
 11
62.9409900424
 21
159.935505691
  0
LINE
  5
2AD
100
AcDbEntity
  8
0
100
AcDbLine
 62
253
  6
CONTINUOUS
 10
63.2443409809
 20
160.0451948876
 11
63.0334866635
 21
159.9314341461
  0
LINE
  5
2AE
100
AcDbEntity
  8
0
100
AcDbLine
 62
253
  6
CONTINUOUS
 10
61.328981747
 20
160.7836866044
 11
61.5473277843
 21
160.8937014859
  0
LINE
  5
2AF
100
AcDbEntity
  8
0
100
AcDbLine
 62
253
  6
CONTINUOUS
 10
61.470381564
 20
160.539807995
 11
61.6887276014
 21
160.6498228766
  0
LINE
  5
2B0
100
AcDbEntity
  8
0
100
AcDbLine
 62
7
  6
CONTINUOUS
 10
63.1528375384
 20
160.0498022317
 11
63.157003975
 21
160.0518857361
  0
LINE
  5
2B1
100
AcDbEntity
  8
0
100
AcDbLine
 62
7
  6
CONTINUOUS
 10
62.3030960519
 20
160.8194917864
 11
68.0526886321
 21
163.6942880766
  0
LINE
  5
2B2
100
AcDbEntity
  8
0
100
AcDbLine
 62
7
  6
CONTINUOUS
 10
72.6248590424
 20
165.7134224315
 11
73.7095428816
 21
166.2557643511
  0
LWPOLYLINE
  5
2B3
100
AcDbEntity
  8
RACCORDO
100
AcDbPolyline
 62
7
  6
CONTINUOUS
 90
6
 70
0
 10
71.7295314741
 20
164.974355235
 10
71.7208252422
 20
164.9700062997
 10
71.7127234811
 20
164.965327381
 10
71.7049062068
 20
164.9601698857
 10
71.6973789236
 20
164.9545379239
 10
71.691496932
 20
164.9496287326
  0
LINE
  5
2B4
100
AcDbEntity
  8
0
100
AcDbLine
 62
253
  6
CONTINUOUS
 10
61.5473277843
 20
160.8937014859
 11
62.1055641948
 21
161.1705908609
  0
LINE
  5
2B5
100
AcDbEntity
  8
0
100
AcDbLine
 62
253
  6
CONTINUOUS
 10
61.6887276014
 20
160.6498228766
 11
62.2469640119
 21
160.9267122515
  0
LINE
  5
2B6
100
AcDbEntity
  8
0
100
AcDbLine
 62
7
  6
CONTINUOUS
 10
61.6887276014
 20
159.4373609313
 11
62.2469640119
 21
159.7142503063
  0
LINE
  5
2B7
100
AcDbEntity
  8
0
100
AcDbLine
 62
7
  6
CONTINUOUS
 10
71.6589332161
 20
165.9392962994
 11
65.2888092617
 21
162.89041484
  0
LINE
  5
2B8
100
AcDbEntity
  8
0
100
AcDbLine
 62
253
  6
CONTINUOUS
 10
72.3760404974
 20
166.0749225442
 11
74.9885054452
 21
167.3253057392
  0
LINE
  5
2B9
100
AcDbEntity
  8
0
100
AcDbLine
 62
253
  6
CONTINUOUS
 10
72.6248590424
 20
165.8823830585
 11
75.1274586584
 21
167.0801822888
  0
LINE
  5
2BA
100
AcDbEntity
  8
RACCORDO
100
AcDbLine
 62
253
  6
CONTINUOUS
 10
71.9950620259
 20
164.9795320954
 11
72.0514978508
 21
165.0067178465
  0
LINE
  5
2BB
100
AcDbEntity
  8
RACCORDO
100
AcDbLine
 62
253
  6
CONTINUOUS
 10
72.0514978508
 20
165.0067178465
 11
72.06372898
 21
165.0125287514
  0
LINE
  5
2BC
100
AcDbEntity
  8
RACCORDO
100
AcDbLine
 62
253
  6
CONTINUOUS
 10
71.9870834002
 20
164.9757655775
 11
71.9950620259
 21
164.9795320954
  0
LINE
  5
2BD
100
AcDbEntity
  8
RACCORDO
100
AcDbLine
 62
253
  6
CONTINUOUS
 10
72.06372898
 20
165.0125287514
 11
72.0731655185
 21
165.0169525593
  0
LINE
  5
2BE
100
AcDbEntity
  8
RACCORDO
100
AcDbLine
 62
253
  6
CONTINUOUS
 10
71.9791810766
 20
164.9720867646
 11
71.9870834002
 21
164.9757655775
  0
LINE
  5
2BF
100
AcDbEntity
  8
RACCORDO
100
AcDbLine
 62
253
  6
CONTINUOUS
 10
71.9417220807
 20
164.9547869589
 11
71.9791810766
 21
164.9720867646
  0
LINE
  5
2C0
100
AcDbEntity
  8
0
100
AcDbLine
 62
7
  6
CONTINUOUS
 10
63.7360878212
 20
160.3193258464
 11
63.1570597807
 21
160.051911509
  0
LINE
  5
2C1
100
AcDbEntity
  8
0
100
AcDbLine
 62
253
  6
CONTINUOUS
 10
63.8224117062
 20
160.3121671052
 11
63.2443409809
 21
160.0451948876
  0
LINE
  5
2C2
100
AcDbEntity
  8
RACCORDO
100
AcDbLine
 62
253
  6
CONTINUOUS
 10
72.0731655185
 20
165.0169525593
 11
72.0828451799
 21
165.0214265485
  0
LINE
  5
2C3
100
AcDbEntity
  8
RACCORDO
100
AcDbLine
 62
7
  6
CONTINUOUS
 10
71.7802586775
 20
164.9977442597
 11
71.7295669786
 21
164.9743716323
  0
LINE
  5
2C4
100
AcDbEntity
  8
RACCORDO
100
AcDbLine
 62
253
  6
CONTINUOUS
 10
72.0828451799
 20
165.0214265485
 11
72.0894406679
 21
165.0244342944
  0
LWPOLYLINE
  5
2C5
100
AcDbEntity
  8
RACCORDO
100
AcDbPolyline
 62
253
  6
CONTINUOUS
 90
22
 70
0
 10
71.763371366
 20
164.9899836186
 10
71.7664996792
 20
164.9913935506
 10
71.7757481417
 20
164.9951674448
 10
71.7852077559
 20
164.9984499002
 10
71.7948683963
 20
165.0012374034
 10
71.804719722
 20
165.0035269706
 10
71.8147511879
 20
165.005316151
 10
71.8249520564
 20
165.0066030295
 10
71.8353114083
 20
165.0073862285
 10
71.8458181549
 20
165.0076649097
 10
71.8564610496
 20
165.0074387749
 10
71.8672287001
 20
165.006708066
 10
71.8781095807
 20
165.0054735652
 10
71.8890920444
 20
165.0037365939
 10
71.9001643354
 20
165.0014990115
 10
71.9113146017
 20
164.998763213
 10
71.9225309082
 20
164.9955321268
 10
71.9338012486
 20
164.9918092116
 10
71.9451135592
 20
164.9875984524
 10
71.9564557311
 20
164.9829043565
 10
71.9678156235
 20
164.9777319483
 10
71.9791810766
 20
164.9720867646
  0
LINE
  5
2C6
100
AcDbEntity
  8
RACCORDO
100
AcDbLine
 62
253
  6
CONTINUOUS
 10
72.0894406679
 20
165.0244342944
 11
72.0961558131
 21
165.0274596772
  0
LINE
  5
2C7
100
AcDbEntity
  8
RACCORDO
100
AcDbLine
 62
253
  6
CONTINUOUS
 10
72.0961558131
 20
165.0274596772
 11
72.1029938622
 21
165.0305012976
  0
LINE
  5
2C8
100
AcDbEntity
  8
RACCORDO
100
AcDbLine
 62
253
  6
CONTINUOUS
 10
72.1029938622
 20
165.0305012976
 11
72.1099596054
 21
165.0335570048
  0
LINE
  5
2C9
100
AcDbEntity
  8
RACCORDO
100
AcDbLine
 62
253
  6
CONTINUOUS
 10
72.1099596054
 20
165.0335570048
 11
72.1170583119
 21
165.0366247893
  0
LINE
  5
2CA
100
AcDbEntity
  8
RACCORDO
100
AcDbLine
 62
253
  6
CONTINUOUS
 10
72.1170583119
 20
165.0366247893
 11
72.1242932518
 21
165.0397031901
  0
LINE
  5
2CB
100
AcDbEntity
  8
RACCORDO
100
AcDbLine
 62
253
  6
CONTINUOUS
 10
72.1242932518
 20
165.0397031901
 11
72.1316690798
 21
165.0427898822
  0
LWPOLYLINE
  5
2CC
100
AcDbEntity
  8
0
100
AcDbPolyline
 62
253
  6
CONTINUOUS
 90
8
 70
0
 10
74.9885054452
 20
167.3253057392
 10
75.0250140657
 20
167.3404594993
 10
75.0610654108
 20
167.3507791178
 10
75.0962732154
 20
167.3561540268
 10
75.1302602521
 20
167.356526638
 10
75.1626623735
 20
167.3518929588
 10
75.193132413
 20
167.3423026359
 10
75.2059418855
 20
167.336487404
  0
LWPOLYLINE
  5
2CD
100
AcDbEntity
  8
0
100
AcDbPolyline
 62
253
  6
CONTINUOUS
 90
16
 70
0
 10
75.1274586584
 20
167.0801822888
 10
75.1495134537
 20
167.0893087722
 10
75.170926479
 20
167.0954665556
 10
75.1916977343
 20
167.0986556388
 10
75.2120699658
 20
167.0988562411
 10
75.2318004273
 20
167.0960881432
 10
75.2501608804
 20
167.090410688
 10
75.2670651284
 20
167.0817269489
 10
75.282599368
 20
167.0701338524
 10
75.2962939512
 20
167.0559815213
 10
75.308103473
 20
167.0391420229
 10
75.3180733384
 20
167.0197432898
 10
75.3258701149
 20
166.9985192437
 10
75.3313826583
 20
166.9757145248
 10
75.3347221127
 20
166.9510844927
 10
75.3358884783
 20
166.9246291475
  0
LINE
  5
2CE
100
AcDbEntity
  8
RACCORDO
100
AcDbLine
 62
253
  6
CONTINUOUS
 10
72.1316690798
 20
165.0427898822
 11
72.1391901913
 21
165.0458823672
  0
LINE
  5
2CF
100
AcDbEntity
  8
RACCORDO
100
AcDbLine
 62
253
  6
CONTINUOUS
 10
72.1391901913
 20
165.0458823672
 11
72.1468595341
 21
165.048978972
  0
LWPOLYLINE
  5
2D0
100
AcDbEntity
  8
0
100
AcDbPolyline
 62
253
  6
CONTINUOUS
 90
7
 70
0
 10
63.8224117062
 20
160.3121671052
 10
63.8402496737
 20
160.3193176936
 10
63.8578811787
 20
160.3235796838
 10
63.8750102927
 20
160.3248229068
 10
63.8913745484
 20
160.3229570207
 10
63.9066393713
 20
160.3179443185
 10
63.909362544
 20
160.316651635
  0
LINE
  5
2D1
100
AcDbEntity
  8
RACCORDO
100
AcDbLine
 62
253
  6
CONTINUOUS
 10
72.1468595341
 20
165.048978972
 11
72.1546815622
 21
165.0520771782
  0
LWPOLYLINE
  5
2D2
100
AcDbEntity
  8
0
100
AcDbPolyline
 62
7
  6
CONTINUOUS
 90
6
 70
0
 10
63.7360878212
 20
160.3193258464
 10
63.7585508792
 20
160.3280979177
 10
63.7822370873
 20
160.3341673016
 10
63.8067553974
 20
160.3373190399
 10
63.8317713203
 20
160.3374042413
 10
63.8567103868
 20
160.3343457837
  0
LINE
  5
2D3
100
AcDbEntity
  8
RACCORDO
100
AcDbLine
 62
253
  6
CONTINUOUS
 10
72.1546815622
 20
165.0520771782
 11
72.1626604244
 21
165.0551742705
  0
LINE
  5
2D4
100
AcDbEntity
  8
RACCORDO
100
AcDbLine
 62
253
  6
CONTINUOUS
 10
72.1626604244
 20
165.0551742705
 11
72.1707987561
 21
165.058268375
  0
LINE
  5
2D5
100
AcDbEntity
  8
RACCORDO
100
AcDbLine
 62
253
  6
CONTINUOUS
 10
72.1707987561
 20
165.058268375
 11
72.1791003234
 21
165.0613565848
  0
LINE
  5
2D6
100
AcDbEntity
  8
RACCORDO
100
AcDbLine
 62
253
  6
CONTINUOUS
 10
72.1791003234
 20
165.0613565848
 11
72.187568473
 21
165.0644357785
  0
LINE
  5
2D7
100
AcDbEntity
  8
RACCORDO
100
AcDbLine
 62
253
  6
CONTINUOUS
 10
72.187568473
 20
165.0644357785
 11
72.1962056703
 21
165.0675039413
  0
LINE
  5
2D8
100
AcDbEntity
  8
RACCORDO
100
AcDbLine
 62
253
  6
CONTINUOUS
 10
72.1962056703
 20
165.0675039413
 11
72.2050160462
 21
165.0705581822
  0
LINE
  5
2D9
100
AcDbEntity
  8
RACCORDO
100
AcDbLine
 62
253
  6
CONTINUOUS
 10
72.2050160462
 20
165.0705581822
 11
72.2140028349
 21
165.0735951977
  0
LWPOLYLINE
  5
2DA
100
AcDbEntity
  8
0
100
AcDbPolyline
 62
7
  6
CONTINUOUS
 90
3
 70
0
 10
63.157003975
 20
160.0518857361
 10
63.1736414452
 20
160.0573480094
 10
63.1902283429
 20
160.0590708007
  0
LWPOLYLINE
  5
2DB
100
AcDbEntity
  8
0
100
AcDbPolyline
 62
253
  6
CONTINUOUS
 90
6
 70
0
 10
63.7360878212
 20
160.3193258464
 10
63.7526271631
 20
160.324743187
 10
63.769066536
 20
160.3263983625
 10
63.7863760918
 20
160.3248270362
 10
63.804259774
 20
160.3200560835
 10
63.8224117062
 20
160.3121671052
  0
LINE
  5
2DC
100
AcDbEntity
  8
RACCORDO
100
AcDbLine
 62
253
  6
CONTINUOUS
 10
72.2140028349
 20
165.0735951977
 11
72.2231679551
 21
165.0766126958
  0
LINE
  5
2DD
100
AcDbEntity
  8
RACCORDO
100
AcDbLine
 62
253
  6
CONTINUOUS
 10
72.2231679551
 20
165.0766126958
 11
72.2325138138
 21
165.0796070566
  0
LINE
  5
2DE
100
AcDbEntity
  8
RACCORDO
100
AcDbLine
 62
253
  6
CONTINUOUS
 10
72.2325138138
 20
165.0796070566
 11
72.2420427492
 21
165.082574587
  0
LINE
  5
2DF
100
AcDbEntity
  8
RACCORDO
100
AcDbLine
 62
253
  6
CONTINUOUS
 10
72.2420427492
 20
165.082574587
 11
72.2517562193
 21
165.0855127807
  0
LWPOLYLINE
  5
2E0
100
AcDbEntity
  8
RACCORDO
100
AcDbPolyline
 62
253
  6
CONTINUOUS
 90
3
 70
0
 10
72.2517562193
 20
165.0855127807
 10
72.2616563567
 20
165.0884178393
 10
72.2666768676
 20
165.0898565772
  0
LINE
  5
2E1
100
AcDbEntity
  8
0
100
AcDbLine
 62
7
  6
CONTINUOUS
 10
66.5930648906
 20
126.0518210602
 11
66.8765265531
 21
125.9100902289
  0
LWPOLYLINE
  5
2E2
100
AcDbEntity
  8
0
100
AcDbPolyline
 62
7
  6
CONTINUOUS
 90
5
 70
0
 10
70.1425547338
 20
115.9560950374
 10
70.123851722
 20
115.9761337656
 10
70.102577897
 20
115.9934312743
 10
70.079097604
 20
116.007677707
 10
70.0765188391
 20
116.0089857894
  0
LWPOLYLINE
  5
2E3
100
AcDbEntity
  8
0
100
AcDbPolyline
 62
253
  6
CONTINUOUS
 90
13
 70
0
 10
67.9157234223
 20
114.6712781666
 10
67.9052116563
 20
114.6868502842
 10
67.8925269013
 20
114.703376099
 10
67.8778837956
 20
114.7205759781
 10
67.8615301149
 20
114.7381588831
 10
67.8437425792
 20
114.7558272942
 10
67.8248221707
 20
114.7732822449
 10
67.805089041
 20
114.7902283804
 10
67.7848770939
 20
114.8063789558
 10
67.7645283348
 20
114.8214606877
 10
67.7443870846
 20
114.8352183788
 10
67.7247941526
 20
114.8474192355
 10
67.7060810701
 20
114.8578568076
  0
LINE
  5
2E4
100
AcDbEntity
  8
DRAFT
100
AcDbLine
 62
7
  6
CONTINUOUS
 10
53.8394030674
 20
137.5198105883
 11
53.8271960847
 21
137.5600381243
  0
LWPOLYLINE
  5
2E5
100
AcDbEntity
  8
DRAFT
100
AcDbPolyline
 62
7
  6
CONTINUOUS
 90
22
 70
0
 10
53.8271960847
 20
137.5600381243
 10
53.8160202021
 20
137.6001844582
 10
53.8058755042
 20
137.6402496321
 10
53.7967509759
 20
137.6802905804
 10
53.7886578116
 20
137.7202504581
 10
53.7816293813
 20
137.7599586227
 10
53.7756703425
 20
137.7994064055
 10
53.7707761513
 20
137.8386025315
 10
53.7669663156
 20
137.8774024203
 10
53.7642457923
 20
137.9158061669
 10
53.7626096849
 20
137.9538137059
 10
53.7620626637
 20
137.9912801869
 10
53.7626077238
 20
138.0282042845
 10
53.7642418705
 20
138.0645873237
 10
53.7669607285
 20
138.1002884003
 10
53.7707692151
 20
138.1353026342
 10
53.7756623532
 20
138.169634875
 10
53.7816208674
 20
138.2031587836
 10
53.788649376
 20
138.2358780262
 10
53.7967431471
 20
138.2677888794
 10
53.8058688214
 20
138.2987538899
 10
53.8160152077
 20
138.328727204
  0
LINE
  5
2E6
100
AcDbEntity
  8
0
100
AcDbLine
 62
7
  6
CONTINUOUS
 10
53.5621858235
 20
163.0001192484
 11
53.5621858235
 21
163.3849400885
  0
LINE
  5
2E7
100
AcDbEntity
  8
0
100
AcDbLine
 62
7
  6
CONTINUOUS
 10
53.5932512458
 20
161.9736073639
 11
53.5932512458
 21
159.3461134579
  0
LINE
  5
2E8
100
AcDbEntity
  8
0
100
AcDbLine
 62
253
  6
CONTINUOUS
 10
53.6207644672
 20
162.9294085703
 11
53.6207644672
 21
163.3142294104
  0
LINE
  5
2E9
100
AcDbEntity
  8
0
100
AcDbLine
 62
253
  6
CONTINUOUS
 10
53.6518298896
 20
161.9028966854
 11
53.6518298896
 21
159.316824136
  0
LINE
  5
2EA
100
AcDbEntity
  8
0
100
AcDbLine
 62
253
  6
CONTINUOUS
 10
53.7169066208
 20
159.2842857704
 11
53.7169066208
 21
161.3430586378
  0
LINE
  5
2EB
100
AcDbEntity
  8
0
100
AcDbLine
 62
253
  6
CONTINUOUS
 10
53.9786909817
 20
159.4072863841
 11
53.9786909817
 21
161.1299810159
  0
LINE
  5
2EC
100
AcDbEntity
  8
0
100
AcDbLine
 62
7
  6
CONTINUOUS
 10
54.2569500099
 20
162.0227010203
 11
54.2569500099
 21
162.5291303575
  0
LINE
  5
2ED
100
AcDbEntity
  8
0
100
AcDbLine
 62
253
  6
CONTINUOUS
 10
54.3155286537
 20
161.8308550466
 11
54.3155286537
 21
162.4998410356
  0
LINE
  5
2EE
100
AcDbEntity
  8
0
100
AcDbLine
 62
7
  6
CONTINUOUS
 10
55.0495685679
 20
160.5945422227
 11
55.0495685679
 21
159.8124540752
  0
LWPOLYLINE
  5
2EF
100
AcDbEntity
  8
0
100
AcDbPolyline
 62
253
  6
CONTINUOUS
 90
13
 70
0
 10
53.6207644672
 20
163.3142294104
 10
53.6218970582
 20
163.3366724859
 10
53.6253074052
 20
163.3600491045
 10
53.6309858155
 20
163.3839917422
 10
53.6389030321
 20
163.4081634677
 10
53.6489588945
 20
163.4321027958
 10
53.6609381732
 20
163.45524339
 10
53.6746081103
 20
163.4771483503
 10
53.6897606713
 20
163.497495439
 10
53.7061335983
 20
163.515933541
 10
53.7234469578
 20
163.5321508178
 10
53.7414095514
 20
163.5458777234
 10
53.7597176805
 20
163.5568847178
  0
LWPOLYLINE
  5
2F0
100
AcDbEntity
  8
0
100
AcDbPolyline
 62
253
  6
CONTINUOUS
 90
13
 70
0
 10
53.8637439216
 20
162.0567474127
 10
53.8648745188
 20
162.0791702995
 10
53.8682482593
 20
162.1023654047
 10
53.8738112397
 20
162.1259618666
 10
53.8814745486
 20
162.1495823914
 10
53.8911156904
 20
162.1728492962
 10
53.9025805449
 20
162.1953905475
 10
53.915685834
 20
162.2168457097
 10
53.9302220219
 20
162.2368716653
 10
53.9459566605
 20
162.2551481235
 10
53.962638146
 20
162.2713827968
 10
53.9799997505
 20
162.2853160648
 10
53.9977638538
 20
162.2967250901
  0
LWPOLYLINE
  5
2F1
100
AcDbEntity
  8
0
100
AcDbPolyline
 62
253
  6
CONTINUOUS
 90
13
 70
0
 10
64.4632643285
 20
158.4943220028
 10
64.445426361
 20
158.4836346237
 10
64.4277948559
 20
158.4702651089
 10
64.410665742
 20
158.4543792179
 10
64.3943014862
 20
158.4361490761
 10
64.3790366634
 20
158.415871551
 10
64.3652428593
 20
158.3940044541
 10
64.3531776701
 20
158.3709671508
 10
64.3430157796
 20
158.34710573
 10
64.3349327169
 20
158.3228344346
 10
64.3290635965
 20
158.2985674002
 10
64.3255038508
 20
158.2747108011
 10
64.3243111152
 20
158.2516666954
  0
LINE
  5
2F2
100
AcDbEntity
  8
0
100
AcDbLine
 62
7
  6
CONTINUOUS
 10
64.0004278004
 20
158.6861415072
 11
64.6176610598
 21
159.0079533503
  0
LINE
  5
2F3
100
AcDbEntity
  8
0
100
AcDbLine
 62
253
  6
CONTINUOUS
 10
64.7975292956
 20
159.04941283
 11
64.0904225145
 21
158.6807429098
  0
LINE
  5
2F4
100
AcDbEntity
  8
0
100
AcDbLine
 62
7
  6
CONTINUOUS
 10
69.5269565762
 20
163.0552355995
 11
69.4295000512
 21
163.005882367
  0
LINE
  5
2F5
100
AcDbEntity
  8
0
100
AcDbLine
 62
7
  6
CONTINUOUS
 10
59.8966280729
 20
158.1710124702
 11
58.6110979523
 21
157.5232908738
  0
LINE
  5
2F6
100
AcDbEntity
  8
0
100
AcDbLine
 62
253
  6
CONTINUOUS
 10
64.4632643285
 20
158.4943220028
 11
65.4010597418
 21
158.9668355071
  0
LINE
  5
2F7
100
AcDbEntity
  8
0
100
AcDbLine
 62
253
  6
CONTINUOUS
 10
64.6046641455
 20
158.2504433934
 11
65.5424595589
 21
158.7229568978
  0
LINE
  5
2F8
100
AcDbEntity
  8
0
100
AcDbLine
 62
253
  6
CONTINUOUS
 10
70.5495899054
 20
161.5205444238
 11
65.4010597418
 21
158.9668355071
  0
LINE
  5
2F9
100
AcDbEntity
  8
0
100
AcDbLine
 62
253
  6
CONTINUOUS
 10
70.6909897225
 20
161.2766658144
 11
65.5424595589
 21
158.7229568978
  0
LINE
  5
2FA
100
AcDbEntity
  8
0
100
AcDbLine
 62
7
  6
CONTINUOUS
 10
70.1633118234
 20
161.6752660417
 11
65.579263218
 21
159.4812395358
  0
LINE
  5
2FB
100
AcDbEntity
  8
0
100
AcDbLine
 62
253
  6
CONTINUOUS
 10
70.2521240827
 20
161.6692773351
 11
65.5802830409
 21
159.4332314378
  0
LINE
  5
2FC
100
AcDbEntity
  8
0
100
AcDbLine
 62
7
  6
CONTINUOUS
 10
79.4251765854
 20
165.0685527459
 11
76.8861990668
 21
163.8533422512
  0
LINE
  5
2FD
100
AcDbEntity
  8
0
100
AcDbLine
 62
253
  6
CONTINUOUS
 10
79.5139888448
 20
165.0625640394
 11
76.901523897
 21
163.8121808444
  0
LINE
  5
2FE
100
AcDbEntity
  8
0
100
AcDbLine
 62
7
  6
CONTINUOUS
 10
70.9362780566
 20
160.7494858818
 11
76.6086806844
 21
163.4644225652
  0
LINE
  5
2FF
100
AcDbEntity
  8
0
100
AcDbLine
 62
7
  6
CONTINUOUS
 10
70.1922750823
 20
161.6880289008
 11
70.1633118234
 21
161.6752660417
  0
LINE
  5
300
100
AcDbEntity
  8
0
100
AcDbLine
 62
7
  6
CONTINUOUS
 10
79.4619136019
 20
165.0840632424
 11
79.4251765854
 21
165.0685527459
  0
LWPOLYLINE
  5
301
100
AcDbEntity
  8
0
100
AcDbPolyline
 62
253
  6
CONTINUOUS
 90
6
 70
0
 10
68.1555052036
 20
158.5426298571
 10
68.1720445455
 20
158.5480471977
 10
68.1884839184
 20
158.5497023732
 10
68.2057934742
 20
158.5481310469
 10
68.2236771564
 20
158.5433600942
 10
68.2418290886
 20
158.5354711159
  0
LWPOLYLINE
  5
302
100
AcDbEntity
  8
0
100
AcDbPolyline
 62
253
  6
CONTINUOUS
 90
4
 70
0
 10
70.3197740886
 20
161.6949860708
 10
70.2973529897
 20
161.6879568867
 10
70.2747814879
 20
161.6793791376
 10
70.2521240827
 20
161.6692773351
  0
LINE
  5
303
100
AcDbEntity
  8
0
100
AcDbLine
 62
7
  6
CONTINUOUS
 10
66.5442677277
 20
129.0443180515
 11
66.3212968325
 21
129.155803499
  0
LINE
  5
304
100
AcDbEntity
  8
0
100
AcDbLine
 62
253
  6
CONTINUOUS
 10
66.5930648906
 20
129.1226512719
 11
66.3212968325
 21
129.2585353009
  0
LINE
  5
305
100
AcDbEntity
  8
0
100
AcDbLine
 62
253
  6
CONTINUOUS
 10
66.3212968325
 20
129.8340682007
 11
66.6663747503
 21
129.6615292418
  0
LINE
  5
306
100
AcDbEntity
  8
0
100
AcDbLine
 62
253
  6
CONTINUOUS
 10
66.3212968325
 20
130.226732862
 11
66.6224407674
 21
130.0761608946
  0
LWPOLYLINE
  5
307
100
AcDbEntity
  8
0
100
AcDbPolyline
 62
253
  6
CONTINUOUS
 90
4
 70
0
 10
70.1073182843
 20
115.9742313455
 10
70.12001394
 20
115.9552765006
 10
70.1304578008
 20
115.9341937318
 10
70.1384719838
 20
115.9113417751
  0
LWPOLYLINE
  5
308
100
AcDbEntity
  8
0
100
AcDbPolyline
 62
7
  6
CONTINUOUS
 90
10
 70
0
 10
68.354819768
 20
116.4781617734
 10
68.3704092724
 20
116.4527327668
 10
68.3871772975
 20
116.4289643039
 10
68.4048989768
 20
116.4068911671
 10
68.4232614263
 20
116.3864770604
 10
68.4421282827
 20
116.3677794871
 10
68.4615726517
 20
116.350995883
 10
68.4814897126
 20
116.3360957223
 10
68.5015977105
 20
116.3231649958
 10
68.5163175437
 20
116.3151909488
  0
LINE
  5
309
100
AcDbEntity
  8
DRAFT
100
AcDbLine
 62
7
  6
CONTINUOUS
 10
55.8546573938
 20
136.5121834251
 11
55.842450411
 21
136.5524109611
  0
LWPOLYLINE
  5
30A
100
AcDbEntity
  8
DRAFT
100
AcDbPolyline
 62
7
  6
CONTINUOUS
 90
25
 70
0
 10
54.724518623
 20
137.9432782143
 10
54.7366720368
 20
137.9030238937
 10
54.7477981544
 20
137.8628526773
 10
54.7578970602
 20
137.8227646075
 10
54.7669798841
 20
137.7827028069
 10
54.7750356756
 20
137.7427242428
 10
54.7820313695
 20
137.7029997099
 10
54.7879624266
 20
137.6635379364
 10
54.7928334996
 20
137.6243302512
 10
54.796625253
 20
137.5855213213
 10
54.799332789
 20
137.5471110811
 10
54.8009610657
 20
137.5090996267
 10
54.8015054733
 20
137.4716318389
 10
54.8009630167
 20
137.4347090431
 10
54.7993366914
 20
137.3983299146
 10
54.7966308127
 20
137.3626353276
 10
54.7928404024
 20
137.3276301319
 10
54.7879703789
 20
137.2933094483
 10
54.7820398448
 20
137.2597995298
 10
54.775044073
 20
137.2270966556
 10
54.7669876771
 20
137.19520449
 10
54.7579037123
 20
137.1642603343
 10
54.7478031255
 20
137.1343099198
 10
54.7366747906
 20
137.105307426
 10
54.724518623
 20
137.0772528105
  0
LWPOLYLINE
  5
30B
100
AcDbEntity
  8
DRAFT
100
AcDbPolyline
 62
7
  6
CONTINUOUS
 90
25
 70
0
 10
56.9165496447
 20
136.8472627034
 10
56.9287030585
 20
136.8070083829
 10
56.9398291761
 20
136.7668371665
 10
56.9499280819
 20
136.7267490966
 10
56.9590109058
 20
136.686687296
 10
56.9670666973
 20
136.646708732
 10
56.9740623912
 20
136.6069841991
 10
56.9799934482
 20
136.5675224255
 10
56.9848645213
 20
136.5283147404
 10
56.9886562747
 20
136.4895058105
 10
56.9913638107
 20
136.4510955702
 10
56.9929920874
 20
136.4130841159
 10
56.993536495
 20
136.375616328
 10
56.9929940384
 20
136.3386935323
 10
56.9913677131
 20
136.3023144037
 10
56.9886618344
 20
136.2666198168
 10
56.9848714241
 20
136.231614621
 10
56.9800014006
 20
136.1972939375
 10
56.9740708665
 20
136.163784019
 10
56.9670750947
 20
136.1310811447
 10
56.9590186988
 20
136.0991889791
 10
56.9499347339
 20
136.0682448234
 10
56.9398341472
 20
136.038294409
 10
56.9287058123
 20
136.0092919151
 10
56.9165496447
 20
135.9812372996
  0
LINE
  5
30C
100
AcDbEntity
  8
SUPERFICI
100
AcDbLine
 62
7
  6
CONTINUOUS
 10
54.7383513114
 20
137.8971664375
 11
54.724518623
 21
137.9432782143
  0
LINE
  5
30D
100
AcDbEntity
  8
SUPERFICI
100
AcDbLine
 62
7
  6
CONTINUOUS
 10
56.9303823331
 20
136.8011509267
 11
56.9165496447
 21
136.8472627034
  0
LWPOLYLINE
  5
30E
100
AcDbEntity
  8
DRAFT
100
AcDbPolyline
 62
7
  6
CONTINUOUS
 90
22
 70
0
 10
55.842450411
 20
136.5524109611
 10
55.8312745284
 20
136.592557295
 10
55.8211298306
 20
136.6326224689
 10
55.8120053022
 20
136.6726634172
 10
55.803912138
 20
136.7126232949
 10
55.7968837076
 20
136.7523314596
 10
55.7909246689
 20
136.7917792423
 10
55.7860304777
 20
136.8309753683
 10
55.782220642
 20
136.8697752571
 10
55.7795001187
 20
136.9081790037
 10
55.7778640113
 20
136.9461865427
 10
55.7773169901
 20
136.9836530237
 10
55.7778620502
 20
137.0205771213
 10
55.7794961969
 20
137.0569601605
 10
55.7822150548
 20
137.0926612371
 10
55.7860235415
 20
137.127675471
 10
55.7909166796
 20
137.1620077118
 10
55.7968751937
 20
137.1955316204
 10
55.8039037023
 20
137.228250863
 10
55.8119974735
 20
137.2601617162
 10
55.8211231478
 20
137.2911267267
 10
55.831269534
 20
137.3211000409
  0
LWPOLYLINE
  5
30F
100
AcDbEntity
  8
0
100
AcDbPolyline
 62
253
  6
CONTINUOUS
 90
13
 70
0
 10
55.6120654297
 20
162.4575321424
 10
55.6105496926
 20
162.4805891204
 10
55.6066836412
 20
162.5044820735
 10
55.6005333991
 20
162.5288023452
 10
55.5922041578
 20
162.5531339698
 10
55.5818383778
 20
162.5770607878
 10
55.5696133518
 20
162.6001735633
 10
55.5557381723
 20
162.6220769833
 10
55.5404501557
 20
162.6423964194
 10
55.5240107829
 20
162.660784335
 10
55.506701227
 20
162.6769262296
 10
55.4888175449
 20
162.6905460179
 10
55.4706656126
 20
162.7014107517
  0
LWPOLYLINE
  5
310
100
AcDbEntity
  8
0
100
AcDbPolyline
 62
253
  6
CONTINUOUS
 90
9
 70
0
 10
55.3317123994
 20
162.0739346043
 10
55.3326401868
 20
162.0545910322
 10
55.3354300218
 20
162.0363406267
 10
55.3400726923
 20
162.0194450809
 10
55.3465452234
 20
162.0041304537
 10
55.3547798814
 20
161.9906604305
 10
55.3646367778
 20
161.9792994995
 10
55.3759615451
 20
161.9702166475
 10
55.3836852332
 20
161.9657627461
  0
LINE
  5
311
100
AcDbEntity
  8
0
100
AcDbLine
 62
253
  6
CONTINUOUS
 10
55.3317123994
 20
162.0739346043
 11
55.3317123994
 21
162.4587554443
  0
LINE
  5
312
100
AcDbEntity
  8
0
100
AcDbLine
 62
253
  6
CONTINUOUS
 10
55.6120654297
 20
162.0727113023
 11
55.6120654297
 21
162.4575321424
  0
LINE
  5
313
100
AcDbEntity
  8
0
100
AcDbLine
 62
253
  6
CONTINUOUS
 10
56.0511617753
 20
161.8213166975
 11
56.0511617753
 21
160.9630384858
  0
LINE
  5
314
100
AcDbEntity
  8
0
100
AcDbLine
 62
253
  6
CONTINUOUS
 10
56.3315148057
 20
161.9200933955
 11
56.3315148057
 21
161.1350995413
  0
LINE
  5
315
100
AcDbEntity
  8
0
100
AcDbLine
 62
253
  6
CONTINUOUS
 10
57.0801370728
 20
159.5792579703
 11
57.0801370728
 21
159.2301825246
  0
LINE
  5
316
100
AcDbEntity
  8
0
100
AcDbLine
 62
7
  6
CONTINUOUS
 10
57.269310219
 20
161.6470696225
 11
57.269310219
 21
163.2925442697
  0
LINE
  5
317
100
AcDbEntity
  8
0
100
AcDbLine
 62
253
  6
CONTINUOUS
 10
57.8275466295
 20
163.5694336446
 11
57.8275466295
 21
163.1619380101
  0
LWPOLYLINE
  5
318
100
AcDbEntity
  8
0
100
AcDbPolyline
 62
253
  6
CONTINUOUS
 90
13
 70
0
 10
58.3460373064
 20
161.2408035998
 10
58.3471698974
 20
161.2632466752
 10
58.3505802444
 20
161.2866232939
 10
58.3562586546
 20
161.3105659315
 10
58.3641758713
 20
161.3347376571
 10
58.3742317337
 20
161.3586769852
 10
58.3862110124
 20
161.3818175794
 10
58.3998809494
 20
161.4037225397
 10
58.4150335104
 20
161.4240696284
 10
58.4314064375
 20
161.4425077303
 10
58.448719797
 20
161.4587250072
 10
58.4666823906
 20
161.4724519127
 10
58.4849905197
 20
161.4834589072
  0
LWPOLYLINE
  5
319
100
AcDbEntity
  8
0
100
AcDbPolyline
 62
7
  6
CONTINUOUS
 90
10
 70
0
 10
58.2874586627
 20
161.3115142779
 10
58.2890775688
 20
161.3369067006
 10
58.2939742229
 20
161.36214692
 10
58.302143152
 20
161.3867350298
 10
58.3135037696
 20
161.4102041246
 10
58.3278590715
 20
161.4320462965
 10
58.344909739
 20
161.4517990039
 10
58.3644740696
 20
161.4692316634
 10
58.3861497449
 20
161.4839570293
 10
58.3924903761
 20
161.4875285515
  0
LWPOLYLINE
  5
31A
100
AcDbEntity
  8
0
100
AcDbPolyline
 62
7
  6
CONTINUOUS
 90
12
 70
0
 10
57.9170668981
 20
159.1619800521
 10
57.9170958789
 20
159.1622339835
 10
57.9180123826
 20
159.1646940565
 10
57.9202345103
 20
159.1679354574
 10
57.9237951481
 20
159.1718066387
 10
57.9284315503
 20
159.1763572472
 10
57.9341263626
 20
159.1815040286
 10
57.9408773206
 20
159.1871246557
 10
57.9484519195
 20
159.193235343
 10
57.9567557481
 20
159.1997798279
 10
57.9658303644
 20
159.2066274417
 10
57.9756424689
 20
159.2136907137
  0
LWPOLYLINE
  5
31B
100
AcDbEntity
  8
0
100
AcDbPolyline
 62
253
  6
CONTINUOUS
 90
7
 70
0
 10
57.8836786688
 20
163.2313959776
 10
57.882186036
 20
163.2192093255
 10
57.8773620228
 20
163.2064701419
 10
57.8693026606
 20
163.1941757196
 10
57.8581720732
 20
163.1825365471
 10
57.8441701121
 20
163.171732881
 10
57.8275466295
 20
163.1619380101
  0
LWPOLYLINE
  5
31C
100
AcDbEntity
  8
DRAFT
100
AcDbPolyline
 62
7
  6
CONTINUOUS
 90
3
 70
0
 10
53.8160152077
 20
138.328727204
 10
53.8271933179
 20
138.3577545856
 10
53.8394030674
 20
138.385835992
  0
LWPOLYLINE
  5
31D
100
AcDbEntity
  8
SUPERFICI
100
AcDbPolyline
 62
7
  6
CONTINUOUS
 90
22
 70
0
 10
53.8394030674
 20
138.385835992
 10
53.8255287089
 20
138.3536373266
 10
53.8130081223
 20
138.3202359233
 10
53.801841426
 20
138.2856318414
 10
53.7920141905
 20
138.2497622069
 10
53.7835410979
 20
138.2126900206
 10
53.7764658876
 20
138.1746041312
 10
53.7707960791
 20
138.1355007327
 10
53.7665243032
 20
138.095383707
 10
53.7636718678
 20
138.0544533856
 10
53.762245554
 20
138.0127076158
 10
53.7622386318
 20
137.9701485768
 10
53.7636520419
 20
137.9269830481
 10
53.7664920866
 20
137.8832081094
 10
53.7707524155
 20
137.8388266577
 10
53.7764148918
 20
137.7940541488
 10
53.7834878652
 20
137.7488818019
 10
53.7919628416
 20
137.7033183262
 10
53.8017963189
 20
137.6576053621
 10
53.812973693
 20
137.6118234048
 10
53.8255093153
 20
137.5658918332
 10
53.8394030674
 20
137.5198105883
  0
LINE
  5
31E
100
AcDbEntity
  8
RACCORDO
100
AcDbLine
 62
7
  6
CONTINUOUS
 10
69.4556346449
 20
162.9928150701
 11
71.6914643932
 21
164.9495999446
  0
LINE
  5
31F
100
AcDbEntity
  8
RACCORDO
100
AcDbLine
 62
253
  6
CONTINUOUS
 10
69.6095371997
 20
162.9158637928
 11
71.9401171559
 21
164.9555734846
  0
LWPOLYLINE
  5
320
100
AcDbEntity
  8
0
100
AcDbPolyline
 62
7
  6
CONTINUOUS
 90
3
 70
0
 10
64.3456797178
 20
156.8417315059
 10
64.3345787475
 20
156.8339482112
 10
64.3243111152
 20
156.8264638159
  0
LWPOLYLINE
  5
321
100
AcDbEntity
  8
0
100
AcDbPolyline
 62
7
  6
CONTINUOUS
 90
25
 70
0
 10
70.4058088637
 20
160.4085747652
 10
70.4231004676
 20
160.4205806
 10
70.439046804
 20
160.4344487117
 10
70.4536478728
 20
160.4501791005
 10
70.4669609723
 20
160.4678653588
 10
70.4789288044
 20
160.4874138942
 10
70.4893794737
 20
160.5085439291
 10
70.4982910843
 20
160.531278288
 10
70.5056855323
 20
160.5555941464
 10
70.5114566104
 20
160.5811422533
 10
70.5155808899
 20
160.6079403928
 10
70.5180817995
 20
160.6359707808
 10
70.5189234184
 20
160.6648308141
 10
70.5180817995
 20
160.6945324664
 10
70.5155808899
 20
160.7250637639
 10
70.5114566104
 20
160.7559861829
 10
70.5056855323
 20
160.7873053679
 10
70.4982910843
 20
160.8190156743
 10
70.4893794737
 20
160.8506616439
 10
70.4789288044
 20
160.8822423481
 10
70.4669609723
 20
160.9137587155
 10
70.4536478728
 20
160.9447580734
 10
70.439046804
 20
160.9750895309
 10
70.4231004676
 20
161.004903979
 10
70.4058088637
 20
161.0342014177
  0
LWPOLYLINE
  5
322
100
AcDbEntity
  8
0
100
AcDbPolyline
 62
7
  6
CONTINUOUS
 90
9
 70
0
 10
76.8867177149
 20
163.8536268193
 10
76.8847021582
 20
163.8522657837
 10
76.8813197886
 20
163.8480339104
 10
76.878090161
 20
163.841504206
 10
76.8750891712
 20
163.8324996196
 10
76.8724197787
 20
163.8212135531
 10
76.8702588503
 20
163.8083502626
 10
76.8687083182
 20
163.7941499012
 10
76.8677796865
 20
163.7783862178
  0
LWPOLYLINE
  5
323
100
AcDbEntity
  8
0
100
AcDbPolyline
 62
7
  6
CONTINUOUS
 90
4
 70
0
 10
64.3977848829
 20
156.8767029714
 10
64.3836749682
 20
156.8674582538
 10
64.370266175
 20
156.8584441214
 10
64.3456797178
 20
156.8417315059
  0
LWPOLYLINE
  5
324
100
AcDbEntity
  8
0
100
AcDbPolyline
 62
7
  6
CONTINUOUS
 90
3
 70
0
 10
64.4436929924
 20
156.9060157358
 10
64.4278030865
 20
156.8960674851
 10
64.3977848829
 20
156.8767029714
  0
LWPOLYLINE
  5
325
100
AcDbEntity
  8
0
100
AcDbPolyline
 62
7
  6
CONTINUOUS
 90
3
 70
0
 10
64.4940726994
 20
156.9367769764
 10
64.4768359812
 20
156.9264954136
 10
64.4436929924
 20
156.9060157358
  0
LWPOLYLINE
  5
326
100
AcDbEntity
  8
0
100
AcDbPolyline
 62
7
  6
CONTINUOUS
 90
3
 70
0
 10
64.5471815381
 20
156.967578029
 10
64.5292931221
 20
156.9575298248
 10
64.4940726994
 20
156.9367769764
  0
LWPOLYLINE
  5
327
100
AcDbEntity
  8
0
100
AcDbPolyline
 62
7
  6
CONTINUOUS
 90
3
 70
0
 10
64.5995585927
 20
156.9958277207
 10
64.5826652506
 20
156.9865938425
 10
64.5471815381
 20
156.967578029
  0
LINE
  5
328
100
AcDbEntity
  8
0
100
AcDbLine
 62
7
  6
CONTINUOUS
 10
65.5424595589
 20
157.5104949525
 11
64.6046641455
 21
156.9985248714
  0
LINE
  5
329
100
AcDbEntity
  8
0
100
AcDbLine
 62
7
  6
CONTINUOUS
 10
67.5722114864
 20
158.273082852
 11
65.970879052
 21
157.4091272664
  0
LINE
  5
32A
100
AcDbEntity
  8
0
100
AcDbLine
 62
253
  6
CONTINUOUS
 10
67.6637583633
 20
158.2684988983
 11
66.0633756731
 21
157.4050557215
  0
LINE
  5
32B
100
AcDbEntity
  8
0
100
AcDbLine
 62
253
  6
CONTINUOUS
 10
69.4315683946
 20
157.3845938827
 11
67.7743236053
 21
156.5495817554
  0
LINE
  5
32C
100
AcDbEntity
  8
0
100
AcDbLine
 62
253
  6
CONTINUOUS
 10
69.5729682116
 20
157.1407152733
 11
67.9157234223
 21
156.3057031461
  0
LINE
  5
32D
100
AcDbEntity
  8
0
100
AcDbLine
 62
7
  6
CONTINUOUS
 10
67.5722549208
 20
158.2731062423
 11
67.5764213574
 21
158.2751897468
  0
LINE
  5
32E
100
AcDbEntity
  8
0
100
AcDbLine
 62
7
  6
CONTINUOUS
 10
65.5424595589
 20
157.5104949525
 11
70.8215678293
 21
160.1289715728
  0
LINE
  5
32F
100
AcDbEntity
  8
0
100
AcDbLine
 62
253
  6
CONTINUOUS
 10
69.9898048051
 20
157.6614832576
 11
69.4315683946
 21
157.3845938827
  0
LINE
  5
330
100
AcDbEntity
  8
0
100
AcDbLine
 62
253
  6
CONTINUOUS
 10
70.1312046222
 20
157.4176046483
 11
69.5729682116
 21
157.1407152733
  0
LINE
  5
331
100
AcDbEntity
  8
0
100
AcDbLine
 62
253
  6
CONTINUOUS
 10
69.372720142
 20
158.0179855432
 11
81.6445523736
 21
163.9972822749
  0
LINE
  5
332
100
AcDbEntity
  8
0
100
AcDbLine
 62
253
  6
CONTINUOUS
 10
69.5619598156
 20
157.9233657064
 11
81.7697344722
 21
163.8714511862
  0
LINE
  5
333
100
AcDbEntity
  8
0
100
AcDbLine
 62
7
  6
CONTINUOUS
 10
68.1555052036
 20
158.5426298571
 11
67.5764771631
 21
158.2752155197
  0
LINE
  5
334
100
AcDbEntity
  8
0
100
AcDbLine
 62
253
  6
CONTINUOUS
 10
68.2418290886
 20
158.5354711159
 11
67.6637583633
 21
158.2684988983
  0
LWPOLYLINE
  5
335
100
AcDbEntity
  8
0
100
AcDbPolyline
 62
253
  6
CONTINUOUS
 90
13
 70
0
 10
67.9157234223
 20
155.920882306
 10
67.8959900122
 20
155.9125171985
 10
67.8742620945
 20
155.9054957106
 10
67.8509032357
 20
155.8999353308
 10
67.8263042925
 20
155.8959290991
 10
67.8008768713
 20
155.8935440507
 10
67.7750464411
 20
155.8928200937
 10
67.7492452147
 20
155.893769342
 10
67.7239049158
 20
155.896375912
 10
67.6994495559
 20
155.9005961889
 10
67.6762883389
 20
155.906359556
 10
67.6548088142
 20
155.9135695767
 10
67.635370392
 20
155.9221056079
  0
LWPOLYLINE
  5
336
100
AcDbEntity
  8
0
100
AcDbPolyline
 62
253
  6
CONTINUOUS
 90
10
 70
0
 10
81.6445523736
 20
163.9972822749
 10
81.6722375418
 20
164.008838349
 10
81.700970322
 20
164.0172349628
 10
81.7305804083
 20
164.022363982
 10
81.7608695197
 20
164.0241309797
 10
81.7916852745
 20
164.0224646689
 10
81.8229156236
 20
164.0172934582
 10
81.8544091817
 20
164.0085371069
 10
81.8859379739
 20
163.9961659487
 10
81.8986624924
 20
163.9901269022
  0
LWPOLYLINE
  5
337
100
AcDbEntity
  8
0
100
AcDbPolyline
 62
253
  6
CONTINUOUS
 90
13
 70
0
 10
81.7697344722
 20
163.8714511862
 10
81.7838049595
 20
163.8771887209
 10
81.7987942629
 20
163.8809932534
 10
81.8147023824
 20
163.8828647835
 10
81.8316173437
 20
163.8828433247
 10
81.849451121
 20
163.8808888635
 10
81.8679396382
 20
163.8768813602
 10
81.8871093735
 20
163.8707870626
 10
81.9069338486
 20
163.8626397229
 10
81.9270695515
 20
163.8524205582
 10
81.9474019782
 20
163.8401233075
 10
81.9680456327
 20
163.8257542317
 10
81.989000515
 20
163.8093133309
  0
LWPOLYLINE
  5
338
100
AcDbEntity
  8
0
100
AcDbPolyline
 62
253
  6
CONTINUOUS
 90
7
 70
0
 10
68.2418290886
 20
158.5354711159
 10
68.2596670561
 20
158.5426217043
 10
68.2772985612
 20
158.5468836945
 10
68.2944276751
 20
158.5481269175
 10
68.3107919308
 20
158.5462610314
 10
68.3260567537
 20
158.5412483292
 10
68.3287799265
 20
158.5399556457
  0
LWPOLYLINE
  5
339
100
AcDbEntity
  8
0
100
AcDbPolyline
 62
7
  6
CONTINUOUS
 90
6
 70
0
 10
68.1555052036
 20
158.5426298571
 10
68.1779682616
 20
158.5514019284
 10
68.2016544697
 20
158.5574713123
 10
68.2261727798
 20
158.5606230506
 10
68.2511887027
 20
158.5607082519
 10
68.2761277692
 20
158.5576497944
  0
LWPOLYLINE
  5
33A
100
AcDbEntity
  8
0
100
AcDbPolyline
 62
7
  6
CONTINUOUS
 90
3
 70
0
 10
67.5764213574
 20
158.2751897468
 10
67.5930588276
 20
158.2806520201
 10
67.6096457253
 20
158.2823748114
  0
LWPOLYLINE
  5
33B
100
AcDbEntity
  8
RACCORDO
100
AcDbPolyline
 62
7
  6
CONTINUOUS
 90
16
 70
0
 10
93.1315262682
 20
137.7607685078
 10
93.122565053
 20
137.7590012603
 10
93.1137429457
 20
137.7576478612
 10
93.1050599463
 20
137.7567083106
 10
93.096505581
 20
137.7561841654
 10
93.0880903235
 20
137.7560738687
 10
93.0798455954
 20
137.7563727491
 10
93.0717752214
 20
137.757087607
 10
93.0638753767
 20
137.758211642
 10
93.0561660082
 20
137.7597197819
 10
93.0486527832
 20
137.7616177034
 10
93.0413300342
 20
137.7638997297
 10
93.0342007068
 20
137.7665237584
 10
93.0272657824
 20
137.769475755
 10
93.0205242795
 20
137.7727697539
 10
93.013976198
 20
137.7764057551
  0
LINE
  5
33C
100
AcDbEntity
  8
SUPERFICI
100
AcDbLine
 62
7
  6
CONTINUOUS
 10
58.9318039711
 20
134.9736101364
 11
58.0466884155
 21
135.4161679142
  0
LINE
  5
33D
100
AcDbEntity
  8
DRAFT
100
AcDbLine
 62
7
  6
CONTINUOUS
 10
58.9318039711
 20
134.9736101364
 11
58.0466884155
 21
135.4161679142
  0
LINE
  5
33E
100
AcDbEntity
  8
SUPERFICI
100
AcDbLine
 62
7
  6
CONTINUOUS
 10
56.9165496447
 20
135.9812372996
 11
55.8546573938
 21
136.5121834251
  0
LINE
  5
33F
100
AcDbEntity
  8
DRAFT
100
AcDbLine
 62
7
  6
CONTINUOUS
 10
56.9165496447
 20
135.9812372996
 11
55.8546573938
 21
136.5121834251
  0
LINE
  5
340
100
AcDbEntity
  8
SUPERFICI
100
AcDbLine
 62
7
  6
CONTINUOUS
 10
54.724518623
 20
137.0772528105
 11
53.8394030674
 21
137.5198105883
  0
LINE
  5
341
100
AcDbEntity
  8
DRAFT
100
AcDbLine
 62
7
  6
CONTINUOUS
 10
54.724518623
 20
137.0772528105
 11
53.8394030674
 21
137.5198105883
  0
LINE
  5
342
100
AcDbEntity
  8
0
100
AcDbLine
 62
7
  6
CONTINUOUS
 10
67.8158714082
 20
130.8276997592
 11
68.3708866836
 21
130.5501921215
  0
LINE
  5
343
100
AcDbEntity
  8
0
100
AcDbLine
 62
7
  6
CONTINUOUS
 10
68.9534418008
 20
130.6049096887
 11
68.8305060914
 21
130.6663775434
  0
LINE
  5
344
100
AcDbEntity
  8
SUPERFICI
100
AcDbLine
 62
7
  6
CONTINUOUS
 10
58.9318039711
 20
135.8396355402
 11
58.0466884155
 21
136.282193318
  0
LINE
  5
345
100
AcDbEntity
  8
DRAFT
100
AcDbLine
 62
7
  6
CONTINUOUS
 10
58.9318039711
 20
135.8396355402
 11
58.0466884155
 21
136.282193318
  0
LINE
  5
346
100
AcDbEntity
  8
SUPERFICI
100
AcDbLine
 62
7
  6
CONTINUOUS
 10
56.9165496447
 20
136.8472627034
 11
55.8546573938
 21
137.3782088288
  0
LINE
  5
347
100
AcDbEntity
  8
DRAFT
100
AcDbLine
 62
7
  6
CONTINUOUS
 10
56.9165496447
 20
136.8472627034
 11
55.8546573938
 21
137.3782088288
  0
LINE
  5
348
100
AcDbEntity
  8
SUPERFICI
100
AcDbLine
 62
7
  6
CONTINUOUS
 10
54.724518623
 20
137.9432782143
 11
53.8394030674
 21
138.385835992
  0
LINE
  5
349
100
AcDbEntity
  8
DRAFT
100
AcDbLine
 62
7
  6
CONTINUOUS
 10
54.724518623
 20
137.9432782143
 11
53.8394030674
 21
138.385835992
  0
LINE
  5
34A
100
AcDbEntity
  8
0
100
AcDbLine
 62
7
  6
CONTINUOUS
 10
68.3708866836
 20
131.3557514067
 11
67.8158714082
 21
131.6332590444
  0
LINE
  5
34B
100
AcDbEntity
  8
0
100
AcDbLine
 62
7
  6
CONTINUOUS
 10
66.4578713547
 20
132.5495696929
 11
66.623479738
 21
132.4667655012
  0
LINE
  5
34C
100
AcDbEntity
  8
0
100
AcDbLine
 62
253
  6
CONTINUOUS
 10
66.6663747503
 20
132.4634954168
 11
67.1044016339
 21
132.244481975
  0
LINE
  5
34D
100
AcDbEntity
  8
0
100
AcDbLine
 62
7
  6
CONTINUOUS
 10
66.6520303848
 20
132.4963058233
 11
66.4828403053
 21
132.5809008631
  0
LINE
  5
34E
100
AcDbEntity
  8
0
100
AcDbLine
 62
253
  6
CONTINUOUS
 10
66.4188873768
 20
132.630700763
 11
66.4616983744
 21
132.6092952642
  0
LINE
  5
34F
100
AcDbEntity
  8
0
100
AcDbLine
 62
7
  6
CONTINUOUS
 10
68.9534418008
 20
131.4255855035
 11
68.8305060914
 21
131.4870533582
  0
LINE
  5
350
100
AcDbEntity
  8
0
100
AcDbLine
 62
253
  6
CONTINUOUS
 10
66.815251765
 20
132.7823399557
 11
67.2811783292
 21
132.5493766736
  0
LINE
  5
351
100
AcDbEntity
  8
0
100
AcDbLine
 62
7
  6
CONTINUOUS
 10
67.416292529
 20
133.0828603377
 11
67.6284245634
 21
132.9767943205
  0
LWPOLYLINE
  5
352
100
AcDbEntity
  8
0
100
AcDbPolyline
 62
7
  6
CONTINUOUS
 90
9
 70
0
 10
66.4579820378
 20
132.5495145034
 10
66.4511432855
 20
132.5531502679
 10
66.4348929534
 20
132.5637791258
 10
66.4201152712
 20
132.5764539243
 10
66.4070650691
 20
132.5909849557
 10
66.3959608808
 20
132.6071770506
 10
66.3870187274
 20
132.6247928881
 10
66.3804426893
 20
132.6435261465
 10
66.3763878132
 20
132.6630391301
  0
LWPOLYLINE
  5
353
100
AcDbEntity
  8
0
100
AcDbPolyline
 62
253
  6
CONTINUOUS
 90
16
 70
0
 10
67.1044016339
 20
132.244481975
 10
67.1156245543
 20
132.2381167055
 10
67.1265123015
 20
132.2305687785
 10
67.1370648756
 20
132.2218381941
 10
67.1473973947
 20
132.2117999563
 10
67.1573947407
 20
132.200579061
 10
67.1667115591
 20
132.1885504963
 10
67.1753183108
 20
132.1756917232
 10
67.1832445349
 20
132.1620252807
 10
67.1902334936
 20
132.1479937741
 10
67.1962546964
 20
132.1335775724
 10
67.2013386339
 20
132.1187963067
 10
67.2053200404
 20
132.1041514745
 10
67.2081438273
 20
132.0898102418
 10
67.2098650831
 20
132.0756054428
 10
67.210483808
 20
132.0615370774
  0
LWPOLYLINE
  5
354
100
AcDbEntity
  8
0
100
AcDbPolyline
 62
253
  6
CONTINUOUS
 90
7
 70
0
 10
66.4188873768
 20
132.630700763
 10
66.4059678128
 20
132.6380653156
 10
66.3950746128
 20
132.6462121039
 10
66.3863960825
 20
132.6550028151
 10
66.3800822315
 20
132.6642893234
 10
66.3762451983
 20
132.6739119523
 10
66.374953489
 20
132.6836493613
  0
LWPOLYLINE
  5
355
100
AcDbEntity
  8
0
100
AcDbPolyline
 62
253
  6
CONTINUOUS
 90
16
 70
0
 10
67.2811783292
 20
132.5493766736
 10
67.3104235629
 20
132.532537247
 10
67.3393442176
 20
132.5120849175
 10
67.367625553
 20
132.4882448012
 10
67.3949616813
 20
132.4612800083
 10
67.4210531893
 20
132.4314860376
 10
67.4456104029
 20
132.3991875386
 10
67.4683656634
 20
132.364739064
 10
67.4890717514
 20
132.328519062
 10
67.5074988631
 20
132.2909230133
 10
67.5234459772
 20
132.2523632825
 10
67.536740079
 20
132.2132631187
 10
67.5472335619
 20
132.1740499138
 10
67.5548112617
 20
132.1351531712
 10
67.5593917154
 20
132.0969997958
 10
67.5609250959
 20
132.06000795
  0
LWPOLYLINE
  5
356
100
AcDbEntity
  8
0
100
AcDbPolyline
 62
253
  6
CONTINUOUS
 90
8
 70
0
 10
66.4578883492
 20
132.5495611992
 10
66.4499214093
 20
132.5544011037
 10
66.4407774769
 20
132.5626102358
 10
66.4330733646
 20
132.5728931383
 10
66.4269437819
 20
132.5850683786
 10
66.4224923357
 20
132.5989235268
 10
66.4197921475
 20
132.6142218653
 10
66.4188873768
 20
132.630700763
  0
LINE
  5
357
100
AcDbEntity
  8
DRAFT
100
AcDbLine
 62
7
  6
CONTINUOUS
 10
58.0466884155
 20
135.4161679142
 11
58.0344814327
 21
135.4563954503
  0
LWPOLYLINE
  5
358
100
AcDbEntity
  8
DRAFT
100
AcDbPolyline
 62
7
  6
CONTINUOUS
 90
25
 70
0
 10
58.9318039711
 20
135.8396355402
 10
58.9439573849
 20
135.7993812197
 10
58.9550835025
 20
135.7592100033
 10
58.9651824083
 20
135.7191219334
 10
58.9742652322
 20
135.6790601328
 10
58.9823210237
 20
135.6390815687
 10
58.9893167176
 20
135.5993570358
 10
58.9952477746
 20
135.5598952622
 10
59.0001188477
 20
135.5206875771
 10
59.0039106011
 20
135.4818786471
 10
59.0066181371
 20
135.4434684069
 10
59.0082464138
 20
135.4054569525
 10
59.0087908214
 20
135.3679891646
 10
59.0082483648
 20
135.3310663689
 10
59.0066220395
 20
135.2946872404
 10
59.0039161608
 20
135.2589926535
 10
59.0001257504
 20
135.2239874577
 10
58.9952557269
 20
135.1896667742
 10
58.9893251929
 20
135.1561568557
 10
58.9823294211
 20
135.1234539815
 10
58.9742730252
 20
135.0915618159
 10
58.9651890603
 20
135.0606176602
 10
58.9550884736
 20
135.0306672458
 10
58.9439601387
 20
135.0016647519
 10
58.9318039711
 20
134.9736101365
  0
LINE
  5
359
100
AcDbEntity
  8
SUPERFICI
100
AcDbLine
 62
7
  6
CONTINUOUS
 10
58.9456366595
 20
135.7935237635
 11
58.9318039711
 21
135.8396355402
  0
LWPOLYLINE
  5
35A
100
AcDbEntity
  8
DRAFT
100
AcDbPolyline
 62
7
  6
CONTINUOUS
 90
22
 70
0
 10
58.0344814327
 20
135.4563954503
 10
58.0233055501
 20
135.4965417842
 10
58.0131608523
 20
135.5366069581
 10
58.0040363239
 20
135.5766479064
 10
57.9959431597
 20
135.6166077841
 10
57.9889147293
 20
135.6563159488
 10
57.9829556906
 20
135.6957637316
 10
57.9780614993
 20
135.7349598576
 10
57.9742516636
 20
135.7737597464
 10
57.9715311404
 20
135.812163493
 10
57.969895033
 20
135.850171032
 10
57.9693480117
 20
135.8876375131
 10
57.9698930719
 20
135.9245616106
 10
57.9715272186
 20
135.9609446498
 10
57.9742460765
 20
135.9966457264
 10
57.9780545632
 20
136.0316599603
 10
57.9829477013
 20
136.0659922011
 10
57.9889062154
 20
136.0995161096
 10
57.995934724
 20
136.1322353523
 10
58.0040284952
 20
136.1641462054
 10
58.0131541695
 20
136.1951112159
 10
58.0233005557
 20
136.22508453
  0
LWPOLYLINE
  5
35B
100
AcDbEntity
  8
0
100
AcDbPolyline
 62
253
  6
CONTINUOUS
 90
7
 70
0
 10
53.5621858235
 20
163.3849400885
 10
53.5640919354
 20
163.3711668217
 10
53.5693050755
 20
163.3584966723
 10
53.5777456292
 20
163.3462689924
 10
53.5892723633
 20
163.3346883838
 10
53.6036924047
 20
163.3239486215
 10
53.6207644672
 20
163.3142294104
  0
LWPOLYLINE
  5
35C
100
AcDbEntity
  8
0
100
AcDbPolyline
 62
253
  6
CONTINUOUS
 90
13
 70
0
 10
59.0017218329
 20
161.0543826928
 10
59.0001897963
 20
161.0774309101
 10
58.9962642146
 20
161.1012946454
 10
58.9900122557
 20
161.1255655835
 10
58.9815408923
 20
161.1498284419
 10
58.9709950718
 20
161.1736680764
 10
58.958555236
 20
161.1966765842
 10
58.9444342341
 20
161.2184602834
 10
58.9288736803
 20
161.2386464488
 10
58.9121398199
 20
161.2568896896
 10
58.894518974
 20
161.2728778588
 10
58.8763126401
 20
161.2863373945
 10
58.8578323337
 20
161.2970380002
  0
LWPOLYLINE
  5
35D
100
AcDbEntity
  8
0
100
AcDbPolyline
 62
7
  6
CONTINUOUS
 90
10
 70
0
 10
57.8836786694
 20
163.6388994817
 10
57.8820450694
 20
163.6644063657
 10
57.8771023289
 20
163.689763793
 10
57.8688551729
 20
163.7144617909
 10
57.8573919527
 20
163.7380139927
 10
57.8429123696
 20
163.7599144601
 10
57.8257037931
 20
163.7797144818
 10
57.8059527466
 20
163.7971683464
 10
57.7840770361
 20
163.8118739525
 10
57.7731385288
 20
163.817776347
  0
LWPOLYLINE
  5
35E
100
AcDbEntity
  8
0
100
AcDbPolyline
 62
7
  6
CONTINUOUS
 90
13
 70
0
 10
57.269310219
 20
163.2925442697
 10
57.2681066021
 20
163.3157569056
 10
57.2644973721
 20
163.3397781102
 10
57.2585484627
 20
163.3641993237
 10
57.2503663304
 20
163.3886055909
 10
57.2400917958
 20
163.4125797333
 10
57.2278977836
 20
163.4357095203
 10
57.2139903634
 20
163.457598045
 10
57.1986099375
 20
163.4778721641
 10
57.1820230399
 20
163.4961861541
 10
57.1645126193
 20
163.5122262997
 10
57.1463731154
 20
163.5257161126
 10
57.1279104019
 20
163.536422879
  0
LWPOLYLINE
  5
35F
100
AcDbEntity
  8
0
100
AcDbPolyline
 62
7
  6
CONTINUOUS
 90
12
 70
0
 10
58.2874455312
 20
160.0082449906
 10
58.2875520984
 20
160.0024242679
 10
58.2886767184
 20
159.9835238728
 10
58.2910446948
 20
159.964393408
 10
58.2946852588
 20
159.9451578504
 10
58.299354635
 20
159.9259180953
 10
58.3050365833
 20
159.9067396817
 10
58.3117289423
 20
159.8877310376
 10
58.3192178283
 20
159.8690415734
 10
58.327417517
 20
159.8507637393
 10
58.3363672678
 20
159.8329326906
 10
58.3460373064
 20
159.8156007203
  0
LINE
  5
360
100
AcDbEntity
  8
0
100
AcDbLine
 62
7
  6
CONTINUOUS
 10
59.5673857187
 20
161.3523527045
 11
59.56707337
 21
161.370971459
  0
LINE
  5
361
100
AcDbEntity
  8
0
100
AcDbLine
 62
7
  6
CONTINUOUS
 10
59.56707337
 20
161.370971459
 11
59.5660940894
 21
161.456546065
  0
LINE
  5
362
100
AcDbEntity
  8
0
100
AcDbLine
 62
7
  6
CONTINUOUS
 10
59.5658495318
 20
161.5016772929
 11
59.5650685793
 21
161.5909431123
  0
LINE
  5
363
100
AcDbEntity
  8
0
100
AcDbLine
 62
7
  6
CONTINUOUS
 10
59.5660940894
 20
161.456546065
 11
59.5658495318
 21
161.5016772929
  0
LINE
  5
364
100
AcDbEntity
  8
0
100
AcDbLine
 62
7
  6
CONTINUOUS
 10
57.8836786694
 20
163.6388994817
 11
57.8836786694
 21
163.2314038471
  0
LINE
  5
365
100
AcDbEntity
  8
0
100
AcDbLine
 62
7
  6
CONTINUOUS
 10
57.9170638252
 20
159.1629070951
 11
57.9170638252
 21
157.7706941238
  0
LINE
  5
366
100
AcDbEntity
  8
0
100
AcDbLine
 62
253
  6
CONTINUOUS
 10
57.9756424689
 20
159.2136907137
 11
57.9756424689
 21
157.6990948603
  0
LINE
  5
367
100
AcDbEntity
  8
0
100
AcDbLine
 62
7
  6
CONTINUOUS
 10
58.2874586627
 20
161.3115142779
 11
58.2874586627
 21
160.0078156551
  0
LINE
  5
368
100
AcDbEntity
  8
0
100
AcDbLine
 62
253
  6
CONTINUOUS
 10
58.330744922
 20
157.5215436337
 11
58.330744922
 21
159.0361394872
  0
LINE
  5
369
100
AcDbEntity
  8
0
100
AcDbLine
 62
253
  6
CONTINUOUS
 10
58.3460373064
 20
161.2408035998
 11
58.3460373064
 21
159.8156007203
  0
LINE
  5
36A
100
AcDbEntity
  8
0
100
AcDbLine
 62
253
  6
CONTINUOUS
 10
58.6110979523
 20
157.5232908738
 11
58.6110979523
 21
158.8137775305
  0
LINE
  5
36B
100
AcDbEntity
  8
0
100
AcDbLine
 62
253
  6
CONTINUOUS
 10
58.7188791204
 20
159.6291798133
 11
58.7188791204
 21
161.0543826928
  0
LINE
  5
36C
100
AcDbEntity
  8
0
100
AcDbLine
 62
7
  6
CONTINUOUS
 10
58.7381890863
 20
162.1557928927
 11
58.7381890863
 21
162.379322109
  0
LINE
  5
36D
100
AcDbEntity
  8
0
100
AcDbLine
 62
253
  6
CONTINUOUS
 10
59.0017218329
 20
159.8026225913
 11
59.0017218329
 21
161.0543826928
  0
LINE
  5
36E
100
AcDbEntity
  8
0
100
AcDbLine
 62
7
  6
CONTINUOUS
 10
59.0563871378
 20
162.2202230832
 11
59.0563871378
 21
161.9966938669
  0
LWPOLYLINE
  5
36F
100
AcDbEntity
  8
0
100
AcDbPolyline
 62
7
  6
CONTINUOUS
 90
5
 70
0
 10
59.5650685793
 20
161.5909431123
 10
59.5650694123
 20
161.6119716422
 10
59.5652164425
 20
161.6314161996
 10
59.5652285349
 20
161.6493649909
 10
59.5649391149
 20
161.6657079204
  0
LINE
  5
370
100
AcDbEntity
  8
0
100
AcDbLine
 62
7
  6
CONTINUOUS
 10
59.5674072578
 20
161.3523419349
 11
59.5674072578
 21
160.1217744784
  0
LWPOLYLINE
  5
371
100
AcDbEntity
  8
0
100
AcDbPolyline
 62
253
  6
CONTINUOUS
 90
7
 70
0
 10
65.2888092617
 20
164.0634856737
 10
65.296426516
 20
164.0883584987
 10
65.3014939062
 20
164.1140157528
 10
65.3039246759
 20
164.1400184735
 10
65.303677177
 20
164.1659217695
 10
65.3007555853
 20
164.1912824384
 10
65.2952098288
 20
164.2156665501
  0
LWPOLYLINE
  5
372
100
AcDbEntity
  8
DRAFT
100
AcDbPolyline
 62
7
  6
CONTINUOUS
 90
3
 70
0
 10
55.831269534
 20
137.3211000409
 10
55.8424476442
 20
137.3501274224
 10
55.8546573938
 20
137.3782088288
  0
LWPOLYLINE
  5
373
100
AcDbEntity
  8
SUPERFICI
100
AcDbPolyline
 62
7
  6
CONTINUOUS
 90
21
 70
0
 10
54.724518623
 20
137.0772528105
 10
54.7383320062
 20
137.1094209882
 10
54.7507966782
 20
137.1427944343
 10
54.7619127574
 20
137.1773732076
 10
54.7716948411
 20
137.2132202662
 10
54.7801285847
 20
137.250272778
 10
54.7871706465
 20
137.2883420931
 10
54.7928136567
 20
137.3274320925
 10
54.7970651355
 20
137.3675389697
 10
54.7999039776
 20
137.4084624944
 10
54.8013234531
 20
137.450204845
 10
54.8013303432
 20
137.4927638679
 10
54.7999237086
 20
137.5359327845
 10
54.797097199
 20
137.5797144907
 10
54.7928571167
 20
137.6241060656
 10
54.7872214024
 20
137.6688919556
 10
54.7801815648
 20
137.7140808704
 10
54.7717459508
 20
137.7596640273
 10
54.7619576584
 20
137.8053995839
 10
54.7508309505
 20
137.8512068743
 10
54.7383513114
 20
137.8971664375
  0
LWPOLYLINE
  5
374
100
AcDbEntity
  8
SUPERFICI
100
AcDbPolyline
 62
7
  6
CONTINUOUS
 90
22
 70
0
 10
55.8546573938
 20
137.3782088288
 10
55.8407830353
 20
137.3460101635
 10
55.8282624487
 20
137.3126087601
 10
55.8170957524
 20
137.2780046782
 10
55.8072685169
 20
137.2421350437
 10
55.7987954242
 20
137.2050628574
 10
55.791720214
 20
137.166976968
 10
55.7860504055
 20
137.1278735695
 10
55.7817786296
 20
137.0877565438
 10
55.7789261942
 20
137.0468262224
 10
55.7774998804
 20
137.0050804527
 10
55.7774929581
 20
136.9625214136
 10
55.7789063683
 20
136.9193558849
 10
55.781746413
 20
136.8755809462
 10
55.7860067419
 20
136.8311994946
 10
55.7916692182
 20
136.7864269856
 10
55.7987421916
 20
136.7412546387
 10
55.807217168
 20
136.695691163
 10
55.8170506453
 20
136.6499781989
 10
55.8282280194
 20
136.6041962416
 10
55.8407636417
 20
136.55826467
 10
55.8546573938
 20
136.5121834251
  0
LWPOLYLINE
  5
375
100
AcDbEntity
  8
0
100
AcDbPolyline
 62
7
  6
CONTINUOUS
 90
7
 70
0
 10
68.4615726518
 20
154.8828244107
 10
68.4421282828
 20
154.8704727457
 10
68.4232614264
 20
154.8581060969
 10
68.4048989769
 20
154.845978401
 10
68.3871772976
 20
154.8341826124
 10
68.3704092724
 20
154.8226045692
 10
68.354819768
 20
154.8112094895
  0
LWPOLYLINE
  5
376
100
AcDbEntity
  8
0
100
AcDbPolyline
 62
253
  6
CONTINUOUS
 90
13
 70
0
 10
67.7743236053
 20
156.5495817554
 10
67.7560917926
 20
156.5386267752
 10
67.7382063459
 20
156.5249780053
 10
67.7209665367
 20
156.5088638261
 10
67.7046608335
 20
156.4905538714
 10
67.6895620744
 20
156.4703545158
 10
67.6759229024
 20
156.4486037489
 10
67.6639715374
 20
156.4256655196
 10
67.653907958
 20
156.4019236461
 10
67.6459005549
 20
156.3777753938
 10
67.6400833135
 20
156.3536248279
 10
67.6365535718
 20
156.3298760524
 10
67.635370392
 20
156.306926448
  0
LWPOLYLINE
  5
377
100
AcDbEntity
  8
0
100
AcDbPolyline
 62
253
  6
CONTINUOUS
 90
7
 70
0
 10
70.1312046222
 20
157.4176046483
 10
70.1475987009
 20
157.4272455764
 10
70.1615120746
 20
157.4379203946
 10
70.1726633444
 20
157.4494738737
 10
70.1808234311
 20
157.4617580861
 10
70.1857635619
 20
157.4745528435
 10
70.1873366621
 20
157.4870703611
  0
LWPOLYLINE
  5
378
100
AcDbEntity
  8
RACCORDO
100
AcDbPolyline
 62
253
  6
CONTINUOUS
 90
19
 70
0
 10
65.2761496329
 20
152.8089823327
 10
65.2207613788
 20
152.7776578242
 10
65.1658276778
 20
152.7413767618
 10
65.1116739323
 20
152.700359336
 10
65.0586164581
 20
152.6548555961
 10
65.0069739574
 20
152.6051393697
 10
64.9570654816
 20
152.5515070045
 10
64.9091879607
 20
152.4942841413
 10
64.8636228881
 20
152.4338153298
 10
64.8206483027
 20
152.370457153
 10
64.7805192579
 20
152.3045910026
 10
64.7434727338
 20
152.2366139399
 10
64.7097352623
 20
152.1669276566
 10
64.679507155
 20
152.0959489517
 10
64.65296798
 20
152.0241070545
 10
64.6302821901
 20
151.9518336038
 10
64.6115864431
 20
151.8795630228
 10
64.5969892434
 20
151.8077298364
 10
64.5865771258
 20
151.7367656655
  0
LWPOLYLINE
  5
379
100
AcDbEntity
  8
RACCORDO
100
AcDbPolyline
 62
253
  6
CONTINUOUS
 90
19
 70
0
 10
65.6295818695
 20
152.1994018951
 10
65.601439517
 20
152.1838480282
 10
65.573795688
 20
152.1660186333
 10
65.5466503827
 20
152.1459137103
 10
65.5198296663
 20
152.1233777645
 10
65.4935074736
 20
152.0985662905
 10
65.4682056081
 20
152.0719457731
 10
65.4439589481
 20
152.0434927726
 10
65.4207326154
 20
152.0132307285
 10
65.398943778
 20
151.9816964448
 10
65.3786163033
 20
151.9488609133
 10
65.3597263239
 20
151.9147531421
 10
65.3426194061
 20
151.87999696
 10
65.3273282807
 20
151.8445621381
 10
65.3138202167
 20
151.8084789053
 10
65.3023425878
 20
151.7724617764
 10
65.2929778517
 20
151.7367489228
 10
65.2856435506
 20
151.7011021731
 10
65.2803396844
 20
151.6655215273
  0
LINE
  5
37A
100
AcDbEntity
  8
0
100
AcDbLine
 62
7
  6
CONTINUOUS
 10
69.5729682116
 20
155.4952406262
 11
68.6351727983
 21
154.983270545
  0
LINE
  5
37B
100
AcDbEntity
  8
0
100
AcDbLine
 62
253
  6
CONTINUOUS
 10
69.8915296004
 20
155.3359599318
 11
68.9406244343
 21
154.8252947998
  0
LINE
  5
37C
100
AcDbEntity
  8
0
100
AcDbLine
 62
253
  6
CONTINUOUS
 10
70.2447196538
 20
154.7263519996
 11
69.2976108034
 21
154.2177256052
  0
LINE
  5
37D
100
AcDbEntity
  8
DRAFT
100
AcDbLine
 62
7
  6
CONTINUOUS
 10
76.9504040711
 20
158.8012829732
 11
83.6466192033
 21
162.31887155
  0
LWPOLYLINE
  5
37E
100
AcDbEntity
  8
0
100
AcDbPolyline
 62
7
  6
CONTINUOUS
 90
9
 70
0
 10
68.6300672455
 20
154.9805733943
 10
68.6146499255
 20
154.9725027109
 10
68.5979637702
 20
154.963524539
 10
68.5801566688
 20
154.9537082623
 10
68.5613337392
 20
154.9430003152
 10
68.5417293036
 20
154.9315775661
 10
68.5217230364
 20
154.9198159126
 10
68.5015977106
 20
154.9076993688
 10
68.4615726518
 20
154.8828244107
  0
LINE
  5
37F
100
AcDbEntity
  8
DRAFT
100
AcDbLine
 62
7
  6
CONTINUOUS
 10
76.2957514525
 20
159.4067983893
 11
79.2249757748
 21
160.9234486802
  0
LINE
  5
380
100
AcDbEntity
  8
0
100
AcDbLine
 62
7
  6
CONTINUOUS
 10
70.7396944006
 20
157.2879832714
 11
70.260765027
 21
157.0452201535
  0
LINE
  5
381
100
AcDbEntity
  8
0
100
AcDbLine
 62
7
  6
CONTINUOUS
 10
70.5789630785
 20
156.4589351129
 11
69.809560358
 21
156.0689348045
  0
LINE
  5
382
100
AcDbEntity
  8
0
100
AcDbLine
 62
253
  6
CONTINUOUS
 10
65.9678645959
 20
153.1588067828
 11
65.2761496329
 21
152.8089823327
  0
LINE
  5
383
100
AcDbEntity
  8
0
100
AcDbLine
 62
253
  6
CONTINUOUS
 10
66.3212968325
 20
152.5492263452
 11
65.6295818695
 21
152.1994018951
  0
LINE
  5
384
100
AcDbEntity
  8
0
100
AcDbLine
 62
7
  6
CONTINUOUS
 10
66.2605891036
 20
154.9890319549
 11
64.975058983
 21
154.3413103585
  0
LINE
  5
385
100
AcDbEntity
  8
0
100
AcDbLine
 62
253
  6
CONTINUOUS
 10
70.5859842975
 20
155.6807228348
 11
69.8912201111
 21
155.3361146765
  0
LINE
  5
386
100
AcDbEntity
  8
0
100
AcDbLine
 62
253
  6
CONTINUOUS
 10
70.9394838402
 20
155.0710263115
 11
70.2447196538
 21
154.7264181531
  0
LINE
  5
387
100
AcDbEntity
  8
0
100
AcDbLine
 62
253
  6
CONTINUOUS
 10
69.9488107901
 20
155.9993095885
 11
76.5768225833
 21
159.2662628239
  0
LINE
  5
388
100
AcDbEntity
  8
0
100
AcDbLine
 62
253
  6
CONTINUOUS
 10
70.3265296775
 20
155.8104501448
 11
76.8268130641
 21
159.0144459287
  0
LINE
  5
389
100
AcDbEntity
  8
0
100
AcDbLine
 62
253
  6
CONTINUOUS
 10
82.0219361878
 20
162.9718560382
 11
70.1873366621
 21
157.2055954725
  0
LINE
  5
38A
100
AcDbEntity
  8
0
100
AcDbLine
 62
253
  6
CONTINUOUS
 10
82.0719815228
 20
162.7920575036
 11
73.4292912567
 21
158.5810147932
  0
LINE
  5
38B
100
AcDbEntity
  8
0
100
AcDbLine
 62
253
  6
CONTINUOUS
 10
70.2639269614
 20
157.0387306397
 11
70.1663735126
 21
156.9911989422
  0
LINE
  5
38C
100
AcDbEntity
  8
DRAFT
100
AcDbLine
 62
7
  6
CONTINUOUS
 10
79.2249757748
 20
160.9234486802
 11
82.8941675922
 21
162.6950973555
  0
LINE
  5
38D
100
AcDbEntity
  8
0
100
AcDbLine
 62
7
  6
CONTINUOUS
 10
75.7326376607
 20
159.6883552853
 11
70.7396944006
 21
157.2879832714
  0
LWPOLYLINE
  5
38E
100
AcDbEntity
  8
RACCORDO
100
AcDbPolyline
 62
253
  6
CONTINUOUS
 90
26
 70
0
 10
85.1547347196
 20
161.4034544984
 10
85.1739946318
 20
161.4123511094
 10
85.1932310772
 20
161.4205935144
 10
85.2124297708
 20
161.4281755925
 10
85.2315764553
 20
161.4350917131
 10
85.2506569125
 20
161.4413367403
 10
85.2696569731
 20
161.4469060366
 10
85.2885625275
 20
161.4517954661
 10
85.3073595363
 20
161.4560013978
 10
85.3260340409
 20
161.4595207086
 10
85.3445721733
 20
161.4623507849
 10
85.3629601671
 20
161.464489525
 10
85.3811843673
 20
161.4659353408
 10
85.3992312404
 20
161.4666871586
 10
85.4170873848
 20
161.46674442
 10
85.4347395404
 20
161.4661070825
 10
85.4521745985
 20
161.4647756195
 10
85.4693796119
 20
161.4627510197
 10
85.486341804
 20
161.4600347865
 10
85.5030485786
 20
161.456628937
 10
85.5194875291
 20
161.4525360006
 10
85.5356464479
 20
161.4477590165
 10
85.5515133352
 20
161.4423015322
 10
85.5670764083
 20
161.4361676005
 10
85.5823241099
 20
161.4293617764
 10
85.5896076002
 20
161.425817828
  0
LINE
  5
38F
100
AcDbEntity
  8
0
100
AcDbLine
 62
7
  6
CONTINUOUS
 10
68.8658614305
 20
133.4187360587
 11
68.8948631571
 21
133.4042351954
  0
LWPOLYLINE
  5
390
100
AcDbEntity
  8
0
100
AcDbPolyline
 62
7
  6
CONTINUOUS
 90
6
 70
0
 10
66.4828403053
 20
132.5809008631
 10
66.480382084
 20
132.5839904078
 10
66.4779510568
 20
132.587097509
 10
66.4755472215
 20
132.5902215981
 10
66.4731704283
 20
132.5933619453
 10
66.4708207931
 20
132.5965181321
  0
LWPOLYLINE
  5
391
100
AcDbEntity
  8
0
100
AcDbPolyline
 62
7
  6
CONTINUOUS
 90
5
 70
0
 10
66.4708207931
 20
132.5965181321
 10
66.4684987301
 20
132.5996900699
 10
66.466204386
 20
132.6028773616
 10
66.4639376068
 20
132.6060792821
 10
66.4616983744
 20
132.6092952642
  0
LWPOLYLINE
  5
392
100
AcDbEntity
  8
RACCORDO
100
AcDbPolyline
 62
253
  6
CONTINUOUS
 90
19
 70
0
 10
65.2803396844
 20
115.0126869725
 10
65.2856435457
 20
114.9821477946
 10
65.292974378
 20
114.9534704913
 10
65.3023321813
 20
114.9266550627
 10
65.3137990028
 20
114.9015434652
 10
65.3272927953
 20
114.8782937424
 10
65.3425674174
 20
114.8573800243
 10
65.3596518469
 20
114.8388622171
 10
65.3785171059
 20
114.8226804147
 10
65.39883012
 20
114.8091290292
 10
65.420621481
 20
114.7982558141
 10
65.443860597
 20
114.7900130158
 10
65.4681226178
 20
114.7845517855
 10
65.4934416367
 20
114.7819326759
 10
65.5197835604
 20
114.7820951342
 10
65.5466212585
 20
114.7850086529
 10
65.5737790211
 20
114.7906630627
 10
65.6014325581
 20
114.799068533
 10
65.6295818695
 20
114.8102250636
  0
LWPOLYLINE
  5
393
100
AcDbEntity
  8
RACCORDO
100
AcDbPolyline
 62
253
  6
CONTINUOUS
 90
11
 70
0
 10
64.5865771258
 20
114.954544749
 10
64.5969893144
 20
114.8937185506
 10
64.6115865247
 20
114.8361061446
 10
64.6302821479
 20
114.7820525545
 10
64.6529675496
 20
114.7318798336
 10
64.6795060426
 20
114.6858895266
 10
64.709733368
 20
114.6443604891
 10
64.7434700368
 20
114.607540625
 10
64.7805157766
 20
114.5756482964
 10
64.8206443011
 20
114.5488759292
 10
64.8412481009
 20
114.5377327945
  0
LWPOLYLINE
  5
394
100
AcDbEntity
  8
0
100
AcDbPolyline
 62
253
  6
CONTINUOUS
 90
13
 70
0
 10
61.470381564
 20
160.539807995
 10
61.468865827
 20
160.562864973
 10
61.4649997755
 20
160.5867579261
 10
61.4588495334
 20
160.6110781978
 10
61.4505202921
 20
160.6354098224
 10
61.4401545121
 20
160.6593366405
 10
61.4279294861
 20
160.6824494159
 10
61.4140543067
 20
160.7043528359
 10
61.3987662901
 20
160.724672272
 10
61.3823269172
 20
160.7430601876
 10
61.3650173614
 20
160.7592020822
 10
61.3471336792
 20
160.7728218705
 10
61.328981747
 20
160.7836866044
  0
LWPOLYLINE
  5
395
100
AcDbEntity
  8
0
100
AcDbPolyline
 62
7
  6
CONTINUOUS
 90
13
 70
0
 10
61.6887276014
 20
160.6498228766
 10
61.6875239845
 20
160.6730355125
 10
61.6839147545
 20
160.6970567171
 10
61.6779658451
 20
160.7214779306
 10
61.6697837129
 20
160.7458841978
 10
61.6595091782
 20
160.7698583402
 10
61.647315166
 20
160.7929881272
 10
61.6334077458
 20
160.8148766519
 10
61.61802732
 20
160.835150771
 10
61.6014404223
 20
160.853464761
 10
61.5839300017
 20
160.8695049066
 10
61.5657904978
 20
160.8829947195
 10
61.5473277843
 20
160.8937014859
  0
LINE
  5
396
100
AcDbEntity
  8
0
100
AcDbLine
 62
253
  6
CONTINUOUS
 10
61.1900285337
 20
159.3104638404
 11
61.1900285337
 21
160.541031297
  0
LINE
  5
397
100
AcDbEntity
  8
0
100
AcDbLine
 62
253
  6
CONTINUOUS
 10
61.470381564
 20
159.3181594115
 11
61.470381564
 21
160.539807995
  0
LINE
  5
398
100
AcDbEntity
  8
0
100
AcDbLine
 62
7
  6
CONTINUOUS
 10
61.6887276014
 20
159.4373609313
 11
61.6887276014
 21
160.6498228766
  0
LINE
  5
399
100
AcDbEntity
  8
0
100
AcDbLine
 62
253
  6
CONTINUOUS
 10
62.2469640119
 20
160.9267122515
 11
62.2469640119
 21
159.7142503063
  0
LINE
  5
39A
100
AcDbEntity
  8
0
100
AcDbLine
 62
7
  6
CONTINUOUS
 10
62.3030960519
 20
160.9961780886
 11
62.3030960519
 21
159.7816341868
  0
LINE
  5
39B
100
AcDbEntity
  8
0
100
AcDbLine
 62
7
  6
CONTINUOUS
 10
62.8359548065
 20
159.7594895168
 11
62.8359548065
 21
158.5315903358
  0
LINE
  5
39C
100
AcDbEntity
  8
0
100
AcDbLine
 62
253
  6
CONTINUOUS
 10
62.8945334503
 20
159.6887788387
 11
62.8945334503
 21
158.4582113821
  0
LWPOLYLINE
  5
39D
100
AcDbEntity
  8
0
100
AcDbPolyline
 62
253
  6
CONTINUOUS
 90
13
 70
0
 10
62.8945334503
 20
159.6887788387
 10
62.8956660413
 20
159.7112219141
 10
62.8990763883
 20
159.7345985328
 10
62.9047547985
 20
159.7585411704
 10
62.9126720152
 20
159.782712896
 10
62.9227278776
 20
159.8066522241
 10
62.9347071562
 20
159.8297928183
 10
62.9483770933
 20
159.8516977786
 10
62.9635296543
 20
159.8720448673
 10
62.9799025813
 20
159.8904829692
 10
62.9972159408
 20
159.9067002461
 10
63.0151785344
 20
159.9204271516
 10
63.0334866635
 20
159.9314341461
  0
LWPOLYLINE
  5
39E
100
AcDbEntity
  8
0
100
AcDbPolyline
 62
253
  6
CONTINUOUS
 90
13
 70
0
 10
63.9514693012
 20
158.4380876024
 10
63.9526003075
 20
158.4605146374
 10
63.9560069772
 20
158.4838798491
 10
63.961681263
 20
158.5078166612
 10
63.9695961817
 20
158.5319903518
 10
63.9796527152
 20
158.5559374545
 10
63.9916340658
 20
158.5790858809
 10
64.0053067183
 20
158.6009974151
 10
64.0204629768
 20
158.6213505203
 10
64.0368388971
 20
158.6397922111
 10
64.0541535932
 20
158.6560105389
 10
64.0721160712
 20
158.6697370649
 10
64.0904225145
 20
158.6807429098
  0
LWPOLYLINE
  5
39F
100
AcDbEntity
  8
0
100
AcDbPolyline
 62
7
  6
CONTINUOUS
 90
10
 70
0
 10
62.8359548065
 20
159.7594895168
 10
62.8375737127
 20
159.7848819395
 10
62.8424703668
 20
159.8101221589
 10
62.8506392959
 20
159.8347102687
 10
62.8619999135
 20
159.8581793635
 10
62.8763552154
 20
159.8800215354
 10
62.8934058828
 20
159.8997742428
 10
62.9129702135
 20
159.9172069023
 10
62.9346458888
 20
159.9319322682
 10
62.94098652
 20
159.9355037904
  0
LWPOLYLINE
  5
3A0
100
AcDbEntity
  8
0
100
AcDbPolyline
 62
7
  6
CONTINUOUS
 90
10
 70
0
 10
63.8928906574
 20
158.5087982805
 10
63.8945170904
 20
158.5342494004
 10
63.8994373505
 20
158.5595497294
 10
63.9076463539
 20
158.584194222
 10
63.9190596257
 20
158.6077061329
 10
63.9334787567
 20
158.6295784219
 10
63.950610298
 20
158.6493553839
 10
63.9702701046
 20
158.6667988617
 10
63.9920479908
 20
158.6815141051
 10
64.0004175421
 20
158.6861361577
  0
LWPOLYLINE
  5
3A1
100
AcDbEntity
  8
0
100
AcDbPolyline
 62
7
  6
CONTINUOUS
 90
12
 70
0
 10
64.2810279287
 20
155.9799995368
 10
64.2810569096
 20
155.9802534681
 10
64.2819734133
 20
155.9827135412
 10
64.2841955409
 20
155.9859549421
 10
64.2877561788
 20
155.9898261234
 10
64.2923925809
 20
155.9943767319
 10
64.2980873933
 20
155.9995235132
 10
64.3048383513
 20
156.0051441404
 10
64.3124129502
 20
156.0112548277
 10
64.3207167787
 20
156.0177993126
 10
64.3297913951
 20
156.0246469264
 10
64.3396034996
 20
156.0317101984
  0
LWPOLYLINE
  5
3A2
100
AcDbEntity
  8
DRAFT
100
AcDbPolyline
 62
7
  6
CONTINUOUS
 90
3
 70
0
 10
58.0233005557
 20
136.22508453
 10
58.0344786659
 20
136.2541119115
 10
58.0466884155
 20
136.282193318
  0
LWPOLYLINE
  5
3A3
100
AcDbEntity
  8
0
100
AcDbPolyline
 62
7
  6
CONTINUOUS
 90
10
 70
0
 10
65.5424595589
 20
158.0145694147
 10
65.5564005412
 20
158.0482492007
 10
65.566856278
 20
158.0843182332
 10
65.5738267692
 20
158.1227765123
 10
65.5773120148
 20
158.1640551203
 10
65.5773120148
 20
158.2077229749
 10
65.5738267692
 20
158.2524868286
 10
65.566856278
 20
158.2979155988
 10
65.5564005412
 20
158.3444403681
 10
65.5424595589
 20
158.3920611365
  0
LWPOLYLINE
  5
3A4
100
AcDbEntity
  8
SUPERFICI
100
AcDbPolyline
 62
7
  6
CONTINUOUS
 90
21
 70
0
 10
56.9165496447
 20
135.9812372996
 10
56.9303630279
 20
136.0134054774
 10
56.9428276999
 20
136.0467789234
 10
56.9539437791
 20
136.0813576968
 10
56.9637258628
 20
136.1172047554
 10
56.9721596063
 20
136.1542572672
 10
56.9792016681
 20
136.1923265823
 10
56.9848446784
 20
136.2314165817
 10
56.9890961572
 20
136.2715234588
 10
56.9919349993
 20
136.3124469835
 10
56.9933544748
 20
136.3541893342
 10
56.9933613648
 20
136.3967483571
 10
56.9919547303
 20
136.4399172736
 10
56.9891282207
 20
136.4836989798
 10
56.9848881384
 20
136.5280905548
 10
56.979252424
 20
136.5728764448
 10
56.9722125864
 20
136.6180653595
 10
56.9637769724
 20
136.6636485164
 10
56.9539886801
 20
136.709384073
 10
56.9428619721
 20
136.7551913634
 10
56.9303823331
 20
136.8011509267
  0
LWPOLYLINE
  5
3A5
100
AcDbEntity
  8
SUPERFICI
100
AcDbPolyline
 62
7
  6
CONTINUOUS
 90
22
 70
0
 10
58.0466884155
 20
136.282193318
 10
58.032814057
 20
136.2499946526
 10
58.0202934704
 20
136.2165932493
 10
58.0091267741
 20
136.1819891674
 10
57.9992995385
 20
136.1461195328
 10
57.9908264459
 20
136.1090473465
 10
57.9837512357
 20
136.0709614572
 10
57.9780814272
 20
136.0318580587
 10
57.9738096513
 20
135.9917410329
 10
57.9709572158
 20
135.9508107116
 10
57.969530902
 20
135.9090649418
 10
57.9695239798
 20
135.8665059028
 10
57.97093739
 20
135.8233403741
 10
57.9737774346
 20
135.7795654354
 10
57.9780377635
 20
135.7351839837
 10
57.9837002399
 20
135.6904114748
 10
57.9907732132
 20
135.6452391279
 10
57.9992481897
 20
135.5996756522
 10
58.009081667
 20
135.5539626881
 10
58.0202590411
 20
135.5081807308
 10
58.0327946634
 20
135.4622491591
 10
58.0466884155
 20
135.4161679142
  0
LWPOLYLINE
  5
3A6
100
AcDbEntity
  8
0
100
AcDbPolyline
 62
7
  6
CONTINUOUS
 90
7
 70
0
 10
70.1428920654
 20
156.9538667902
 10
70.1577634902
 20
156.9749103351
 10
70.1698098816
 20
156.9976999316
 10
70.1788269564
 20
157.0218559875
 10
70.1846708977
 20
157.0470295547
 10
70.1872206919
 20
157.0727649586
 10
70.1873366615
 20
157.0795669812
  0
LINE
  5
3A7
100
AcDbEntity
  8
0
100
AcDbLine
 62
253
  6
CONTINUOUS
 10
69.5729682116
 20
156.3193284104
 11
70.1312046222
 21
157.0101090138
  0
LINE
  5
3A8
100
AcDbEntity
  8
0
100
AcDbLine
 62
7
  6
CONTINUOUS
 10
69.5729682116
 20
156.2486237496
 11
70.1428920654
 21
156.9538667902
  0
LWPOLYLINE
  5
3A9
100
AcDbEntity
  8
0
100
AcDbPolyline
 62
7
  6
CONTINUOUS
 90
15
 70
0
 10
68.6351727983
 20
155.7682643992
 10
68.6208038396
 20
155.7522546129
 10
68.6051443785
 20
155.7370980566
 10
68.5883095081
 20
155.7228685418
 10
68.5704497682
 20
155.7095460767
 10
68.5516993648
 20
155.6972821524
 10
68.5321693712
 20
155.6864074687
 10
68.5120446468
 20
155.6769737402
 10
68.491518588
 20
155.6690361535
 10
68.470735499
 20
155.6629366871
 10
68.4498966845
 20
155.6587159473
 10
68.4292862892
 20
155.6564029749
 10
68.4091952147
 20
155.6563100371
 10
68.3899047597
 20
155.6585291923
 10
68.3852252021
 20
155.6594298892
  0
LINE
  5
3AA
100
AcDbEntity
  8
0
100
AcDbLine
 62
7
  6
CONTINUOUS
 10
68.932320902
 20
153.7089089641
 11
68.9534418008
 21
153.7247910478
  0
LINE
  5
3AB
100
AcDbEntity
  8
RACCORDO
100
AcDbLine
 62
253
  6
CONTINUOUS
 10
85.8606131142
 20
160.5446591903
 11
78.1697678251
 21
156.6319202124
  0
LINE
  5
3AC
100
AcDbEntity
  8
0
100
AcDbLine
 62
7
  6
CONTINUOUS
 10
66.3212968325
 20
151.4155711033
 11
66.5669952889
 21
151.5403350741
  0
LINE
  5
3AD
100
AcDbEntity
  8
0
100
AcDbLine
 62
253
  6
CONTINUOUS
 10
66.3212968325
 20
151.3133705241
 11
66.602940322
 21
151.4563871332
  0
LINE
  5
3AE
100
AcDbEntity
  8
0
100
AcDbLine
 62
253
  6
CONTINUOUS
 10
77.9681668375
 20
157.0459018615
 11
70.9703426777
 21
153.5166365164
  0
LINE
  5
3AF
100
AcDbEntity
  8
0
100
AcDbLine
 62
253
  6
CONTINUOUS
 10
78.3823646279
 20
155.6141047295
 11
71.0225371131
 21
151.9022675068
  0
LINE
  5
3B0
100
AcDbEntity
  8
0
100
AcDbLine
 62
253
  6
CONTINUOUS
 10
68.5477710747
 20
153.4963655237
 11
66.8539260105
 21
152.6429121416
  0
LINE
  5
3B1
100
AcDbEntity
  8
0
100
AcDbLine
 62
253
  6
CONTINUOUS
 10
68.1755960962
 20
151.7332245428
 11
67.5609250959
 21
151.423519095
  0
LWPOLYLINE
  5
3B2
100
AcDbEntity
  8
RACCORDO
100
AcDbPolyline
 62
253
  6
CONTINUOUS
 90
34
 70
0
 10
85.6546585672
 20
160.8998782391
 10
85.6735073732
 20
160.9092073955
 10
85.6919612653
 20
160.91825562
 10
85.7100065207
 20
160.9270161837
 10
85.7276297132
 20
160.9354825684
 10
85.7448177447
 20
160.9436484814
 10
85.7615578531
 20
160.9515078593
 10
85.7778376051
 20
160.9590548639
 10
85.7936448742
 20
160.9662838728
 10
85.8089678736
 20
160.9731894954
 10
85.8237951988
 20
160.9797665921
 10
85.8381158352
 20
160.9860102772
 10
85.8519191358
 20
160.9919159087
 10
85.8651948372
 20
160.9974790953
 10
85.8779330663
 20
161.0026956997
 10
85.8901243493
 20
161.0075618421
 10
85.9017596203
 20
161.0120739039
 10
85.9128302277
 20
161.0162285301
 10
85.9233279395
 20
161.0200226313
 10
85.9332449497
 20
161.0234533863
 10
85.9425738838
 20
161.0265182439
 10
85.9513078051
 20
161.0292149251
 10
85.9594402188
 20
161.0315414247
 10
85.9669650778
 20
161.0334960126
 10
85.9738767866
 20
161.0350772355
 10
85.9801702056
 20
161.0362839176
 10
85.9858406551
 20
161.0371151615
 10
85.9908839185
 20
161.0375703492
 10
85.9952962456
 20
161.0376491421
 10
85.9990743555
 20
161.0373514818
 10
86.0022154388
 20
161.0366775894
 10
86.0047171597
 20
161.0356279662
 10
86.006577658
 20
161.0342033926
 10
86.0075017748
 20
161.0329766676
  0
LWPOLYLINE
  5
3B3
100
AcDbEntity
  8
RACCORDO
100
AcDbPolyline
 62
253
  6
CONTINUOUS
 90
34
 70
0
 10
85.8606131142
 20
160.5446591903
 10
85.8794496295
 20
160.5539822917
 10
85.8978917462
 20
160.5630248287
 10
85.9159257691
 20
160.5717800864
 10
85.933538306
 20
160.580241563
 10
85.9507162778
 20
160.5884029751
 10
85.967446928
 20
160.5962582619
 10
85.9837178324
 20
160.60380159
 10
85.999516908
 20
160.6110273577
 10
86.0148324224
 20
160.6179301991
 10
86.0296530023
 20
160.6245049882
 10
86.0439676417
 20
160.6307468424
 10
86.0577657106
 20
160.6366511265
 10
86.0710369623
 20
160.642213456
 10
86.0837715417
 20
160.6474297002
 10
86.095959992
 20
160.6522959856
 10
86.1075932619
 20
160.6568086983
 10
86.1186627124
 20
160.6609644873
 10
86.1291601235
 20
160.6647602665
 10
86.1390776996
 20
160.668193217
 10
86.1484080758
 20
160.6712607895
 10
86.1571443235
 20
160.6739607061
 10
86.165279955
 20
160.6762909617
 10
86.1728089287
 20
160.678249826
 10
86.1797256537
 20
160.6798358442
 10
86.1860249934
 20
160.6810478385
 10
86.19170227
 20
160.681884909
 10
86.1967532675
 20
160.6823464339
 10
86.2011742349
 20
160.6824320707
 10
86.2049618894
 20
160.6821417556
 10
86.208113418
 20
160.6814757043
 10
86.2106264806
 20
160.6804344114
 10
86.2124992108
 20
160.6790186501
 10
86.2134563462
 20
160.6777575769
  0
LINE
  5
3B4
100
AcDbEntity
  8
0
100
AcDbLine
 62
253
  6
CONTINUOUS
 10
66.3212968325
 20
149.8405800647
 11
66.4526887001
 21
149.905402139
  0
LINE
  5
3B5
100
AcDbEntity
  8
RACCORDO
100
AcDbLine
 62
253
  6
CONTINUOUS
 10
84.392146139
 20
161.0330277912
 11
85.1547347196
 21
161.4034544984
  0
LINE
  5
3B6
100
AcDbEntity
  8
RACCORDO
100
AcDbLine
 62
253
  6
CONTINUOUS
 10
84.7298144728
 20
160.4506360641
 11
85.6546585672
 21
160.8998782391
  0
LINE
  5
3B7
100
AcDbEntity
  8
0
100
AcDbLine
 62
7
  6
CONTINUOUS
 10
68.1755960962
 20
151.5360711361
 11
67.5609250959
 21
151.2780572172
  0
LINE
  5
3B8
100
AcDbEntity
  8
0
100
AcDbLine
 62
7
  6
CONTINUOUS
 10
70.9703426777
 20
151.7929986278
 11
69.2976108034
 21
151.1039434814
  0
LWPOLYLINE
  5
3B9
100
AcDbEntity
  8
0
100
AcDbPolyline
 62
253
  6
CONTINUOUS
 90
7
 70
0
 10
66.5240278052
 20
139.2214370508
 10
66.5100134125
 20
139.2272090852
 10
66.4962522755
 20
139.2306491754
 10
66.482982341
 20
139.231695585
 10
66.4704317499
 20
139.2303274877
 10
66.4588202662
 20
139.2265658383
 10
66.4557939565
 20
139.2251060982
  0
LWPOLYLINE
  5
3BA
100
AcDbEntity
  8
0
100
AcDbPolyline
 62
7
  6
CONTINUOUS
 90
11
 70
0
 10
67.1696070477
 20
138.604356043
 10
67.1935791597
 20
138.5934404041
 10
67.2241927001
 20
138.5824350704
 10
67.2552769114
 20
138.5744563218
 10
67.2866058357
 20
138.5695306903
 10
67.3178432838
 20
138.5676699034
 10
67.3486461275
 20
138.5688320436
 10
67.378770381
 20
138.5729345142
 10
67.4079556346
 20
138.5798514905
 10
67.4359349078
 20
138.5894113369
 10
67.4567325911
 20
138.5985566713
  0
LINE
  5
3BB
100
AcDbEntity
  8
0
100
AcDbLine
 62
7
  6
CONTINUOUS
 10
67.1696000021
 20
138.6043418945
 11
66.6622304655
 21
138.8580262857
  0
LINE
  5
3BC
100
AcDbEntity
  8
0
100
AcDbLine
 62
253
  6
CONTINUOUS
 10
66.4616983744
 20
139.0175624737
 11
66.4188873768
 21
139.0389679725
  0
LINE
  5
3BD
100
AcDbEntity
  8
0
100
AcDbLine
 62
7
  6
CONTINUOUS
 10
66.4828403053
 20
139.0270863873
 11
66.6520303848
 21
138.9424913475
  0
LINE
  5
3BE
100
AcDbEntity
  8
0
100
AcDbLine
 62
253
  6
CONTINUOUS
 10
67.1044016339
 20
138.7396725034
 11
66.6663747503
 21
138.9586859452
  0
LINE
  5
3BF
100
AcDbEntity
  8
0
100
AcDbLine
 62
253
  6
CONTINUOUS
 10
66.6224407674
 20
139.1722305697
 11
66.5240278052
 21
139.2214370508
  0
LINE
  5
3C0
100
AcDbEntity
  8
0
100
AcDbLine
 62
7
  6
CONTINUOUS
 10
73.3851093261
 20
136.4260863454
 11
73.1811788591
 21
136.5280515789
  0
LINE
  5
3C1
100
AcDbEntity
  8
RACCORDO
100
AcDbLine
 62
253
  6
CONTINUOUS
 10
63.8655030141
 20
141.2306600235
 11
49.0329947658
 21
148.6469141476
  0
LWPOLYLINE
  5
3C2
100
AcDbEntity
  8
0
100
AcDbPolyline
 62
7
  6
CONTINUOUS
 90
9
 70
0
 10
66.6636691405
 20
138.8572908775
 10
66.6457858249
 20
138.8670042098
 10
66.6216031314
 20
138.8822853056
 10
66.5974443149
 20
138.9001828936
 10
66.573518561
 20
138.9207087957
 10
66.5498354796
 20
138.943666442
 10
66.5265938632
 20
138.9690144017
 10
66.504161971
 20
138.9968254169
 10
66.4828403053
 20
139.0270863873
  0
LWPOLYLINE
  5
3C3
100
AcDbEntity
  8
0
100
AcDbPolyline
 62
253
  6
CONTINUOUS
 90
8
 70
0
 10
67.1693749319
 20
138.6044540525
 10
67.1561783296
 20
138.6124677421
 10
67.1409319478
 20
138.6261369448
 10
67.1280852205
 20
138.6432611214
 10
67.1178579588
 20
138.6635472725
 10
67.1104251538
 20
138.6866482965
 10
67.1059139831
 20
138.7121689285
 10
67.1044016339
 20
138.7396725034
  0
LWPOLYLINE
  5
3C4
100
AcDbEntity
  8
0
100
AcDbPolyline
 62
7
  6
CONTINUOUS
 90
10
 70
0
 10
66.6663747503
 20
132.4634954168
 10
66.6646656432
 20
132.4670893128
 10
66.6629844034
 20
132.4706967179
 10
66.6613315046
 20
132.4743174133
 10
66.6597076012
 20
132.4779512606
 10
66.6581129596
 20
132.4815979452
 10
66.6565474926
 20
132.485256991
 10
66.6550115024
 20
132.4889280957
 10
66.6535056446
 20
132.4926111167
 10
66.6520303848
 20
132.4963058233
  0
LWPOLYLINE
  5
3C5
100
AcDbEntity
  8
0
100
AcDbPolyline
 62
253
  6
CONTINUOUS
 90
19
 70
0
 10
67.1041191462
 20
121.5422251831
 10
67.1075150386
 20
121.5249128826
 10
67.1107174498
 20
121.5076567646
 10
67.1137263797
 20
121.490456829
 10
67.1165416888
 20
121.4733118854
 10
67.1191635166
 20
121.4562231242
 10
67.1215922825
 20
121.4391941168
 10
67.1238283854
 20
121.4222221756
 10
67.1258714262
 20
121.4053099881
 10
67.1277206272
 20
121.3884691887
 10
67.1293757259
 20
121.3717026332
 10
67.1308369846
 20
121.3550074656
 10
67.1321044126
 20
121.3383867523
 10
67.1331782497
 20
121.3218497823
 10
67.1340582562
 20
121.3053872665
 10
67.134743722
 20
121.2889744043
 10
67.1352344105
 20
121.2726029289
 10
67.1355305584
 20
121.2562811071
 10
67.1356321657
 20
121.2400089389
  0
LWPOLYLINE
  5
3C6
100
AcDbEntity
  8
0
100
AcDbPolyline
 62
253
  6
CONTINUOUS
 90
19
 70
0
 10
67.4482580855
 20
121.6011380339
 10
67.4523265613
 20
121.5803688335
 10
67.4561641762
 20
121.5596581233
 10
67.4597706102
 20
121.5390104013
 10
67.463145125
 20
121.5184330906
 10
67.4662880437
 20
121.4979276487
 10
67.4692004255
 20
121.4774896528
 10
67.4718822808
 20
121.4571202957
 10
67.4743327739
 20
121.4368272849
 10
67.4765515119
 20
121.4166160011
 10
67.4785379598
 20
121.3964942372
 10
67.4802923508
 20
121.3764628736
 10
67.4818152359
 20
121.3565169893
 10
67.4831055645
 20
121.3366725443
 10
67.484163944
 20
121.3169222602
 10
67.4849916511
 20
121.2972271093
 10
67.4855872809
 20
121.2775777683
 10
67.4859484359
 20
121.2579938839
 10
67.4860734532
 20
121.2384805992
  0
LWPOLYLINE
  5
3C7
100
AcDbEntity
  8
0
100
AcDbPolyline
 62
253
  6
CONTINUOUS
 90
7
 70
0
 10
58.2874586627
 20
161.3115142779
 10
58.2893647746
 20
161.2977410111
 10
58.2945779146
 20
161.2850708617
 10
58.3030184683
 20
161.2728431817
 10
58.3145452025
 20
161.2612625732
 10
58.3289652439
 20
161.2505228108
 10
58.3460373064
 20
161.2408035998
  0
LWPOLYLINE
  5
3C8
100
AcDbEntity
  8
0
100
AcDbPolyline
 62
7
  6
CONTINUOUS
 90
9
 70
0
 10
66.5606082363
 20
116.5279491374
 10
66.5606637662
 20
116.5272396402
 10
66.5622410116
 20
116.5237361848
 10
66.5660516022
 20
116.5194428127
 10
66.572148325
 20
116.5144989488
 10
66.5805440982
 20
116.508744236
 10
66.5912191671
 20
116.5022173877
 10
66.6041280846
 20
116.4951557649
 10
66.6191866463
 20
116.4877001226
  0
LINE
  5
3C9
100
AcDbEntity
  8
0
100
AcDbLine
 62
7
  6
CONTINUOUS
 10
66.3763878132
 20
132.6630391301
 11
66.374953489
 21
132.6836493613
  0
LWPOLYLINE
  5
3CA
100
AcDbEntity
  8
0
100
AcDbPolyline
 62
253
  6
CONTINUOUS
 90
13
 70
0
 10
64.6046641455
 20
158.2504433934
 10
64.6031484085
 20
158.2735003714
 10
64.5992823571
 20
158.2973933245
 10
64.5931321149
 20
158.3217135962
 10
64.5848028736
 20
158.3460452208
 10
64.5744370936
 20
158.3699720389
 10
64.5622120676
 20
158.3930848143
 10
64.5483368882
 20
158.4149882343
 10
64.5330488716
 20
158.4353076704
 10
64.5166094987
 20
158.453695586
 10
64.4992999429
 20
158.4698374806
 10
64.4814162607
 20
158.4834572689
 10
64.4632643285
 20
158.4943220028
  0
LWPOLYLINE
  5
3CB
100
AcDbEntity
  8
0
100
AcDbPolyline
 62
7
  6
CONTINUOUS
 90
10
 70
0
 10
62.3030960519
 20
160.9961780886
 10
62.3014624518
 20
161.0216849726
 10
62.2965197114
 20
161.0470423999
 10
62.2882725553
 20
161.0717403978
 10
62.2768093351
 20
161.0952925996
 10
62.262329752
 20
161.117193067
 10
62.2451211755
 20
161.1369930887
 10
62.225370129
 20
161.1544469533
 10
62.2034944186
 20
161.1691525594
 10
62.1925559112
 20
161.1750549539
  0
LWPOLYLINE
  5
3CC
100
AcDbEntity
  8
0
100
AcDbPolyline
 62
253
  6
CONTINUOUS
 90
8
 70
0
 10
67.635370392
 20
114.2876806285
 10
67.6365631276
 20
114.2658292583
 10
67.6401228733
 20
114.2455324048
 10
67.6459919937
 20
114.227134491
 10
67.6540750564
 20
114.2109462583
 10
67.6642369469
 20
114.1972467279
 10
67.6763021361
 20
114.1862746138
 10
67.6872246395
 20
114.1795682075
  0
LWPOLYLINE
  5
3CD
100
AcDbEntity
  8
0
100
AcDbPolyline
 62
253
  6
CONTINUOUS
 90
8
 70
0
 10
66.6802344939
 20
119.068728611
 10
66.6817133298
 20
119.041521815
 10
66.6861251519
 20
119.0162488225
 10
66.6933962277
 20
118.9933325491
 10
66.7034049863
 20
118.9731564872
 10
66.7159840333
 20
118.9560583226
 10
66.7309229339
 20
118.9423242628
 10
66.7452076741
 20
118.933510219
  0
LWPOLYLINE
  5
3CE
100
AcDbEntity
  8
0
100
AcDbPolyline
 62
253
  6
CONTINUOUS
 90
13
 70
0
 10
65.1584871152
 20
164.0404489751
 10
65.1575993932
 20
164.0638193498
 10
65.1543071018
 20
164.0879997302
 10
65.1486665729
 20
164.1125763833
 10
65.1407743176
 20
164.1371287958
 10
65.1307653746
 20
164.161236869
 10
65.1188109996
 20
164.1844881072
 10
65.1051157354
 20
164.2064846752
 10
65.0899139116
 20
164.2268502057
 10
65.0734656358
 20
164.2452362387
 10
65.0560523424
 20
164.2613281842
 10
65.0379719778
 20
164.2748507045
 10
65.019533902
 20
164.2855724255
  0
LWPOLYLINE
  5
3CF
100
AcDbEntity
  8
RACCORDO
100
AcDbPolyline
 62
253
  6
CONTINUOUS
 90
10
 70
0
 10
63.8655030141
 20
124.7761773516
 10
63.8904676043
 20
123.6542575172
 10
63.929249809
 20
122.5394495883
 10
63.9818416381
 20
121.4319895173
 10
64.048232678
 20
120.3321115107
 10
64.1284088132
 20
119.2400484382
 10
64.2223522372
 20
118.1560317881
 10
64.3300431593
 20
117.0802910052
 10
64.4514598009
 20
116.0130534372
 10
64.5865771258
 20
114.954544749
  0
LWPOLYLINE
  5
3D0
100
AcDbEntity
  8
RACCORDO
100
AcDbPolyline
 62
253
  6
CONTINUOUS
 90
10
 70
0
 10
64.5631698704
 20
124.7798057844
 10
64.5880159995
 20
123.6637506383
 10
64.6265848865
 20
122.5552239467
 10
64.6788765314
 20
121.4542257094
 10
64.7449081428
 20
120.3605206247
 10
64.8246625121
 20
119.2743439945
 10
64.9180880135
 20
118.1964017237
 10
65.0251674384
 20
117.1269291139
 10
65.1459179954
 20
116.0656908635
 10
65.2803396844
 20
115.0126869725
  0
LWPOLYLINE
  5
3D1
100
AcDbEntity
  8
0
100
AcDbPolyline
 62
7
  6
CONTINUOUS
 90
12
 70
0
 10
63.892877526
 20
157.2055289932
 10
63.8929840931
 20
157.1997082705
 10
63.8941087132
 20
157.1808078754
 10
63.8964766896
 20
157.1616774106
 10
63.9001172535
 20
157.142441853
 10
63.9047866298
 20
157.1232020979
 10
63.9104685781
 20
157.1040236843
 10
63.9171609371
 20
157.0850150402
 10
63.9246498231
 20
157.066325576
 10
63.9328495117
 20
157.0480477419
 10
63.9417992626
 20
157.0302166932
 10
63.9514693012
 20
157.0128847229
  0
LINE
  5
3D2
100
AcDbEntity
  8
0
100
AcDbLine
 62
7
  6
CONTINUOUS
 10
63.8928906574
 20
158.5087982805
 11
63.8928906574
 21
157.2050996577
  0
LINE
  5
3D3
100
AcDbEntity
  8
0
100
AcDbLine
 62
253
  6
CONTINUOUS
 10
63.9514693012
 20
158.4380876024
 11
63.9514693012
 21
157.0128847229
  0
LINE
  5
3D4
100
AcDbEntity
  8
0
100
AcDbLine
 62
7
  6
CONTINUOUS
 10
64.2810248559
 20
155.9809265797
 11
64.2810248559
 21
154.5887136085
  0
LINE
  5
3D5
100
AcDbEntity
  8
0
100
AcDbLine
 62
253
  6
CONTINUOUS
 10
64.3243111152
 20
156.8264638159
 11
64.3243111152
 21
158.2516666954
  0
LINE
  5
3D6
100
AcDbEntity
  8
0
100
AcDbLine
 62
253
  6
CONTINUOUS
 10
64.3396034996
 20
156.0317101984
 11
64.3396034996
 21
154.5171143449
  0
LINE
  5
3D7
100
AcDbEntity
  8
0
100
AcDbLine
 62
253
  6
CONTINUOUS
 10
64.6046641455
 20
156.9985248714
 11
64.6046641455
 21
158.2504433934
  0
LINE
  5
3D8
100
AcDbEntity
  8
0
100
AcDbLine
 62
253
  6
CONTINUOUS
 10
64.6947059527
 20
154.3395631184
 11
64.6947059527
 21
155.8541589719
  0
LINE
  5
3D9
100
AcDbEntity
  8
0
100
AcDbLine
 62
253
  6
CONTINUOUS
 10
64.975058983
 20
154.3413103585
 11
64.975058983
 21
155.6317970152
  0
LINE
  5
3DA
100
AcDbEntity
  8
0
100
AcDbLine
 62
253
  6
CONTINUOUS
 10
65.2888092617
 20
164.0634856737
 11
65.2888092617
 21
162.89041484
  0
LINE
  5
3DB
100
AcDbEntity
  8
0
100
AcDbLine
 62
7
  6
CONTINUOUS
 10
65.4085193159
 20
164.0874330647
 11
65.4085193159
 21
163.0306018939
  0
LINE
  5
3DC
100
AcDbEntity
  8
0
100
AcDbLine
 62
7
  6
CONTINUOUS
 10
65.5424595589
 20
157.5104949525
 11
65.5424595589
 21
158.7229568978
  0
LINE
  5
3DD
100
AcDbEntity
  8
0
100
AcDbLine
 62
7
  6
CONTINUOUS
 10
65.8658438161
 20
157.2331110922
 11
65.8658438161
 21
156.8482902521
  0
LINE
  5
3DE
100
AcDbEntity
  8
0
100
AcDbLine
 62
253
  6
CONTINUOUS
 10
65.9244224599
 20
157.1624004141
 11
65.9244224599
 21
156.777579574
  0
LWPOLYLINE
  5
3DF
100
AcDbEntity
  8
RACCORDO
100
AcDbPolyline
 62
253
  6
CONTINUOUS
 90
10
 70
0
 10
63.8655030141
 20
141.2306600235
 10
63.8396293042
 20
139.3901850171
 10
63.8202242352
 20
137.5527024379
 10
63.8072877606
 20
135.7182448665
 10
63.8008197642
 20
133.8868696471
 10
63.8008197608
 20
132.0585843349
 10
63.8072877515
 20
130.2333471232
 10
63.8202242234
 20
128.4111660533
 10
63.8396292948
 20
126.5920985866
 10
63.8655030141
 20
124.7761773516
  0
LWPOLYLINE
  5
3E0
100
AcDbEntity
  8
RACCORDO
100
AcDbPolyline
 62
253
  6
CONTINUOUS
 90
10
 70
0
 10
64.5631698704
 20
141.2178339736
 10
64.5373216478
 20
139.3791475484
 10
64.5179354791
 20
137.5435146338
 10
64.5050113644
 20
135.7109352299
 10
64.4985493015
 20
133.881401068
 10
64.4985492925
 20
132.0549204167
 10
64.5050113443
 20
130.2315180821
 10
64.5179354589
 20
128.4112023329
 10
64.5373216343
 20
126.5939649003
 10
64.5631698704
 20
124.7798057844
  0
LWPOLYLINE
  5
3E1
100
AcDbEntity
  8
0
100
AcDbPolyline
 62
253
  6
CONTINUOUS
 90
13
 70
0
 10
65.9244224599
 20
157.1624004141
 10
65.9255550508
 20
157.1848434895
 10
65.9289653978
 20
157.2082201082
 10
65.9346438081
 20
157.2321627459
 10
65.9425610247
 20
157.2563344714
 10
65.9526168872
 20
157.2802737995
 10
65.9645961658
 20
157.3034143937
 10
65.9782661029
 20
157.325319354
 10
65.9934186639
 20
157.3456664427
 10
66.0097915909
 20
157.3641045447
 10
66.0271049504
 20
157.3803218215
 10
66.045067544
 20
157.394048727
 10
66.0633756731
 20
157.4050557215
  0
LWPOLYLINE
  5
3E2
100
AcDbEntity
  8
0
100
AcDbPolyline
 62
7
  6
CONTINUOUS
 90
10
 70
0
 10
65.8658438161
 20
157.2331110922
 10
65.8674627223
 20
157.2585035149
 10
65.8723593764
 20
157.2837437343
 10
65.8805283055
 20
157.3083318441
 10
65.8918889231
 20
157.3318009389
 10
65.906244225
 20
157.3536431108
 10
65.9232948924
 20
157.3733958182
 10
65.9428592231
 20
157.3908284778
 10
65.9645348984
 20
157.4055538436
 10
65.9708755296
 20
157.4091253658
  0
LWPOLYLINE
  5
3E3
100
AcDbEntity
  8
RACCORDO
100
AcDbPolyline
 62
253
  6
CONTINUOUS
 90
10
 70
0
 10
64.5865771258
 20
151.7367656655
 10
64.4514598
 20
150.5499999599
 10
64.3300431578
 20
149.3675083228
 10
64.2223522356
 20
148.1895414552
 10
64.128408812
 20
147.016349344
 10
64.0482326775
 20
145.8481803641
 10
63.9818416382
 20
144.6852812288
 10
63.9292498093
 20
143.5278980628
 10
63.8904676046
 20
142.376276347
 10
63.8655030141
 20
141.2306600235
  0
LWPOLYLINE
  5
3E4
100
AcDbEntity
  8
RACCORDO
100
AcDbPolyline
 62
253
  6
CONTINUOUS
 90
10
 70
0
 10
65.2803396844
 20
151.6655215273
 10
65.1459190958
 20
150.4849680692
 10
65.0251692906
 20
149.3091506809
 10
64.9180902688
 20
148.1380693625
 10
64.8246647235
 20
146.9714724453
 10
64.7449099617
 20
145.8096115979
 10
64.6788779034
 20
144.6532418265
 10
64.6265858555
 20
143.5026147996
 10
64.5880165112
 20
142.3574788487
 10
64.5631698704
 20
141.2178339736
  0
LWPOLYLINE
  5
3E5
100
AcDbEntity
  8
0
100
AcDbPolyline
 62
253
  6
CONTINUOUS
 90
7
 70
0
 10
70.821567829
 20
161.3004112193
 10
70.8291371464
 20
161.3251844419
 10
70.8341434021
 20
161.3507138672
 10
70.8365018681
 20
161.376567424
 10
70.8361726291
 20
161.4023075554
 10
70.8331612573
 20
161.4274986239
 10
70.8275187181
 20
161.4517142853
  0
LWPOLYLINE
  5
3E6
100
AcDbEntity
  8
0
100
AcDbPolyline
 62
7
  6
CONTINUOUS
 90
8
 70
0
 10
68.8948631584
 20
153.6730378755
 10
68.895807745
 20
153.6756855693
 10
68.8984200081
 20
153.6794442589
 10
68.9025798894
 20
153.6839354278
 10
68.9081737094
 20
153.6891765843
 10
68.9150579285
 20
153.6952600234
 10
68.923141077
 20
153.7018649246
 10
68.932320902
 20
153.7089089641
  0
LWPOLYLINE
  5
3E7
100
AcDbEntity
  8
SUPERFICI
100
AcDbPolyline
 62
7
  6
CONTINUOUS
 90
21
 70
0
 10
58.9318039711
 20
134.9736101364
 10
58.9456173543
 20
135.0057783142
 10
58.9580820263
 20
135.0391517602
 10
58.9691981055
 20
135.0737305336
 10
58.9789801892
 20
135.1095775922
 10
58.9874139327
 20
135.146630104
 10
58.9944559945
 20
135.1846994191
 10
59.0000990048
 20
135.2237894185
 10
59.0043504835
 20
135.2638962957
 10
59.0071893256
 20
135.3048198203
 10
59.0086088012
 20
135.346562171
 10
59.0086156912
 20
135.3891211939
 10
59.0072090566
 20
135.4322901104
 10
59.0043825471
 20
135.4760718167
 10
59.0001424648
 20
135.5204633916
 10
58.9945067504
 20
135.5652492816
 10
58.9874669128
 20
135.6104381963
 10
58.9790312988
 20
135.6560213532
 10
58.9692430065
 20
135.7017569098
 10
58.9581162985
 20
135.7475642002
 10
58.9456366595
 20
135.7935237635
  0
LWPOLYLINE
  5
3E8
100
AcDbEntity
  8
0
100
AcDbPolyline
 62
7
  6
CONTINUOUS
 90
9
 70
0
 10
66.5930648906
 20
149.9379458456
 10
66.5818046064
 20
149.9256416151
 10
66.5723416039
 20
149.9141663518
 10
66.5645922962
 20
149.903596143
 10
66.5583987667
 20
149.8940467619
 10
66.5537334838
 20
149.8854968155
 10
66.5507216351
 20
149.8778093719
 10
66.5492981847
 20
149.8710013705
 10
66.549140079
 20
149.8683638365
  0
LINE
  5
3E9
100
AcDbEntity
  8
0
100
AcDbLine
 62
7
  6
CONTINUOUS
 10
70.38614101
 20
149.7048376745
 11
69.9972322804
 21
149.4817771549
  0
LINE
  5
3EA
100
AcDbEntity
  8
0
100
AcDbLine
 62
7
  6
CONTINUOUS
 10
68.1007444538
 20
148.5487879447
 11
70.38614101
 21
149.7964531003
  0
LINE
  5
3EB
100
AcDbEntity
  8
0
100
AcDbLine
 62
7
  6
CONTINUOUS
 10
70.9703426777
 20
148.9952219563
 11
69.2976108034
 21
148.0969138244
  0
LWPOLYLINE
  5
3EC
100
AcDbEntity
  8
RACCORDO
100
AcDbPolyline
 62
253
  6
CONTINUOUS
 90
30
 70
0
 10
86.2747635899
 20
159.1130256157
 10
86.2934247285
 20
159.1229549587
 10
86.3115378236
 20
159.1331348567
 10
86.3290894242
 20
159.1435577501
 10
86.3460664965
 20
159.1542158986
 10
86.3624564331
 20
159.1651013877
 10
86.3782470628
 20
159.1762061335
 10
86.3934266595
 20
159.1875218897
 10
86.4079839506
 20
159.1990402531
 10
86.4219081258
 20
159.2107526701
 10
86.435188845
 20
159.222650443
 10
86.4478162458
 20
159.2347247365
 10
86.4597809511
 20
159.2469665841
 10
86.4710740758
 20
159.259366895
 10
86.4816872335
 20
159.2719164606
 10
86.4916125428
 20
159.2846059616
 10
86.5008426333
 20
159.2974259746
 10
86.5093706505
 20
159.3103669795
 10
86.5171902615
 20
159.3234193661
 10
86.5242956595
 20
159.3365734417
 10
86.5306815679
 20
159.3498194381
 10
86.5363432444
 20
159.3631475186
 10
86.5412764848
 20
159.3765477857
 10
86.5454776256
 20
159.3900102885
 10
86.5489435469
 20
159.4035250294
 10
86.551671675
 20
159.4170819724
 10
86.5536599839
 20
159.4306710501
 10
86.5549069971
 20
159.4442821711
 10
86.5554117886
 20
159.4579052277
 10
86.5554237895
 20
159.4603531124
  0
LINE
  5
3ED
100
AcDbEntity
  8
0
100
AcDbLine
 62
7
  6
CONTINUOUS
 10
70.1032982975
 20
149.5285943764
 11
70.38614101
 21
149.6786056384
  0
LINE
  5
3EE
100
AcDbEntity
  8
RACCORDO
100
AcDbLine
 62
253
  6
CONTINUOUS
 10
86.2747635899
 20
159.1130256157
 11
78.4118029765
 21
155.1127224868
  0
LINE
  5
3EF
100
AcDbEntity
  8
RACCORDO
100
AcDbLine
 62
7
  6
CONTINUOUS
 10
86.5554237895
 20
157.3407946932
 11
87.7335590814
 21
157.9402342846
  0
LINE
  5
3F0
100
AcDbEntity
  8
DRAFT
100
AcDbLine
 62
7
  6
CONTINUOUS
 10
86.5554237895
 20
156.9092753291
 11
87.8145794959
 21
157.5408874865
  0
LINE
  5
3F1
100
AcDbEntity
  8
0
100
AcDbLine
 62
253
  6
CONTINUOUS
 10
66.3212968325
 20
149.3700809302
 11
66.5491309078
 21
149.4824826916
  0
LINE
  5
3F2
100
AcDbEntity
  8
0
100
AcDbLine
 62
253
  6
CONTINUOUS
 10
67.4860734535
 20
149.7113850922
 11
68.1007444538
 21
150.0064353728
  0
LINE
  5
3F3
100
AcDbEntity
  8
0
100
AcDbLine
 62
253
  6
CONTINUOUS
 10
67.4482580861
 20
149.3865430248
 11
68.0628536357
 21
149.6812937131
  0
LINE
  5
3F4
100
AcDbEntity
  8
RACCORDO
100
AcDbLine
 62
7
  6
CONTINUOUS
 10
86.9082151865
 20
158.2015857803
 11
86.5554237895
 21
158.0331979291
  0
LWPOLYLINE
  5
3F5
100
AcDbEntity
  8
0
100
AcDbPolyline
 62
253
  6
CONTINUOUS
 90
13
 70
0
 10
67.4860734535
 20
149.7113858796
 10
67.4614066909
 20
149.7009294952
 10
67.4342467938
 20
149.6921526353
 10
67.4050482205
 20
149.6852021606
 10
67.3742995415
 20
149.680194371
 10
67.342515265
 20
149.6772130605
 10
67.3102272274
 20
149.6763081142
 10
67.2779756943
 20
149.6774946746
 10
67.2463003207
 20
149.6807528871
 10
67.2157311208
 20
149.6860282331
 10
67.1867795994
 20
149.693232442
 10
67.1599301934
 20
149.7022449679
 10
67.1356321656
 20
149.712915007
  0
LINE
  5
3F6
100
AcDbEntity
  8
0
100
AcDbLine
 62
7
  6
CONTINUOUS
 10
66.5491309078
 20
147.9693897668
 11
66.3212968325
 21
147.8737542763
  0
LWPOLYLINE
  5
3F7
100
AcDbEntity
  8
0
100
AcDbPolyline
 62
253
  6
CONTINUOUS
 90
13
 70
0
 10
67.4482578301
 20
149.3865420103
 10
67.4236581523
 20
149.3766606247
 10
67.3966696837
 20
149.3693550256
 10
67.3677440043
 20
149.3647474603
 10
67.3373651165
 20
149.3629150316
 10
67.3060413285
 20
149.3638884059
 10
67.2742967471
 20
149.3676513058
 10
67.2426625397
 20
149.3741407804
 10
67.2116680354
 20
149.3832482541
 10
67.1818318494
 20
149.3948213497
 10
67.1536532282
 20
149.4086664316
 10
67.1276036948
 20
149.4245518422
 10
67.1041191461
 20
149.4422117825
  0
LINE
  5
3F8
100
AcDbEntity
  8
0
100
AcDbLine
 62
7
  6
CONTINUOUS
 10
67.8158714082
 20
139.4879537971
 11
68.3708866836
 21
139.2104461594
  0
LINE
  5
3F9
100
AcDbEntity
  8
0
100
AcDbLine
 62
7
  6
CONTINUOUS
 10
73.4686793688
 20
136.7456084227
 11
73.518611714
 21
136.7206422501
  0
LINE
  5
3FA
100
AcDbEntity
  8
0
100
AcDbLine
 62
7
  6
CONTINUOUS
 10
73.6388322035
 20
136.7448985305
 11
73.6079780665
 21
136.760325599
  0
LINE
  5
3FB
100
AcDbEntity
  8
0
100
AcDbLine
 62
7
  6
CONTINUOUS
 10
68.9534418008
 20
139.2651637265
 11
68.8305060914
 21
139.3266315812
  0
LINE
  5
3FC
100
AcDbEntity
  8
0
100
AcDbLine
 62
7
  6
CONTINUOUS
 10
68.3708866836
 20
140.0160054445
 11
67.8158714082
 21
140.2935130823
  0
LINE
  5
3FD
100
AcDbEntity
  8
0
100
AcDbLine
 62
7
  6
CONTINUOUS
 10
68.9534418008
 20
140.0858395414
 11
68.8305060914
 21
140.1473073961
  0
LINE
  5
3FE
100
AcDbEntity
  8
0
100
AcDbLine
 62
7
  6
CONTINUOUS
 10
66.6175801442
 20
142.5483430251
 11
66.3212968325
 21
142.696484681
  0
LINE
  5
3FF
100
AcDbEntity
  8
0
100
AcDbLine
 62
253
  6
CONTINUOUS
 10
66.6663747503
 20
142.626677524
 11
66.3212968325
 21
142.7992164829
  0
LINE
  5
400
100
AcDbEntity
  8
0
100
AcDbLine
 62
7
  6
CONTINUOUS
 10
73.3851093261
 20
136.4260863454
 11
73.1162501761
 21
136.582561649
  0
LINE
  5
401
100
AcDbEntity
  8
0
100
AcDbLine
 62
7
  6
CONTINUOUS
 10
66.5691428473
 20
142.547177121
 11
66.4515975896
 21
142.6313343024
  0
LWPOLYLINE
  5
402
100
AcDbEntity
  8
0
100
AcDbPolyline
 62
7
  6
CONTINUOUS
 90
3
 70
0
 10
66.5691428473
 20
142.547177121
 10
66.5927367761
 20
142.5279814141
 10
66.6155032504
 20
142.5058291859
  0
LINE
  5
403
100
AcDbEntity
  8
0
100
AcDbLine
 62
7
  6
CONTINUOUS
 10
72.8301225257
 20
136.8227765668
 11
73.8239517483
 21
135.988419577
  0
LWPOLYLINE
  5
404
100
AcDbEntity
  8
0
100
AcDbPolyline
 62
7
  6
CONTINUOUS
 90
9
 70
0
 10
54.3155286537
 20
161.8308550466
 10
54.3014947267
 20
161.8570618421
 10
54.2893043069
 20
161.8831191077
 10
54.2790269587
 20
161.9089144101
 10
54.270740548
 20
161.9343665361
 10
54.2644096235
 20
161.9593320754
 10
54.2599776844
 20
161.9836218944
 10
54.2574947621
 20
162.0072391244
 10
54.2569500206
 20
162.0239762797
  0
LWPOLYLINE
  5
405
100
AcDbEntity
  8
0
100
AcDbPolyline
 62
253
  6
CONTINUOUS
 90
6
 70
0
 10
70.1384719838
 20
115.9113417751
 10
70.1439233014
 20
115.8870916384
 10
70.1467127965
 20
115.8618706295
 10
70.1467957632
 20
115.8361617248
 10
70.1441905487
 20
115.8104201471
 10
70.1389588178
 20
115.7850606428
  0
LWPOLYLINE
  5
406
100
AcDbEntity
  8
0
100
AcDbPolyline
 62
7
  6
CONTINUOUS
 90
10
 70
0
 10
68.0628536351
 20
121.9000436858
 10
68.0707609722
 20
121.8586962476
 10
68.0777501367
 20
121.8175427078
 10
68.0838211287
 20
121.7765830663
 10
68.0889821334
 20
121.7357390226
 10
68.0932249655
 20
121.6950888773
 10
68.0965250692
 20
121.6548675325
 10
68.0988742592
 20
121.6151532889
 10
68.1002807207
 20
121.5758678459
 10
68.1007444538
 20
121.5370112035
  0
LWPOLYLINE
  5
407
100
AcDbEntity
  8
0
100
AcDbPolyline
 62
253
  6
CONTINUOUS
 90
7
 70
0
 10
62.8359548065
 20
159.7594895168
 10
62.8378609185
 20
159.74571625
 10
62.8430740585
 20
159.7330461006
 10
62.8515146122
 20
159.7208184206
 10
62.8630413464
 20
159.7092378121
 10
62.8774613878
 20
159.6984980497
 10
62.8945334503
 20
159.6887788387
  0
LWPOLYLINE
  5
408
100
AcDbEntity
  8
0
100
AcDbPolyline
 62
253
  6
CONTINUOUS
 90
7
 70
0
 10
66.374953394
 20
139.092000981
 10
66.3763088388
 20
139.0819412073
 10
66.380178064
 20
139.0723789028
 10
66.3864970267
 20
139.0631486226
 10
66.3951588039
 20
139.054406552
 10
66.40601683
 20
139.0463006152
 10
66.4188873768
 20
139.0389679725
  0
LWPOLYLINE
  5
409
100
AcDbEntity
  8
0
100
AcDbPolyline
 62
253
  6
CONTINUOUS
 90
7
 70
0
 10
63.8928906574
 20
158.5087982805
 10
63.8946016852
 20
158.4957456613
 10
63.8997054922
 20
158.482916376
 10
63.9081147509
 20
158.4705299372
 10
63.9196855767
 20
158.4587982805
 10
63.9342199894
 20
158.4479221376
 10
63.9514693012
 20
158.4380876024
  0
LWPOLYLINE
  5
40A
100
AcDbEntity
  8
0
100
AcDbPolyline
 62
7
  6
CONTINUOUS
 90
6
 70
0
 10
70.1873366621
 20
115.8299707114
 10
70.1855211014
 20
115.8568539048
 10
70.1800443215
 20
115.8834834753
 10
70.1709427776
 20
115.9092726305
 10
70.1583597003
 20
115.9336582653
 10
70.1425547338
 20
115.9560950374
  0
LWPOLYLINE
  5
40B
100
AcDbEntity
  8
0
100
AcDbPolyline
 62
253
  6
CONTINUOUS
 90
13
 70
0
 10
67.9157234223
 20
156.3057031461
 10
67.9141963522
 20
156.3288588194
 10
67.9102979939
 20
156.3528627395
 10
67.9040936176
 20
156.3773012142
 10
67.8956872487
 20
156.4017554735
 10
67.8852229654
 20
156.4257997264
 10
67.8728849428
 20
156.4490092476
 10
67.8588566012
 20
156.471026709
 10
67.843405322
 20
156.49142162
 10
67.8269111303
 20
156.5097273737
 10
67.8097151433
 20
156.5256399023
 10
67.7920857233
 20
156.5389811979
 10
67.7743236053
 20
156.5495817554
  0
LWPOLYLINE
  5
40C
100
AcDbEntity
  8
RACCORDO
100
AcDbPolyline
 62
253
  6
CONTINUOUS
 90
16
 70
0
 10
65.6295818695
 20
152.1994018951
 10
65.6267065732
 20
152.2451497312
 10
65.6200953168
 20
152.2923820051
 10
65.6098204234
 20
152.3405817184
 10
65.59599432
 20
152.3892212765
 10
65.5787683107
 20
152.4377682509
 10
65.5583309248
 20
152.4856912076
 10
65.5349058428
 20
152.5324655519
 10
65.5087494601
 20
152.5775792406
 10
65.4801480923
 20
152.6205383796
 10
65.4494148074
 20
152.6608726861
 10
65.416886022
 20
152.6981405954
 10
65.3829178431
 20
152.7319340776
 10
65.3478821219
 20
152.7618831637
 10
65.3121623784
 20
152.7876599855
 10
65.2761496353
 20
152.8089823339
  0
LWPOLYLINE
  5
40D
100
AcDbEntity
  8
0
100
AcDbPolyline
 62
253
  6
CONTINUOUS
 90
8
 70
0
 10
66.3835428076
 20
151.7769537063
 10
66.384440213
 20
151.7605398896
 10
66.3871172285
 20
151.7453012861
 10
66.3915285334
 20
151.73149574
 10
66.3975994599
 20
151.7193568436
 10
66.4052272619
 20
151.7090899763
 10
66.4142828577
 20
151.7008688355
 10
66.4225268151
 20
151.6958226215
  0
LWPOLYLINE
  5
40E
100
AcDbEntity
  8
0
100
AcDbPolyline
 62
253
  6
CONTINUOUS
 90
8
 70
0
 10
68.8066045
 20
116.2522694074
 10
68.8077350962
 20
116.2309771173
 10
68.811108836
 20
116.2111557522
 10
68.816671816
 20
116.1931222705
 10
68.8243351249
 20
116.1771650546
 10
68.8339762669
 20
116.1635392917
 10
68.8454411219
 20
116.1524628951
 10
68.8585830559
 20
116.1440946879
  0
LWPOLYLINE
  5
40F
100
AcDbEntity
  8
0
100
AcDbPolyline
 62
7
  6
CONTINUOUS
 90
13
 70
0
 10
65.5424595589
 20
158.7229568978
 10
65.541255942
 20
158.7461695337
 10
65.537646712
 20
158.7701907383
 10
65.5316978025
 20
158.7946119518
 10
65.5235156703
 20
158.8190182191
 10
65.5132411357
 20
158.8429923614
 10
65.5010471235
 20
158.8661221484
 10
65.4871397033
 20
158.8880106731
 10
65.4717592774
 20
158.9082847923
 10
65.4551723798
 20
158.9265987823
 10
65.4376619592
 20
158.9426389278
 10
65.4195224552
 20
158.9561287407
 10
65.4010597418
 20
158.9668355071
  0
LWPOLYLINE
  5
410
100
AcDbEntity
  8
0
100
AcDbPolyline
 62
253
  6
CONTINUOUS
 90
9
 70
0
 10
67.635370392
 20
155.9221056079
 10
67.6362981795
 20
155.9027620359
 10
67.6390880144
 20
155.8845116304
 10
67.643730685
 20
155.8676160846
 10
67.6502032161
 20
155.8523014574
 10
67.6584378741
 20
155.8388314342
 10
67.6682947705
 20
155.8274705032
 10
67.6796195377
 20
155.8183876512
 10
67.6873432258
 20
155.8139337498
  0
LWPOLYLINE
  5
411
100
AcDbEntity
  8
0
100
AcDbPolyline
 62
7
  6
CONTINUOUS
 90
10
 70
0
 10
65.4085309979
 20
164.0877819946
 10
65.4075129385
 20
164.1100969102
 10
65.4028551166
 20
164.1399776222
 10
65.3946651245
 20
164.1683676351
 10
65.383046724
 20
164.19534682
 10
65.367855528
 20
164.2210648499
 10
65.3491315091
 20
164.2450845942
 10
65.32709483
 20
164.2668611096
 10
65.3016160134
 20
164.2862418264
 10
65.2724836695
 20
164.3029635559
  0
LINE
  5
412
100
AcDbEntity
  8
0
100
AcDbLine
 62
253
  6
CONTINUOUS
 10
66.664650008
 20
151.3269670822
 11
66.6663747503
 21
151.2891407637
  0
LWPOLYLINE
  5
413
100
AcDbEntity
  8
0
100
AcDbPolyline
 62
7
  6
CONTINUOUS
 90
10
 70
0
 10
68.8948697326
 20
117.159114479
 10
68.8957246077
 20
117.1370097458
 10
68.8984356749
 20
117.1151865269
 10
68.9025798894
 20
117.0932156621
 10
68.9081217808
 20
117.071213422
 10
68.9150780132
 20
117.0493461274
 10
68.923141077
 20
117.0277799223
 10
68.932197204
 20
117.0066386498
 10
68.9423101231
 20
116.986003323
 10
68.9534418008
 20
116.9659581823
  0
LWPOLYLINE
  5
414
100
AcDbEntity
  8
0
100
AcDbPolyline
 62
7
  6
CONTINUOUS
 90
10
 70
0
 10
68.8948697326
 20
123.2212923055
 10
68.8957246077
 20
123.1991875723
 10
68.8984356749
 20
123.1773643534
 10
68.9025798894
 20
123.1553934886
 10
68.9081217808
 20
123.1333912485
 10
68.9150780132
 20
123.1115239539
 10
68.923141077
 20
123.0899577488
 10
68.932197204
 20
123.0688164763
 10
68.9423101231
 20
123.0481811495
 10
68.9534418008
 20
123.0281360088
  0
LWPOLYLINE
  5
415
100
AcDbEntity
  8
0
100
AcDbPolyline
 62
253
  6
CONTINUOUS
 90
22
 70
0
 10
67.5609250959
 20
151.423519095
 10
67.5587276435
 20
151.4891148823
 10
67.5525998491
 20
151.556324121
 10
67.5425795966
 20
151.6247727474
 10
67.5287286036
 20
151.6940806426
 10
67.5111248256
 20
151.7638606896
 10
67.4898619116
 20
151.8337209399
 10
67.4650596016
 20
151.9032715202
 10
67.4368594426
 20
151.972124836
 10
67.4054166886
 20
152.0398946756
 10
67.3709069716
 20
152.1062016461
 10
67.3335247386
 20
152.1706763751
 10
67.2934783312
 20
152.2329595104
 10
67.2509895778
 20
152.2927023987
 10
67.2062966136
 20
152.3495707881
 10
67.1596519207
 20
152.4032477532
 10
67.1113136326
 20
152.4534316208
 10
67.0615508838
 20
152.4998415459
 10
67.0106462227
 20
152.5422206754
 10
66.958883684
 20
152.5803318365
 10
66.906547241
 20
152.6139589571
 10
66.8539260105
 20
152.6429121416
  0
LWPOLYLINE
  5
416
100
AcDbEntity
  8
0
100
AcDbPolyline
 62
253
  6
CONTINUOUS
 90
22
 70
0
 10
67.210483808
 20
151.4250482224
 10
67.20897818
 20
151.4745003795
 10
67.2045826706
 20
151.5246821062
 10
67.1972972798
 20
151.5755934025
 10
67.1870504288
 20
151.6275535385
 10
67.1739136963
 20
151.6802432441
 10
67.1581018188
 20
151.732704709
 10
67.1395674266
 20
151.784912064
 10
67.1183578894
 20
151.8368911784
 10
67.0948300525
 20
151.8877618495
 10
67.0689441227
 20
151.9375026513
 10
67.0407398932
 20
151.9861350097
 10
67.0106935894
 20
152.0328430005
 10
66.9787760271
 20
152.0775903686
 10
66.9450163905
 20
152.120413369
 10
66.9099784578
 20
152.1606048432
 10
66.8736205143
 20
152.1981321942
 10
66.8359842747
 20
152.233028019
 10
66.7977586607
 20
152.2646829494
 10
66.7591733129
 20
152.292893863
 10
66.7199985906
 20
152.3178638823
 10
66.6802344939
 20
152.3395930074
  0
LWPOLYLINE
  5
417
100
AcDbEntity
  8
0
100
AcDbPolyline
 62
7
  6
CONTINUOUS
 90
9
 70
0
 10
66.6224414105
 20
139.0596678997
 10
66.622662016
 20
139.0509043094
 10
66.6239739345
 20
139.0353788907
 10
66.6263930497
 20
139.0196914054
 10
66.6298211312
 20
139.0038813382
 10
66.6341828674
 20
138.9882063162
 10
66.6394008009
 20
138.9727713559
 10
66.6453796738
 20
138.9575266767
 10
66.6520303848
 20
138.9424913475
  0
LWPOLYLINE
  5
418
100
AcDbEntity
  8
0
100
AcDbPolyline
 62
7
  6
CONTINUOUS
 90
9
 70
0
 10
66.6224488406
 20
129.8372296998
 10
66.6226225483
 20
129.8275418813
 10
66.6240724289
 20
129.8055356694
 10
66.6271000059
 20
129.7827847469
 10
66.6317699596
 20
129.7593816723
 10
66.6379598902
 20
129.7354183338
 10
66.6456983329
 20
129.711018204
 10
66.6551420749
 20
129.6863356126
 10
66.6663747503
 20
129.6615292418
  0
LWPOLYLINE
  5
419
100
AcDbEntity
  8
0
100
AcDbPolyline
 62
7
  6
CONTINUOUS
 90
9
 70
0
 10
66.6224488483
 20
150.4486343188
 10
66.6226225559
 20
150.4389464405
 10
66.6240724448
 20
150.4169401212
 10
66.6271000399
 20
150.3941891425
 10
66.6317700148
 20
150.3707860395
 10
66.6379599585
 20
150.3468227088
 10
66.6456983986
 20
150.3224226248
 10
66.6551421197
 20
150.2977401128
 10
66.6663747503
 20
150.2729338519
  0
LWPOLYLINE
  5
41A
100
AcDbEntity
  8
0
100
AcDbPolyline
 62
7
  6
CONTINUOUS
 90
9
 70
0
 10
66.5491401129
 20
121.7332449727
 10
66.5492970115
 20
121.7240623982
 10
66.550717364
 20
121.7020034717
 10
66.553725137
 20
121.6791933468
 10
66.5583857358
 20
121.6557247717
 10
66.56457637
 20
121.631688349
 10
66.5723264534
 20
121.6072079894
 10
66.5817943709
 20
121.5824402126
 10
66.5930648906
 20
121.557545376
  0
LWPOLYLINE
  5
41B
100
AcDbEntity
  8
0
100
AcDbPolyline
 62
7
  6
CONTINUOUS
 90
9
 70
0
 10
66.5491402363
 20
143.4145654082
 10
66.549297037
 20
143.4053844079
 10
66.5507175023
 20
143.3833220585
 10
66.5537260533
 20
143.3605079626
 10
66.5583879431
 20
143.3370353578
 10
66.5645795713
 20
143.3129972811
 10
66.5723297282
 20
143.2885184129
 10
66.581796699
 20
143.2637543779
 10
66.5930648906
 20
143.2388653536
  0
LINE
  5
41C
100
AcDbEntity
  8
0
100
AcDbLine
 62
253
  6
CONTINUOUS
 10
66.374953489
 20
132.6836493613
 11
66.374953394
 21
132.6837337763
  0
LINE
  5
41D
100
AcDbEntity
  8
0
100
AcDbLine
 62
7
  6
CONTINUOUS
 10
66.3212968325
 20
152.5492263452
 11
66.3212968325
 21
115.1168136036
  0
LINE
  5
41E
100
AcDbEntity
  8
0
100
AcDbLine
 62
7
  6
CONTINUOUS
 10
66.374953394
 20
139.092000981
 11
66.374953394
 21
132.6837337715
  0
LINE
  5
41F
100
AcDbEntity
  8
0
100
AcDbLine
 62
253
  6
CONTINUOUS
 10
66.4188873768
 20
139.0389679725
 11
66.4188873768
 21
132.630700763
  0
LINE
  5
420
100
AcDbEntity
  8
0
100
AcDbLine
 62
253
  6
CONTINUOUS
 10
66.4616983744
 20
132.6092952642
 11
66.4616983744
 21
139.0175624737
  0
LINE
  5
421
100
AcDbEntity
  8
0
100
AcDbLine
 62
7
  6
CONTINUOUS
 10
66.5491309078
 20
149.8693387533
 11
66.5491309078
 21
147.7548245538
  0
LINE
  5
422
100
AcDbEntity
  8
0
100
AcDbLine
 62
7
  6
CONTINUOUS
 10
66.5491309078
 20
145.4973677797
 11
66.5491309078
 21
143.4135387836
  0
LINE
  5
423
100
AcDbEntity
  8
0
100
AcDbLine
 62
7
  6
CONTINUOUS
 10
66.5491309078
 20
129.0540444117
 11
66.5491309078
 21
126.1041894592
  0
LINE
  5
424
100
AcDbEntity
  8
0
100
AcDbLine
 62
7
  6
CONTINUOUS
 10
66.5491309078
 20
123.8467326851
 11
66.5491309078
 21
121.7322190788
  0
LINE
  5
425
100
AcDbEntity
  8
0
100
AcDbLine
 62
7
  6
CONTINUOUS
 10
66.5606080025
 20
116.5270959319
 11
66.5606080025
 21
117.2955537168
  0
LINE
  5
426
100
AcDbEntity
  8
0
100
AcDbLine
 62
7
  6
CONTINUOUS
 10
66.5606080025
 20
155.870872024
 11
66.5606080025
 21
156.3773013612
  0
LINE
  5
427
100
AcDbEntity
  8
0
100
AcDbLine
 62
253
  6
CONTINUOUS
 10
66.5930648906
 20
149.9379458456
 11
66.5930648906
 21
147.7024561548
  0
LINE
  5
428
100
AcDbEntity
  8
0
100
AcDbLine
 62
253
  6
CONTINUOUS
 10
66.5930648906
 20
145.4436701615
 11
66.5930648906
 21
143.2388653536
  0
LINE
  5
429
100
AcDbEntity
  8
0
100
AcDbLine
 62
253
  6
CONTINUOUS
 10
66.5930648906
 20
129.1226512719
 11
66.5930648906
 21
126.0518210602
  0
LINE
  5
42A
100
AcDbEntity
  8
0
100
AcDbLine
 62
253
  6
CONTINUOUS
 10
66.5930648906
 20
123.7930350669
 11
66.5930648906
 21
121.557545376
  0
LINE
  5
42B
100
AcDbEntity
  8
0
100
AcDbLine
 62
253
  6
CONTINUOUS
 10
66.6191866463
 20
116.4877001226
 11
66.6191866463
 21
117.3459783342
  0
LINE
  5
42C
100
AcDbEntity
  8
0
100
AcDbLine
 62
253
  6
CONTINUOUS
 10
66.6191866463
 20
155.6790260503
 11
66.6191866463
 21
156.3480120393
  0
LINE
  5
42D
100
AcDbEntity
  8
0
100
AcDbLine
 62
7
  6
CONTINUOUS
 10
66.6224407674
 20
151.3421737723
 11
66.6224407674
 21
150.4476136589
  0
LINE
  5
42E
100
AcDbEntity
  8
0
100
AcDbLine
 62
7
  6
CONTINUOUS
 10
66.6224407674
 20
121.0806342705
 11
66.6224407674
 21
120.1860736059
  0
LINE
  5
42F
100
AcDbEntity
  8
0
100
AcDbLine
 62
7
  6
CONTINUOUS
 10
66.6224407674
 20
129.8362090582
 11
66.6224407674
 21
132.4689865327
  0
LINE
  5
430
100
AcDbEntity
  8
0
100
AcDbLine
 62
7
  6
CONTINUOUS
 10
66.6224407674
 20
139.0592608464
 11
66.6224407674
 21
142.5580642716
  0
LINE
  5
431
100
AcDbEntity
  8
0
100
AcDbLine
 62
253
  6
CONTINUOUS
 10
66.6663747503
 20
151.2891407637
 11
66.6663747503
 21
150.2729338519
  0
LINE
  5
432
100
AcDbEntity
  8
0
100
AcDbLine
 62
253
  6
CONTINUOUS
 10
66.6663747503
 20
142.626677524
 11
66.6663747503
 21
138.9586859452
  0
LINE
  5
433
100
AcDbEntity
  8
0
100
AcDbLine
 62
253
  6
CONTINUOUS
 10
66.6663747503
 20
132.4634954168
 11
66.6663747503
 21
129.6615292418
  0
LINE
  5
434
100
AcDbEntity
  8
0
100
AcDbLine
 62
253
  6
CONTINUOUS
 10
66.6663747503
 20
121.1492475101
 11
66.6663747503
 21
120.1330405983
  0
LINE
  5
435
100
AcDbEntity
  8
0
100
AcDbLine
 62
7
  6
CONTINUOUS
 10
66.7445410869
 20
123.9808875316
 11
66.7445410869
 21
123.9997067839
  0
LINE
  5
436
100
AcDbEntity
  8
0
100
AcDbLine
 62
7
  6
CONTINUOUS
 10
66.7445410869
 20
145.6315226262
 11
66.7445410869
 21
145.6503418785
  0
LINE
  5
437
100
AcDbEntity
  8
0
100
AcDbLine
 62
253
  6
CONTINUOUS
 10
66.815251765
 20
132.7823399557
 11
66.815251765
 21
138.7815156359
  0
LINE
  5
438
100
AcDbEntity
  8
0
100
AcDbLine
 62
7
  6
CONTINUOUS
 10
66.8765265531
 20
147.5607253235
 11
66.8765265531
 21
145.3019393302
  0
LINE
  5
439
100
AcDbEntity
  8
0
100
AcDbLine
 62
7
  6
CONTINUOUS
 10
66.8765265531
 20
125.9100902289
 11
66.8765265531
 21
123.6513042356
  0
LINE
  5
43A
100
AcDbEntity
  8
0
100
AcDbLine
 62
253
  6
CONTINUOUS
 10
67.1356321656
 20
151.3281607571
 11
67.1356321656
 21
149.712915007
  0
LINE
  5
43B
100
AcDbEntity
  8
0
100
AcDbLine
 62
253
  6
CONTINUOUS
 10
67.1356321657
 20
121.2400089389
 11
67.1356321656
 21
119.6247631896
  0
LINE
  5
43C
100
AcDbEntity
  8
0
100
AcDbLine
 62
253
  6
CONTINUOUS
 10
67.210483808
 20
145.9260671795
 11
67.210483808
 21
138.8165352269
  0
LINE
  5
43D
100
AcDbEntity
  8
0
100
AcDbLine
 62
253
  6
CONTINUOUS
 10
67.210483808
 20
132.0615370774
 11
67.210483808
 21
124.9520051247
  0
LINE
  5
43E
100
AcDbEntity
  8
0
100
AcDbLine
 62
253
  6
CONTINUOUS
 10
67.210483808
 20
119.4530240819
 11
67.210483808
 21
119.5873373684
  0
LINE
  5
43F
100
AcDbEntity
  8
0
100
AcDbLine
 62
253
  6
CONTINUOUS
 10
67.210483808
 20
151.2907349359
 11
67.210483808
 21
151.4250482224
  0
LINE
  5
440
100
AcDbEntity
  8
0
100
AcDbLine
 62
7
  6
CONTINUOUS
 10
67.416292529
 20
138.5827000073
 11
67.416292529
 21
133.0828603377
  0
LINE
  5
441
100
AcDbEntity
  8
0
100
AcDbLine
 62
253
  6
CONTINUOUS
 10
67.4860734535
 20
151.2573341154
 11
67.4860734535
 21
149.7113850922
  0
LINE
  5
442
100
AcDbEntity
  8
0
100
AcDbLine
 62
253
  6
CONTINUOUS
 10
67.4860734535
 20
121.2384805995
 11
67.4860734535
 21
119.6343826534
  0
LINE
  5
443
100
AcDbEntity
  8
0
100
AcDbLine
 62
253
  6
CONTINUOUS
 10
67.5609250959
 20
145.9245379784
 11
67.5609250959
 21
138.8150060995
  0
LINE
  5
444
100
AcDbEntity
  8
0
100
AcDbLine
 62
253
  6
CONTINUOUS
 10
67.5609250959
 20
132.06000795
 11
67.5609250959
 21
124.9504760713
  0
LINE
  5
445
100
AcDbEntity
  8
0
100
AcDbLine
 62
253
  6
CONTINUOUS
 10
67.5609250959
 20
119.4514949545
 11
67.5609250959
 21
119.5969568323
  0
LINE
  5
446
100
AcDbEntity
  8
0
100
AcDbLine
 62
253
  6
CONTINUOUS
 10
67.5609250959
 20
151.2780572172
 11
67.5609250959
 21
151.423519095
  0
LINE
  5
447
100
AcDbEntity
  8
0
100
AcDbLine
 62
7
  6
CONTINUOUS
 10
67.565085083
 20
119.0195113383
 11
67.565085083
 21
119.0324079598
  0
LINE
  5
448
100
AcDbEntity
  8
0
100
AcDbLine
 62
7
  6
CONTINUOUS
 10
67.565085083
 20
154.0935401916
 11
67.565085083
 21
154.3367839652
  0
LINE
  5
449
100
AcDbEntity
  8
0
100
AcDbLine
 62
253
  6
CONTINUOUS
 10
67.6284245634
 20
138.6814434426
 11
67.6284245634
 21
132.9767943205
  0
LINE
  5
44A
100
AcDbEntity
  8
0
100
AcDbLine
 62
253
  6
CONTINUOUS
 10
67.635370392
 20
156.306926448
 11
67.635370392
 21
155.9221056079
  0
LINE
  5
44B
100
AcDbEntity
  8
0
100
AcDbLine
 62
253
  6
CONTINUOUS
 10
67.635370392
 20
114.6725014686
 11
67.635370392
 21
114.2876806285
  0
LINE
  5
44C
100
AcDbEntity
  8
0
100
AcDbLine
 62
253
  6
CONTINUOUS
 10
67.7115316924
 20
118.8404563616
 11
67.7115316924
 21
119.1000418571
  0
LINE
  5
44D
100
AcDbEntity
  8
0
100
AcDbLine
 62
253
  6
CONTINUOUS
 10
67.7115316924
 20
153.9144852148
 11
67.7115316924
 21
154.2635606605
  0
LINE
  5
44E
100
AcDbEntity
  8
0
100
AcDbLine
 62
7
  6
CONTINUOUS
 10
67.8158714082
 20
140.2935130823
 11
67.8158714082
 21
139.4879537971
  0
LINE
  5
44F
100
AcDbEntity
  8
0
100
AcDbLine
 62
7
  6
CONTINUOUS
 10
67.8158714082
 20
131.6332590444
 11
67.8158714082
 21
130.8276997592
  0
LINE
  5
450
100
AcDbEntity
  8
0
100
AcDbLine
 62
253
  6
CONTINUOUS
 10
67.9157234223
 20
156.3057031461
 11
67.9157234223
 21
155.920882306
  0
LINE
  5
451
100
AcDbEntity
  8
0
100
AcDbLine
 62
253
  6
CONTINUOUS
 10
67.9157234223
 20
114.6712781666
 11
67.9157234223
 21
114.2864573266
  0
LINE
  5
452
100
AcDbEntity
  8
0
100
AcDbLine
 62
253
  6
CONTINUOUS
 10
67.981977954
 20
138.8521547129
 11
67.981977954
 21
132.9767943205
  0
LINE
  5
453
100
AcDbEntity
  8
0
100
AcDbLine
 62
7
  6
CONTINUOUS
 10
68.1007444538
 20
150.0064353728
 11
68.1007444538
 21
148.5487879447
  0
LINE
  5
454
100
AcDbEntity
  8
0
100
AcDbLine
 62
7
  6
CONTINUOUS
 10
68.1007444538
 20
122.9946586324
 11
68.1007444538
 21
121.5370112035
  0
LINE
  5
455
100
AcDbEntity
  8
0
100
AcDbLine
 62
7
  6
CONTINUOUS
 10
68.1755960962
 20
151.7332245428
 11
68.1755960962
 21
151.5360711361
  0
LINE
  5
456
100
AcDbEntity
  8
0
100
AcDbLine
 62
7
  6
CONTINUOUS
 10
68.1755960962
 20
148.0515360736
 11
68.1755960962
 21
146.2233921844
  0
LINE
  5
457
100
AcDbEntity
  8
0
100
AcDbLine
 62
7
  6
CONTINUOUS
 10
68.1755960962
 20
125.2452027505
 11
68.1755960962
 21
123.4170588611
  0
LINE
  5
458
100
AcDbEntity
  8
0
100
AcDbLine
 62
7
  6
CONTINUOUS
 10
68.1755960962
 20
119.9325237986
 11
68.1755960962
 21
119.735370392
  0
LINE
  5
459
100
AcDbEntity
  8
0
100
AcDbLine
 62
253
  6
CONTINUOUS
 10
68.354819768
 20
155.6694877011
 11
68.354819768
 21
154.8112094895
  0
LINE
  5
45A
100
AcDbEntity
  8
0
100
AcDbLine
 62
253
  6
CONTINUOUS
 10
68.354819768
 20
116.4781617734
 11
68.354819768
 21
115.6198835618
  0
LINE
  5
45B
100
AcDbEntity
  8
0
100
AcDbLine
 62
253
  6
CONTINUOUS
 10
68.3708866836
 20
130.5501921215
 11
68.3708866836
 21
131.3557514067
  0
LINE
  5
45C
100
AcDbEntity
  8
0
100
AcDbLine
 62
253
  6
CONTINUOUS
 10
68.3708866836
 20
139.2104461594
 11
68.3708866836
 21
140.0160054445
  0
LINE
  5
45D
100
AcDbEntity
  8
0
100
AcDbLine
 62
253
  6
CONTINUOUS
 10
68.583018718
 20
130.5479246421
 11
68.583018718
 21
131.3580188861
  0
LINE
  5
45E
100
AcDbEntity
  8
0
100
AcDbLine
 62
253
  6
CONTINUOUS
 10
68.583018718
 20
139.2081786799
 11
68.583018718
 21
140.018272924
  0
LINE
  5
45F
100
AcDbEntity
  8
0
100
AcDbLine
 62
253
  6
CONTINUOUS
 10
68.6351727983
 20
155.7682643992
 11
68.6351727983
 21
154.983270545
  0
LINE
  5
460
100
AcDbEntity
  8
0
100
AcDbLine
 62
253
  6
CONTINUOUS
 10
68.6351727983
 20
116.2557998167
 11
68.6351727983
 21
115.5186602598
  0
LWPOLYLINE
  5
461
100
AcDbEntity
  8
0
100
AcDbPolyline
 62
253
  6
CONTINUOUS
 90
19
 70
0
 10
67.1356321656
 20
149.712915007
 10
67.1355305583
 20
149.6967444461
 10
67.1352344104
 20
149.6807187723
 10
67.1347437218
 20
149.6648379854
 10
67.134058256
 20
149.6491105891
 10
67.1331782495
 20
149.6335280797
 10
67.1321044124
 20
149.6180649468
 10
67.1308369844
 20
149.6027116615
 10
67.1293757257
 20
149.5874777527
 10
67.127720627
 20
149.5723662958
 10
67.1258714261
 20
149.5573746973
 10
67.1238283852
 20
149.5425055508
 10
67.1215922823
 20
149.5277697125
 10
67.1191635165
 20
149.5131694709
 10
67.1165416886
 20
149.4987025376
 10
67.1137263796
 20
149.484372903
 10
67.1107174496
 20
149.4701818974
 10
67.1075150384
 20
149.4561281906
 10
67.1041191461
 20
149.4422117825
  0
LWPOLYLINE
  5
462
100
AcDbEntity
  8
0
100
AcDbPolyline
 62
253
  6
CONTINUOUS
 90
22
 70
0
 10
67.210483808
 20
124.9520051247
 10
67.2103786446
 20
124.9355927479
 10
67.2100738271
 20
124.9193365277
 10
67.2095693555
 20
124.9032364643
 10
67.2088652478
 20
124.8873059086
 10
67.207961486
 20
124.8715315095
 10
67.2068580161
 20
124.8558732142
 10
67.2055542341
 20
124.840311161
 10
67.204050744
 20
124.8248652115
 10
67.2023493046
 20
124.8095548973
 10
67.2004503358
 20
124.7943855183
 10
67.1983534175
 20
124.7793517746
 10
67.1960590487
 20
124.7644572985
 10
67.1935673935
 20
124.7497017489
 10
67.1908782877
 20
124.7350854669
 10
67.187991737
 20
124.7206131086
 10
67.1849079034
 20
124.7062844612
 10
67.1816266249
 20
124.6920997375
 10
67.1781474222
 20
124.678064232
 10
67.1744701354
 20
124.6641797097
 10
67.1705949244
 20
124.6504444057
 10
67.1665217891
 20
124.6368583199
  0
LWPOLYLINE
  5
463
100
AcDbEntity
  8
0
100
AcDbPolyline
 62
253
  6
CONTINUOUS
 90
19
 70
0
 10
67.486073453
 20
149.711385092
 10
67.4859484358
 20
149.6919850057
 10
67.4855872807
 20
149.6727519392
 10
67.4849916509
 20
149.6536893304
 10
67.4841639439
 20
149.6348143746
 10
67.4831055644
 20
149.616116295
 10
67.4818152358
 20
149.5975573583
 10
67.4802923507
 20
149.5791309327
 10
67.4785379597
 20
149.5608519056
 10
67.4765515117
 20
149.5427158957
 10
67.4743327738
 20
149.5247240295
 10
67.4718822806
 20
149.5068835746
 10
67.4692004253
 20
149.4891995088
 10
67.4662880436
 20
149.4716787072
 10
67.4631451249
 20
149.4543223738
 10
67.4597706101
 20
149.4371271384
 10
67.4561641761
 20
149.42009479
 10
67.4523265612
 20
149.4032320242
 10
67.4482580854
 20
149.3865430245
  0
LWPOLYLINE
  5
464
100
AcDbEntity
  8
0
100
AcDbPolyline
 62
253
  6
CONTINUOUS
 90
22
 70
0
 10
67.5609250959
 20
124.9504760713
 10
67.5607951816
 20
124.9307832051
 10
67.5604221954
 20
124.9112714271
 10
67.5598082081
 20
124.8919441467
 10
67.5589563475
 20
124.8728245836
 10
67.55786826
 20
124.853895737
 10
67.5565416488
 20
124.8351018694
 10
67.5549744899
 20
124.8164243319
 10
67.5531683722
 20
124.7978909449
 10
67.5511246941
 20
124.7795167035
 10
67.5488448824
 20
124.7613118282
 10
67.5463289534
 20
124.7432740669
 10
67.5435763705
 20
124.7253995933
 10
67.5405875661
 20
124.70769235
 10
67.5373630898
 20
124.6901566851
 10
67.5339020778
 20
124.6727897666
 10
67.5302048722
 20
124.6555958238
 10
67.5262718863
 20
124.6385791634
 10
67.5221018977
 20
124.621737468
 10
67.5176945647
 20
124.6050730128
 10
67.5130507253
 20
124.5885924147
 10
67.508170744
 20
124.5723000612
  0
LWPOLYLINE
  5
465
100
AcDbEntity
  8
0
100
AcDbPolyline
 62
7
  6
CONTINUOUS
 90
10
 70
0
 10
68.1007444538
 20
150.0064353728
 10
68.1002807206
 20
149.9680424635
 10
68.098874259
 20
149.9301634822
 10
68.096525069
 20
149.8927984287
 10
68.0932249653
 20
149.8558771876
 10
68.0889821332
 20
149.8194698744
 10
68.0838211286
 20
149.7837868356
 10
68.0777501368
 20
149.7488981868
 10
68.0707609724
 20
149.7147338125
 10
68.0628536356
 20
149.6812937126
  0
LWPOLYLINE
  5
466
100
AcDbEntity
  8
0
100
AcDbPolyline
 62
7
  6
CONTINUOUS
 90
10
 70
0
 10
68.1755960962
 20
125.2452027505
 10
68.1749500916
 20
125.1998704501
 10
68.1729857935
 20
125.1552745888
 10
68.1697032018
 20
125.1114151665
 10
68.1650870096
 20
125.0681824265
 10
68.1591525239
 20
125.0256861255
 10
68.1519456653
 20
124.9842555339
 10
68.1434817409
 20
124.9440004084
 10
68.1337454436
 20
124.9048109922
 10
68.1227367736
 20
124.8666872853
  0
LWPOLYLINE
  5
467
100
AcDbEntity
  8
0
100
AcDbPolyline
 62
7
  6
CONTINUOUS
 90
3
 70
0
 10
66.6224399964
 20
120.1860455401
 10
66.6217370191
 20
120.1669768684
 10
66.619587616
 20
120.1490136708
  0
LWPOLYLINE
  5
468
100
AcDbEntity
  8
0
100
AcDbPolyline
 62
253
  6
CONTINUOUS
 90
10
 70
0
 10
67.5609250959
 20
138.8150060995
 10
67.5593917154
 20
138.7795795791
 10
67.5548112617
 20
138.7461078453
 10
67.5472335619
 20
138.7149574627
 10
67.536740079
 20
138.6864689932
 10
67.5234459772
 20
138.6609546699
 10
67.5074988631
 20
138.6386949908
 10
67.4890717514
 20
138.619933049
 10
67.4683656634
 20
138.6048740396
 10
67.4566828959
 20
138.5985196973
  0
LWPOLYLINE
  5
469
100
AcDbEntity
  8
0
100
AcDbPolyline
 62
253
  6
CONTINUOUS
 90
16
 70
0
 10
67.210483808
 20
138.8165352269
 10
67.2098650831
 20
138.8030855863
 10
67.2081438273
 20
138.7906020432
 10
67.2053200404
 20
138.7790845974
 10
67.2013386339
 20
138.7684211717
 10
67.1962546964
 20
138.7587238434
 10
67.1902334936
 20
138.7503288446
 10
67.1832445349
 20
138.7432862967
 10
67.1753183108
 20
138.7375460783
 10
67.1667115591
 20
138.7332940569
 10
67.1573947407
 20
138.7305823106
 10
67.1473973947
 20
138.7293587613
 10
67.1370648756
 20
138.7296530426
 10
67.1265123015
 20
138.7314750322
 10
67.1156245543
 20
138.7348148525
 10
67.1044016339
 20
138.7396725034
  0
LWPOLYLINE
  5
46A
100
AcDbEntity
  8
0
100
AcDbPolyline
 62
253
  6
CONTINUOUS
 90
3
 70
0
 10
66.6663747503
 20
120.1330405983
 10
66.6646725188
 20
120.096983717
 10
66.6600475612
 20
120.0635736597
  0
LWPOLYLINE
  5
46B
100
AcDbEntity
  8
0
100
AcDbPolyline
 62
253
  6
CONTINUOUS
 90
13
 70
0
 10
68.8066045
 20
154.5853171235
 10
68.8077351709
 20
154.6077407615
 10
68.811109104
 20
154.6309365141
 10
68.8166723499
 20
154.6545334788
 10
68.8243359516
 20
154.6781543379
 10
68.8339773675
 20
154.7014213914
 10
68.8454424302
 20
154.7239625968
 10
68.8585478123
 20
154.745417518
 10
68.8730839575
 20
154.7654430886
 10
68.8888184308
 20
154.7837190979
 10
68.9054996363
 20
154.7999533109
 10
68.9228608399
 20
154.8138861406
 10
68.9406244343
 20
154.8252947998
  0
LWPOLYLINE
  5
46C
100
AcDbEntity
  8
0
100
AcDbPolyline
 62
253
  6
CONTINUOUS
 90
3
 70
0
 10
66.4188873768
 20
139.0389679725
 10
66.4197453337
 20
139.0558862222
 10
66.4223292743
 20
139.0735132276
  0
LWPOLYLINE
  5
46D
100
AcDbEntity
  8
0
100
AcDbPolyline
 62
253
  6
CONTINUOUS
 90
13
 70
0
 10
66.6802344939
 20
152.3395930074
 10
66.6817134687
 20
152.3682800128
 10
66.6861256457
 20
152.3979659822
 10
66.6933971975
 20
152.4281541896
 10
66.7034064514
 20
152.458339505
 10
66.7159859257
 20
152.4880168469
 10
66.7309251319
 20
152.5166896335
 10
66.7479740969
 20
152.5438780921
 10
66.7668475457
 20
152.5691272865
 10
66.7872296748
 20
152.59201473
 10
66.8087794362
 20
152.6121574539
 10
66.8311362446
 20
152.6292184164
 10
66.8539260105
 20
152.6429121416
  0
LWPOLYLINE
  5
46E
100
AcDbEntity
  8
0
100
AcDbPolyline
 62
253
  6
CONTINUOUS
 90
13
 70
0
 10
66.3835428076
 20
119.9280595983
 10
66.3844401769
 20
119.9453704678
 10
66.3871171007
 20
119.9632857901
 10
66.3915282827
 20
119.9815024208
 10
66.3975990815
 20
119.999712117
 10
66.4052267734
 20
120.0176067533
 10
66.4142822905
 20
120.0348835352
 10
66.4246124048
 20
120.051250123
 10
66.4360423209
 20
120.0664295784
 10
66.4483786336
 20
120.0801650504
 10
66.4614126006
 20
120.0922241216
 10
66.4749236749
 20
120.1024027411
 10
66.4886832359
 20
120.1105286767
  0
LWPOLYLINE
  5
46F
100
AcDbEntity
  8
0
100
AcDbPolyline
 62
7
  6
CONTINUOUS
 90
10
 70
0
 10
66.374953394
 20
139.092000981
 10
66.3761787918
 20
139.1111326702
 10
66.3798856208
 20
139.1301491033
 10
66.3860697131
 20
139.1486695187
 10
66.394668474
 20
139.1663369365
 10
66.4055313139
 20
139.1827664204
 10
66.418431874
 20
139.1976095308
 10
66.4332315962
 20
139.2106900808
 10
66.449621906
 20
139.2217128408
 10
66.4557874484
 20
139.2251027161
  0
LWPOLYLINE
  5
470
100
AcDbEntity
  8
RACCORDO
100
AcDbPolyline
 62
253
  6
CONTINUOUS
 90
10
 70
0
 10
65.6295818695
 20
114.8102250636
 10
65.6267064467
 20
114.7655201209
 10
65.620094908
 20
114.723289655
 10
65.6098196278
 20
114.6839959483
 10
65.595993086
 20
114.648069136
 10
65.5787666371
 20
114.6159024964
 10
65.5583288532
 20
114.5878481471
 10
65.5349034598
 20
114.5642131894
 10
65.5087468868
 20
114.5452563471
 10
65.4880099871
 20
114.5344570183
  0
LWPOLYLINE
  5
471
100
AcDbEntity
  8
0
100
AcDbPolyline
 62
253
  6
CONTINUOUS
 90
7
 70
0
 10
70.1873366615
 20
157.0795669812
 10
70.1858440286
 20
157.0673803292
 10
70.1810200155
 20
157.0546411456
 10
70.1729606532
 20
157.0423467233
 10
70.1618300658
 20
157.0307075508
 10
70.1478281048
 20
157.0199038846
 10
70.1312046222
 20
157.0101090138
  0
LWPOLYLINE
  5
472
100
AcDbEntity
  8
0
100
AcDbPolyline
 62
253
  6
CONTINUOUS
 90
13
 70
0
 10
67.1041191461
 20
149.4422117825
 10
67.0520562038
 20
149.2115862939
 10
67.010375729
 20
148.973862958
 10
66.9790777218
 20
148.7290417747
 10
66.9581119792
 20
148.4764071883
 10
66.9475287041
 20
148.2166747545
 10
66.9474785057
 20
147.9519911403
 10
66.9580912666
 20
147.6822953088
 10
66.9792371042
 20
147.4076482968
 10
67.0106769792
 20
147.1303798824
 10
67.0523312118
 20
146.8512666584
 10
67.1042794817
 20
146.569532032
 10
67.1665217891
 20
146.2851760032
  0
LWPOLYLINE
  5
473
100
AcDbEntity
  8
0
100
AcDbPolyline
 62
253
  6
CONTINUOUS
 90
13
 70
0
 10
67.4482580861
 20
149.3865430248
 10
67.3983082899
 20
149.1652615427
 10
67.3582091604
 20
148.9363679321
 10
67.3280558305
 20
148.7004053238
 10
67.3079198358
 20
148.4579336608
 10
67.2978489346
 20
148.209528251
 10
67.2978670106
 20
147.9557783934
 10
67.3079740229
 20
147.6972861511
 10
67.3281459902
 20
147.4346649068
 10
67.3583350519
 20
147.1685377821
 10
67.3984695795
 20
146.8995362335
 10
67.448454344
 20
146.6282985555
 10
67.5081707441
 20
146.3554683402
  0
LWPOLYLINE
  5
474
100
AcDbEntity
  8
0
100
AcDbPolyline
 62
253
  6
CONTINUOUS
 90
4
 70
0
 10
66.4223292743
 20
139.0735132276
 10
66.4266324254
 20
139.0915691402
 10
66.4326332444
 20
139.1097978054
 10
66.4402553689
 20
139.1278463851
  0
LWPOLYLINE
  5
475
100
AcDbEntity
  8
0
100
AcDbPolyline
 62
7
  6
CONTINUOUS
 90
25
 70
0
 10
68.0628536356
 20
149.6812937126
 10
68.0366612453
 20
149.571786771
 10
68.0129373465
 20
149.460423481
 10
67.9916819391
 20
149.3472038428
 10
67.9728835854
 20
149.2320521124
 10
67.9565537233
 20
149.1150440336
 10
67.9427266658
 20
148.9964068385
 10
67.9314084743
 20
148.8761440391
 10
67.9225930876
 20
148.7542521235
 10
67.9162966357
 20
148.6309477874
 10
67.9125237076
 20
148.5062269353
 10
67.9112697144
 20
148.3800936629
 10
67.9125370185
 20
148.2527769526
 10
67.9163302649
 20
148.1242759856
 10
67.9226448086
 20
147.9945915807
 10
67.9314690771
 20
147.8639551771
 10
67.9428074436
 20
147.7323657101
 10
67.956655535
 20
147.5998242444
 10
67.9729886587
 20
147.4665654137
 10
67.9918129144
 20
147.3325803943
 10
68.0131222026
 20
147.1978780098
 10
68.0368735318
 20
147.0627193648
 10
68.0630525714
 20
146.9271914943
 10
68.091673652
 20
146.7912073632
 10
68.1227367737
 20
146.6547669716
  0
LWPOLYLINE
  5
476
100
AcDbEntity
  8
0
100
AcDbPolyline
 62
7
  6
CONTINUOUS
 90
8
 70
0
 10
68.8948631584
 20
147.610860049
 10
68.895807745
 20
147.6135077428
 10
68.8984200081
 20
147.6172664324
 10
68.9025798894
 20
147.6217576013
 10
68.9081737094
 20
147.6269987578
 10
68.9150579285
 20
147.6330821969
 10
68.923141077
 20
147.6396870981
 10
68.932320902
 20
147.6467311377
  0
LWPOLYLINE
  5
477
100
AcDbEntity
  8
0
100
AcDbPolyline
 62
7
  6
CONTINUOUS
 90
9
 70
0
 10
66.6663747503
 20
142.626677524
 10
66.6551522323
 20
142.6144146748
 10
66.6457133865
 20
142.6029744113
 10
66.6379757413
 20
142.5924322699
 10
66.6317829695
 20
142.5829030672
 10
66.6271083901
 20
142.574366183
 10
66.6240767669
 20
142.5666866273
 10
66.6226237904
 20
142.5598813714
 10
66.6224488084
 20
142.5570959875
  0
LINE
  5
478
100
AcDbEntity
  8
0
100
AcDbLine
 62
7
  6
CONTINUOUS
 10
68.932320902
 20
147.6467311377
 11
68.9534418008
 21
147.6626132213
  0
LINE
  5
479
100
AcDbEntity
  8
0
100
AcDbLine
 62
7
  6
CONTINUOUS
 10
66.8765265531
 20
145.7929404673
 11
66.3212968325
 21
145.4898242427
  0
LINE
  5
47A
100
AcDbEntity
  8
0
100
AcDbLine
 62
7
  6
CONTINUOUS
 10
66.7445410869
 20
145.6503418785
 11
66.3212968325
 21
145.4192803994
  0
LINE
  5
47B
100
AcDbEntity
  8
0
100
AcDbLine
 62
7
  6
CONTINUOUS
 10
66.5926952973
 20
145.5518103003
 11
66.8765265531
 21
145.7008091604
  0
LINE
  5
47C
100
AcDbEntity
  8
RACCORDO
100
AcDbLine
 62
7
  6
CONTINUOUS
 10
87.0035256141
 20
155.0226230268
 11
86.5554237895
 21
154.7985721145
  0
LINE
  5
47D
100
AcDbEntity
  8
RACCORDO
100
AcDbLine
 62
7
  6
CONTINUOUS
 10
87.8520563218
 20
154.5983602432
 11
86.5554237895
 21
153.9500439771
  0
LINE
  5
47E
100
AcDbEntity
  8
0
100
AcDbLine
 62
253
  6
CONTINUOUS
 10
68.1227367737
 20
146.6547669716
 11
67.5081707441
 21
146.3554683402
  0
LINE
  5
47F
100
AcDbEntity
  8
0
100
AcDbLine
 62
253
  6
CONTINUOUS
 10
68.1755960962
 20
146.2233921844
 11
67.5609250959
 21
145.9245379784
  0
LINE
  5
480
100
AcDbEntity
  8
RACCORDO
100
AcDbLine
 62
7
  6
CONTINUOUS
 10
91.2946969881
 20
156.0083448795
 11
87.7324599976
 21
154.2986631135
  0
LINE
  5
481
100
AcDbEntity
  8
0
100
AcDbLine
 62
253
  6
CONTINUOUS
 10
66.5491309078
 20
143.9893106921
 11
66.3212968325
 21
143.884089366
  0
LINE
  5
482
100
AcDbEntity
  8
0
100
AcDbLine
 62
7
  6
CONTINUOUS
 10
66.5491309078
 20
143.8630082277
 11
66.3212968325
 21
143.7577869016
  0
LWPOLYLINE
  5
483
100
AcDbEntity
  8
0
100
AcDbPolyline
 62
253
  6
CONTINUOUS
 90
13
 70
0
 10
67.5081706732
 20
146.3554686404
 10
67.4835972817
 20
146.3442495437
 10
67.456676314
 20
146.3335209625
 10
67.4278582302
 20
146.3234624149
 10
67.3976252345
 20
146.3142422074
 10
67.3664832061
 20
146.3060146189
 10
67.334953235
 20
146.2989173191
 10
67.3035629023
 20
146.2930690648
 10
67.2728374527
 20
146.2885677132
 10
67.2432910057
 20
146.2854885839
 10
67.2154179527
 20
146.2838831991
 10
67.1896846849
 20
146.2837784211
 10
67.1665217891
 20
146.2851760032
  0
LWPOLYLINE
  5
484
100
AcDbEntity
  8
RACCORDO
100
AcDbPolyline
 62
7
  6
CONTINUOUS
 90
10
 70
0
 10
87.8520274259
 20
154.5983457953
 10
87.8634238902
 20
154.6035144505
 10
87.8746442926
 20
154.6075663469
 10
87.8856886334
 20
154.6105014844
 10
87.8966518923
 20
154.6123200157
 10
87.9074390894
 20
154.6130217882
 10
87.9177652849
 20
154.6126063439
 10
87.9275354986
 20
154.61107353
 10
87.9368447106
 20
154.6084234992
 10
87.9456929209
 20
154.6046562517
  0
LWPOLYLINE
  5
485
100
AcDbEntity
  8
0
100
AcDbPolyline
 62
253
  6
CONTINUOUS
 90
13
 70
0
 10
67.5609250959
 20
145.9245380521
 10
67.5362583332
 20
145.9140816677
 10
67.509098436
 20
145.9053048078
 10
67.4798998626
 20
145.8983543331
 10
67.4491511836
 20
145.8933465435
 10
67.417366907
 20
145.890365233
 10
67.3850788694
 20
145.8894602868
 10
67.3528273363
 20
145.8906468471
 10
67.3211519627
 20
145.8939050597
 10
67.2905827628
 20
145.8991804057
 10
67.2616312415
 20
145.9063846146
 10
67.2347818357
 20
145.9153971404
 10
67.210483808
 20
145.9260671795
  0
LWPOLYLINE
  5
486
100
AcDbEntity
  8
RACCORDO
100
AcDbPolyline
 62
7
  6
CONTINUOUS
 90
16
 70
0
 10
93.1315267595
 20
149.7119191873
 10
93.1225655088
 20
149.7101518936
 10
93.1137433654
 20
149.7087984574
 10
93.1050603291
 20
149.7078588789
 10
93.0965059257
 20
149.7073347168
 10
93.0880906295
 20
149.7072244123
 10
93.0798458635
 20
149.7075232888
 10
93.0717754529
 20
149.7082381455
 10
93.0638755724
 20
149.7093621831
 10
93.0561661695
 20
149.7108703278
 10
93.0486529109
 20
149.7127682575
 10
93.0413301298
 20
149.7150502941
 10
93.0342007733
 20
149.7176743297
 10
93.0272658236
 20
149.7206263281
 10
93.0205242986
 20
149.7239203254
 10
93.013976198
 20
149.7275563216
  0
LINE
  5
487
100
AcDbEntity
  8
0
100
AcDbLine
 62
253
  6
CONTINUOUS
 10
66.3212968325
 20
143.3747493826
 11
66.5930648906
 21
143.2388653536
  0
LINE
  5
488
100
AcDbEntity
  8
0
100
AcDbLine
 62
253
  6
CONTINUOUS
 10
66.3319489163
 20
143.7627063869
 11
66.5491309078
 21
143.6541153912
  0
LINE
  5
489
100
AcDbEntity
  8
0
100
AcDbLine
 62
7
  6
CONTINUOUS
 10
77.4939799493
 20
138.4567863789
 11
78.3823646279
 21
138.0125940396
  0
LINE
  5
48A
100
AcDbEntity
  8
0
100
AcDbLine
 62
7
  6
CONTINUOUS
 10
66.8765265531
 20
145.3019393302
 11
66.5930648906
 21
145.4436701615
  0
LINE
  5
48B
100
AcDbEntity
  8
0
100
AcDbLine
 62
7
  6
CONTINUOUS
 10
66.7629021251
 20
145.6411613594
 11
66.7445410869
 21
145.6503418785
  0
LWPOLYLINE
  5
48C
100
AcDbEntity
  8
0
100
AcDbPolyline
 62
253
  6
CONTINUOUS
 90
7
 70
0
 10
57.8275466295
 20
163.1619380101
 10
57.8353454329
 20
163.1477223738
 10
57.8405778882
 20
163.134922709
 10
57.843155457
 20
163.1237555982
 10
57.8430345246
 20
163.1144099998
 10
57.8402171371
 20
163.1070440503
 10
57.8392340727
 20
163.1056957865
  0
LWPOLYLINE
  5
48D
100
AcDbEntity
  8
0
100
AcDbPolyline
 62
253
  6
CONTINUOUS
 90
22
 70
0
 10
67.1665217891
 20
146.2851760032
 10
67.1705949244
 20
146.2675167822
 10
67.1744701354
 20
146.2499062671
 10
67.1781474222
 20
146.232344458
 10
67.1816266249
 20
146.2148297498
 10
67.1849079034
 20
146.1973637476
 10
67.187991737
 20
146.1799512665
 10
67.1908782877
 20
146.1625923576
 10
67.1935673935
 20
146.1452869698
 10
67.1960590487
 20
146.128039765
 10
67.1983534176
 20
146.1108509201
 10
67.2004503358
 20
146.0937202582
 10
67.2023493046
 20
146.0766519103
 10
67.204050744
 20
146.0596401567
 10
67.2055542341
 20
146.0426907171
 10
67.2068580161
 20
146.0258248819
 10
67.207961486
 20
146.0090631167
 10
67.2088652478
 20
145.9923849558
 10
67.2095693555
 20
145.9757502924
 10
67.2100738271
 20
145.9591457573
 10
67.2103786446
 20
145.9425847197
 10
67.210483808
 20
145.9260671795
  0
LWPOLYLINE
  5
48E
100
AcDbEntity
  8
0
100
AcDbPolyline
 62
253
  6
CONTINUOUS
 90
22
 70
0
 10
67.5081707439
 20
146.3554683401
 10
67.5130507253
 20
146.3342817778
 10
67.5176945647
 20
146.3131445598
 10
67.5221018977
 20
146.2920614301
 10
67.5262718863
 20
146.271039827
 10
67.5302048723
 20
146.2500816757
 10
67.5339020778
 20
146.2291834471
 10
67.5373630898
 20
146.2083498607
 10
67.5405875661
 20
146.187585474
 10
67.5435763706
 20
146.1668865965
 10
67.5463289534
 20
146.1462581315
 10
67.5488448825
 20
146.1257044426
 10
67.5511246942
 20
146.1052211673
 10
67.5531683723
 20
146.0848060703
 10
67.55497449
 20
146.0644708091
 10
67.5565416489
 20
146.0442317866
 10
67.5578682601
 20
146.0241184078
 10
67.5589563476
 20
146.004109947
 10
67.5598082081
 20
145.9841483683
 10
67.5604221954
 20
145.9642183893
 10
67.5607951817
 20
145.944346415
 10
67.5609250959
 20
145.9245379784
  0
LWPOLYLINE
  5
48F
100
AcDbEntity
  8
0
100
AcDbPolyline
 62
7
  6
CONTINUOUS
 90
10
 70
0
 10
68.1227367737
 20
146.6547669716
 10
68.1337454436
 20
146.6056345949
 10
68.1434817408
 20
146.5567088816
 10
68.1519456653
 20
146.5079898318
 10
68.1591525238
 20
146.4593523816
 10
68.1650870096
 20
146.4109215949
 10
68.1697032018
 20
146.3630726627
 10
68.1729857935
 20
146.3159306487
 10
68.1749500916
 20
146.2693704893
 10
68.1755960962
 20
146.2233921844
  0
LWPOLYLINE
  5
490
100
AcDbEntity
  8
0
100
AcDbPolyline
 62
253
  6
CONTINUOUS
 90
3
 70
0
 10
66.6524677934
 20
151.4033486625
 10
66.6600143557
 20
151.3650363818
 10
66.664650008
 20
151.3269670822
  0
LWPOLYLINE
  5
491
100
AcDbEntity
  8
0
100
AcDbPolyline
 62
253
  6
CONTINUOUS
 90
7
 70
0
 10
65.8658438161
 20
157.2331110922
 10
65.8677499281
 20
157.2193378254
 10
65.8729630681
 20
157.206667676
 10
65.8814036218
 20
157.194439996
 10
65.892930356
 20
157.1828593875
 10
65.9073503974
 20
157.1721196252
 10
65.9244224599
 20
157.1624004141
  0
LWPOLYLINE
  5
492
100
AcDbEntity
  8
0
100
AcDbPolyline
 62
253
  6
CONTINUOUS
 90
19
 70
0
 10
69.2976108034
 20
154.2177256052
 10
69.2956304572
 20
154.2558261348
 10
69.2909923045
 20
154.2949831878
 10
69.2837390046
 20
154.3349026787
 10
69.2739380289
 20
154.375287468
 10
69.2616648802
 20
154.4158308834
 10
69.2470024712
 20
154.4562190293
 10
69.2300658778
 20
154.4961465591
 10
69.2109901297
 20
154.5353136834
 10
69.1899127863
 20
154.5734196476
 10
69.1669952076
 20
154.6101753705
 10
69.1424159688
 20
154.6453044757
 10
69.1163579571
 20
154.6785398644
 10
69.089017799
 20
154.709628595
 10
69.0606054604
 20
154.7383356751
 10
69.0313370289
 20
154.7644443104
 10
69.0014337403
 20
154.7877558192
 10
68.9711203749
 20
154.8080913551
 10
68.9406244343
 20
154.8252947998
  0
LWPOLYLINE
  5
493
100
AcDbEntity
  8
0
100
AcDbPolyline
 62
7
  6
CONTINUOUS
 90
16
 70
0
 10
70.2447196538
 20
154.7263519996
 10
70.2428057743
 20
154.7722264746
 10
70.236991624
 20
154.8196630079
 10
70.2273128514
 20
154.8681719912
 10
70.213780353
 20
154.9174160881
 10
70.1965562122
 20
154.9666854944
 10
70.1760759236
 20
155.0149161306
 10
70.1528571952
 20
155.0612105335
 10
70.1270468369
 20
155.1055112693
 10
70.0985588139
 20
155.147995613
 10
70.0673717043
 20
155.1884985305
 10
70.0340391924
 20
155.2261249595
 10
69.999341459
 20
155.2600073986
 10
69.9638302174
 20
155.2897101732
 10
69.9277618391
 20
155.3151005531
 10
69.8915296004
 20
155.3359599318
  0
LWPOLYLINE
  5
494
100
AcDbEntity
  8
0
100
AcDbPolyline
 62
253
  6
CONTINUOUS
 90
13
 70
0
 10
70.6909897225
 20
161.2766658144
 10
70.6900757655
 20
161.3000236818
 10
70.6867167732
 20
161.3241701639
 10
70.6809701967
 20
161.3486922677
 10
70.6729343234
 20
161.3731705756
 10
70.6627465961
 20
161.3971864193
 10
70.6505812619
 20
161.4203290402
 10
70.6366463926
 20
161.4422026153
 10
70.6211803251
 20
161.4624330262
 10
70.604447585
 20
161.4806742588
 10
70.5867343631
 20
161.4966143212
 10
70.5683436202
 20
161.5099805802
 10
70.5495899054
 20
161.5205444238
  0
LWPOLYLINE
  5
495
100
AcDbEntity
  8
0
100
AcDbPolyline
 62
7
  6
CONTINUOUS
 90
10
 70
0
 10
68.8948697326
 20
151.8198085029
 10
68.8957246077
 20
151.7977037697
 10
68.8984356749
 20
151.7758805508
 10
68.9025798894
 20
151.753909686
 10
68.9081217808
 20
151.7319074459
 10
68.9150780132
 20
151.7100401513
 10
68.923141077
 20
151.6884739462
 10
68.932197204
 20
151.6673326737
 10
68.9423101231
 20
151.6466973469
 10
68.9534418008
 20
151.6266522062
  0
LWPOLYLINE
  5
496
100
AcDbEntity
  8
0
100
AcDbPolyline
 62
253
  6
CONTINUOUS
 90
19
 70
0
 10
69.018518532
 20
154.2195523641
 10
69.0176813727
 20
154.2427983514
 10
69.015290916
 20
154.2663429999
 10
69.0113471622
 20
154.2901863097
 10
69.005796226
 20
154.3145246291
 10
68.9986919926
 20
154.3391616097
 10
68.9901961173
 20
154.3635082066
 10
68.9802777302
 20
154.3875463799
 10
68.9689677013
 20
154.4112941696
 10
68.9565202949
 20
154.4342166499
 10
68.9429094939
 20
154.4562947453
 10
68.9281613155
 20
154.4775475314
 10
68.9126080756
 20
154.497497309
 10
68.8962287862
 20
154.5161167071
 10
68.8790444353
 20
154.5334330967
 10
68.8614503033
 20
154.5490508917
 10
68.8435781501
 20
154.5628382302
 10
68.8252962156
 20
154.5749269741
 10
68.8066045
 20
154.5853171235
  0
LINE
  5
497
100
AcDbEntity
  8
0
100
AcDbLine
 62
7
  6
CONTINUOUS
 10
68.8305060914
 20
130.6663775434
 11
68.8305060914
 21
131.4870533582
  0
LINE
  5
498
100
AcDbEntity
  8
0
100
AcDbLine
 62
7
  6
CONTINUOUS
 10
68.8305060914
 20
139.3266315812
 11
68.8305060914
 21
140.1473073961
  0
LINE
  5
499
100
AcDbEntity
  8
0
100
AcDbLine
 62
7
  6
CONTINUOUS
 10
68.8658614305
 20
139.2789328886
 11
68.8658614305
 21
133.4187360587
  0
LINE
  5
49A
100
AcDbEntity
  8
0
100
AcDbLine
 62
7
  6
CONTINUOUS
 10
68.8948631571
 20
153.6730799636
 11
68.8948631571
 21
151.8197846466
  0
LINE
  5
49B
100
AcDbEntity
  8
0
100
AcDbLine
 62
7
  6
CONTINUOUS
 10
68.8948631571
 20
147.6109021371
 11
68.8948631571
 21
140.1574555475
  0
LINE
  5
49C
100
AcDbEntity
  8
0
100
AcDbLine
 62
7
  6
CONTINUOUS
 10
68.8948631571
 20
139.2944530484
 11
68.8948631571
 21
131.4972015097
  0
LINE
  5
49D
100
AcDbEntity
  8
0
100
AcDbLine
 62
7
  6
CONTINUOUS
 10
68.8948631571
 20
130.6341990106
 11
68.8948631571
 21
123.2212684492
  0
LINE
  5
49E
100
AcDbEntity
  8
0
100
AcDbLine
 62
7
  6
CONTINUOUS
 10
68.8948631571
 20
119.0123859397
 11
68.8948631571
 21
117.1590906227
  0
LINE
  5
49F
100
AcDbEntity
  8
0
100
AcDbLine
 62
253
  6
CONTINUOUS
 10
68.9534418008
 20
153.7247910478
 11
68.9534418008
 21
151.6266522062
  0
LINE
  5
4A0
100
AcDbEntity
  8
0
100
AcDbLine
 62
253
  6
CONTINUOUS
 10
68.9534418008
 20
147.6626132213
 11
68.9534418008
 21
140.0858395414
  0
LINE
  5
4A1
100
AcDbEntity
  8
0
100
AcDbLine
 62
253
  6
CONTINUOUS
 10
68.9534418008
 20
139.2651637265
 11
68.9534418008
 21
131.4255855035
  0
LINE
  5
4A2
100
AcDbEntity
  8
0
100
AcDbLine
 62
253
  6
CONTINUOUS
 10
68.9534418008
 20
130.6049096887
 11
68.9534418008
 21
123.0281360088
  0
LINE
  5
4A3
100
AcDbEntity
  8
0
100
AcDbLine
 62
253
  6
CONTINUOUS
 10
68.9534418008
 20
119.0640970239
 11
68.9534418008
 21
116.9659581823
  0
LINE
  5
4A4
100
AcDbEntity
  8
0
100
AcDbLine
 62
253
  6
CONTINUOUS
 10
69.018518532
 20
116.4061201347
 11
69.018518532
 21
119.5110625807
  0
LINE
  5
4A5
100
AcDbEntity
  8
0
100
AcDbLine
 62
253
  6
CONTINUOUS
 10
69.018518532
 20
122.5357715933
 11
69.018518532
 21
148.0899009056
  0
LINE
  5
4A6
100
AcDbEntity
  8
0
100
AcDbLine
 62
253
  6
CONTINUOUS
 10
69.018518532
 20
151.1146099181
 11
69.018518532
 21
154.2195523641
  0
LINE
  5
4A7
100
AcDbEntity
  8
0
100
AcDbLine
 62
253
  6
CONTINUOUS
 10
69.2976108034
 20
116.4042933757
 11
69.2976108034
 21
119.5180754995
  0
LINE
  5
4A8
100
AcDbEntity
  8
0
100
AcDbLine
 62
253
  6
CONTINUOUS
 10
69.2976108034
 20
122.5251051565
 11
69.2976108034
 21
148.0969138244
  0
LINE
  5
4A9
100
AcDbEntity
  8
0
100
AcDbLine
 62
253
  6
CONTINUOUS
 10
69.2976108034
 20
151.1039434814
 11
69.2976108034
 21
154.2177256052
  0
LINE
  5
4AA
100
AcDbEntity
  8
0
100
AcDbLine
 62
7
  6
CONTINUOUS
 10
69.5729682116
 20
115.0518278895
 11
69.5729682116
 21
116.3000834276
  0
LINE
  5
4AB
100
AcDbEntity
  8
0
100
AcDbLine
 62
7
  6
CONTINUOUS
 10
69.5729682116
 20
155.4952406262
 11
69.5729682116
 21
157.1407152733
  0
LINE
  5
4AC
100
AcDbEntity
  8
0
100
AcDbLine
 62
7
  6
CONTINUOUS
 10
70.1032982975
 20
149.5285943764
 11
70.1032982975
 21
149.4287441463
  0
LINE
  5
4AD
100
AcDbEntity
  8
0
100
AcDbLine
 62
7
  6
CONTINUOUS
 10
70.1032982975
 20
120.9497560515
 11
70.1032982975
 21
120.8499058214
  0
LINE
  5
4AE
100
AcDbEntity
  8
0
100
AcDbLine
 62
253
  6
CONTINUOUS
 10
70.1312046222
 20
115.3530092398
 11
70.1312046222
 21
115.7605048744
  0
LINE
  5
4AF
100
AcDbEntity
  8
0
100
AcDbLine
 62
253
  6
CONTINUOUS
 10
70.1312046222
 20
157.0101090138
 11
70.1312046222
 21
157.4176046483
  0
LINE
  5
4B0
100
AcDbEntity
  8
0
100
AcDbLine
 62
7
  6
CONTINUOUS
 10
70.1873366621
 20
115.4224750769
 11
70.1873366621
 21
115.8299707114
  0
LINE
  5
4B1
100
AcDbEntity
  8
0
100
AcDbLine
 62
7
  6
CONTINUOUS
 10
70.1873366621
 20
157.0795748508
 11
70.1873366621
 21
157.4870704854
  0
LINE
  5
4B2
100
AcDbEntity
  8
0
100
AcDbLine
 62
7
  6
CONTINUOUS
 10
70.2447196538
 20
154.7263519996
 11
70.2447196538
 21
154.3799420417
  0
LINE
  5
4B3
100
AcDbEntity
  8
0
100
AcDbLine
 62
7
  6
CONTINUOUS
 10
70.2447196538
 20
116.7944397211
 11
70.2447196538
 21
117.140849679
  0
LINE
  5
4B4
100
AcDbEntity
  8
0
100
AcDbLine
 62
7
  6
CONTINUOUS
 10
70.260765027
 20
156.2974598202
 11
70.260765027
 21
157.0452201535
  0
LINE
  5
4B5
100
AcDbEntity
  8
0
100
AcDbLine
 62
7
  6
CONTINUOUS
 10
70.38614101
 20
122.973507768
 11
70.38614101
 21
120.8083346953
  0
LINE
  5
4B6
100
AcDbEntity
  8
0
100
AcDbLine
 62
7
  6
CONTINUOUS
 10
70.38614101
 20
149.3871730202
 11
70.38614101
 21
151.5523460929
  0
LINE
  5
4B7
100
AcDbEntity
  8
0
100
AcDbLine
 62
253
  6
CONTINUOUS
 10
70.8215678293
 20
161.3004112192
 11
70.8215678293
 21
160.1289715728
  0
LINE
  5
4B8
100
AcDbEntity
  8
0
100
AcDbLine
 62
7
  6
CONTINUOUS
 10
70.9362780566
 20
161.3225678949
 11
70.9362780566
 21
160.2667228013
  0
LINE
  5
4B9
100
AcDbEntity
  8
0
100
AcDbLine
 62
7
  6
CONTINUOUS
 10
70.9394838402
 20
117.1692147852
 11
70.9394838402
 21
117.9492392924
  0
LINE
  5
4BA
100
AcDbEntity
  8
0
100
AcDbLine
 62
7
  6
CONTINUOUS
 10
70.9394838402
 20
154.2396667297
 11
70.9394838402
 21
155.0710263115
  0
LINE
  5
4BB
100
AcDbEntity
  8
0
100
AcDbLine
 62
7
  6
CONTINUOUS
 10
70.9703426777
 20
117.9851449482
 11
70.9703426777
 21
120.4163836314
  0
LINE
  5
4BC
100
AcDbEntity
  8
0
100
AcDbLine
 62
7
  6
CONTINUOUS
 10
70.9703426777
 20
123.2141603029
 11
70.9703426777
 21
148.9952219563
  0
LINE
  5
4BD
100
AcDbEntity
  8
0
100
AcDbLine
 62
7
  6
CONTINUOUS
 10
70.9703426777
 20
151.7929986278
 11
70.9703426777
 21
154.2242373109
  0
LINE
  5
4BE
100
AcDbEntity
  8
RACCORDO
100
AcDbLine
 62
7
  6
CONTINUOUS
 10
71.0225371131
 20
151.9022675068
 11
71.0225371131
 21
120.2549203169
  0
LINE
  5
4BF
100
AcDbEntity
  8
0
100
AcDbLine
 62
253
  6
CONTINUOUS
 10
70.1873366621
 20
115.4224752139
 11
70.1873365654
 21
115.4223767456
  0
LWPOLYLINE
  5
4C0
100
AcDbEntity
  8
0
100
AcDbPolyline
 62
253
  6
CONTINUOUS
 90
8
 70
0
 10
70.1312046222
 20
115.3530092398
 10
70.1302816619
 20
115.3310785818
 10
70.1268919887
 20
115.3107186775
 10
70.1210920086
 20
115.2922823808
 10
70.112978701
 20
115.2760879598
 10
70.1026909252
 20
115.2624197364
 10
70.0904097044
 20
115.251519837
 10
70.0822875045
 20
115.2464513935
  0
LWPOLYLINE
  5
4C1
100
AcDbEntity
  8
0
100
AcDbPolyline
 62
7
  6
CONTINUOUS
 90
9
 70
0
 10
66.6224057211
 20
132.4682018142
 10
66.6226735639
 20
132.4691790991
 10
66.6239739345
 20
132.4714769123
 10
66.6263534096
 20
132.4744181424
 10
66.6298359974
 20
132.4778684806
 10
66.6341828674
 20
132.4818624323
 10
66.6393073734
 20
132.4863524789
 10
66.6452650397
 20
132.4911971621
 10
66.6520303848
 20
132.4963058233
  0
LWPOLYLINE
  5
4C2
100
AcDbEntity
  8
0
100
AcDbPolyline
 62
253
  6
CONTINUOUS
 90
4
 70
0
 10
66.4402553689
 20
139.1278463851
 10
66.449333199
 20
139.1452808344
 10
66.4596880973
 20
139.1617678521
 10
66.4711608296
 20
139.1770624588
  0
LWPOLYLINE
  5
4C3
100
AcDbEntity
  8
0
100
AcDbPolyline
 62
7
  6
CONTINUOUS
 90
8
 70
0
 10
66.6520303848
 20
138.9424913475
 10
66.6535056446
 20
138.9442336556
 10
66.6550115024
 20
138.9459899327
 10
66.6565474926
 20
138.9477604095
 10
66.6581129596
 20
138.9495456114
 10
66.6597076012
 20
138.9513454579
 10
66.6613315046
 20
138.9531592772
 10
66.6629844034
 20
138.9549870012
  0
LWPOLYLINE
  5
4C4
100
AcDbEntity
  8
0
100
AcDbPolyline
 62
253
  6
CONTINUOUS
 90
4
 70
0
 10
66.4711608296
 20
139.1770624588
 10
66.4835498993
 20
139.1908970009
 10
66.4966407155
 20
139.2030348505
 10
66.5102107081
 20
139.2132724763
  0
LINE
  5
4C5
100
AcDbEntity
  8
0
100
AcDbLine
 62
7
  6
CONTINUOUS
 10
66.6629844034
 20
138.9549870012
 11
66.6663747503
 21
138.9586859452
  0
LINE
  5
4C6
100
AcDbEntity
  8
0
100
AcDbLine
 62
253
  6
CONTINUOUS
 10
66.5692720921
 20
142.5470845875
 11
66.3212968325
 21
142.4229791897
  0
LINE
  5
4C7
100
AcDbEntity
  8
0
100
AcDbLine
 62
253
  6
CONTINUOUS
 10
66.6224407674
 20
142.1425203519
 11
66.3212968325
 21
141.9918053657
  0
LINE
  5
4C8
100
AcDbEntity
  8
RACCORDO
100
AcDbLine
 62
253
  6
CONTINUOUS
 10
86.5917228236
 20
152.6673965565
 11
92.3069771126
 21
155.5022048173
  0
LINE
  5
4C9
100
AcDbEntity
  8
RACCORDO
100
AcDbLine
 62
253
  6
CONTINUOUS
 10
86.2747635899
 20
150.9401126348
 11
93.013976198
 21
154.2828117706
  0
LWPOLYLINE
  5
4CA
100
AcDbEntity
  8
RACCORDO
100
AcDbPolyline
 62
253
  6
CONTINUOUS
 90
6
 70
0
 10
86.603746972
 20
152.6611544994
 10
86.5923214405
 20
152.655910229
 10
86.5809207828
 20
152.6511246835
 10
86.5695569325
 20
152.6468028725
 10
86.5582417851
 20
152.6429493196
 10
86.5554237895
 20
152.6421026989
  0
LWPOLYLINE
  5
4CB
100
AcDbEntity
  8
RACCORDO
100
AcDbPolyline
 62
253
  6
CONTINUOUS
 90
5
 70
0
 10
86.5917228236
 20
152.6673965565
 10
86.5802883415
 20
152.6621505138
 10
86.5688722945
 20
152.6573665612
 10
86.5574866371
 20
152.6530497082
 10
86.5554237895
 20
152.6523504322
  0
LINE
  5
4CC
100
AcDbEntity
  8
0
100
AcDbLine
 62
253
  6
CONTINUOUS
 10
66.5956457106
 20
142.5593102419
 11
66.5691428473
 21
142.547177121
  0
LWPOLYLINE
  5
4CD
100
AcDbEntity
  8
RACCORDO
100
AcDbPolyline
 62
253
  6
CONTINUOUS
 90
16
 70
0
 10
64.5631698704
 20
141.2178339736
 10
64.5240717742
 20
141.2019542943
 10
64.4817415378
 20
141.1881640833
 10
64.4366276257
 20
141.1766094399
 10
64.3892079943
 20
141.1674127791
 10
64.3399850276
 20
141.1606715343
 10
64.2894802149
 20
141.156457125
 10
64.2382286258
 20
141.1548142006
 10
64.1867732418
 20
141.1557601669
 10
64.1356592033
 20
141.1592850019
 10
64.0854280346
 20
141.1653513621
 10
64.0366119062
 20
141.1738949777
 10
63.9897279972
 20
141.1848253341
 10
63.945273016
 20
141.1980266303
 10
63.9037179376
 20
141.2133590061
 10
63.8655030146
 20
141.2306600237
  0
LINE
  5
4CE
100
AcDbEntity
  8
0
100
AcDbLine
 62
7
  6
CONTINUOUS
 10
66.5930648906
 20
147.7024561548
 11
66.8765265531
 21
147.5607253235
  0
LINE
  5
4CF
100
AcDbEntity
  8
0
100
AcDbLine
 62
7
  6
CONTINUOUS
 10
68.2285040937
 20
147.9428966334
 11
68.8970302317
 21
147.6086335644
  0
LINE
  5
4D0
100
AcDbEntity
  8
0
100
AcDbLine
 62
253
  6
CONTINUOUS
 10
68.1755960962
 20
148.0515360736
 11
68.9534418008
 21
147.6626132213
  0
LWPOLYLINE
  5
4D1
100
AcDbEntity
  8
0
100
AcDbPolyline
 62
253
  6
CONTINUOUS
 90
8
 70
0
 10
57.7735579716
 20
163.7344614133
 10
57.7875230798
 20
163.712431114
 10
57.7997149873
 20
163.6890827064
 10
57.8098921782
 20
163.664865427
 10
57.8178338631
 20
163.6403612878
 10
57.8234386325
 20
163.6160480837
 10
57.8266783179
 20
163.5922779017
 10
57.8275466295
 20
163.5694336446
  0
LWPOLYLINE
  5
4D2
100
AcDbEntity
  8
0
100
AcDbPolyline
 62
7
  6
CONTINUOUS
 90
8
 70
0
 10
65.5797559043
 20
159.4814548944
 10
65.5797860766
 20
159.4813379682
 10
65.5799541023
 20
159.4793150004
 10
65.5801535765
 20
159.4747168008
 10
65.5801527435
 20
159.4677383755
 10
65.5800057133
 20
159.4585224147
 10
65.5799936209
 20
159.4470012758
 10
65.5802830409
 20
159.4332314378
  0
LWPOLYLINE
  5
4D3
100
AcDbEntity
  8
0
100
AcDbPolyline
 62
7
  6
CONTINUOUS
 90
13
 70
0
 10
68.1369614656
 20
152.0348923738
 10
68.1310051828
 20
152.0628537528
 10
68.1276621899
 20
152.0914359687
 10
68.1267909217
 20
152.1201624669
 10
68.1279869248
 20
152.148653153
 10
68.1312542265
 20
152.1763988952
 10
68.13703461
 20
152.2027602282
 10
68.1451494451
 20
152.2273886431
 10
68.1552701156
 20
152.2499101447
 10
68.1675923661
 20
152.2697086471
 10
68.1819763428
 20
152.2864454082
 10
68.1979649831
 20
152.3000424455
 10
68.2152683427
 20
152.3103653722
  0
LWPOLYLINE
  5
4D4
100
AcDbEntity
  8
0
100
AcDbPolyline
 62
7
  6
CONTINUOUS
 90
16
 70
0
 10
72.6248590424
 20
165.8823830585
 10
72.623811948
 20
165.900370102
 10
72.6203056383
 20
165.9183512627
 10
72.6143331079
 20
165.9363131534
 10
72.6057445689
 20
165.9545511645
 10
72.5946620053
 20
165.9727131875
 10
72.581483776
 20
165.9898073633
 10
72.5662850293
 20
166.0055512294
 10
72.548957916
 20
166.0201378235
 10
72.52963091
 20
166.0332891661
 10
72.5081752641
 20
166.0449981978
 10
72.4846970311
 20
166.0551476482
 10
72.4596877059
 20
166.0633064597
 10
72.4333172389
 20
166.0693005098
 10
72.4054297466
 20
166.07319324
 10
72.3760404974
 20
166.0749225442
  0
LWPOLYLINE
  5
4D5
100
AcDbEntity
  8
0
100
AcDbPolyline
 62
7
  6
CONTINUOUS
 90
10
 70
0
 10
70.9362854923
 20
161.3239948052
 10
70.9353246101
 20
161.3456739986
 10
70.9307570485
 20
161.375498443
 10
70.9226526931
 20
161.4038799754
 10
70.9111120544
 20
161.430881165
 10
70.8959914663
 20
161.4566418814
 10
70.8773340407
 20
161.4807107728
 10
70.8553473779
 20
161.5025481554
 10
70.8298759465
 20
161.5220179854
 10
70.8000329148
 20
161.5391850072
  0
LINE
  5
4D6
100
AcDbEntity
  8
0
100
AcDbLine
 62
253
  6
CONTINUOUS
 10
71.6589332161
 20
164.9211288522
 11
71.6589332161
 21
165.9392962994
  0
LINE
  5
4D7
100
AcDbEntity
  8
0
100
AcDbLine
 62
7
  6
CONTINUOUS
 10
72.6248590424
 20
165.8823830585
 11
72.6248590424
 21
165.7134224315
  0
LINE
  5
4D8
100
AcDbEntity
  8
0
100
AcDbLine
 62
253
  6
CONTINUOUS
 10
73.0731467785
 20
165.0603265189
 11
73.0731467785
 21
165.584012909
  0
LINE
  5
4D9
100
AcDbEntity
  8
0
100
AcDbLine
 62
7
  6
CONTINUOUS
 10
73.6388322035
 20
136.7448985305
 11
73.6388322035
 21
138.1248557959
  0
LWPOLYLINE
  5
4DA
100
AcDbEntity
  8
0
100
AcDbPolyline
 62
7
  6
CONTINUOUS
 90
10
 70
0
 10
70.2447196538
 20
116.7943735675
 10
70.2427607438
 20
116.750378325
 10
70.2369488234
 20
116.7085818805
 10
70.2272917887
 20
116.669468056
 10
70.2137590667
 20
116.6333587798
 10
70.1965023183
 20
116.6008640484
 10
70.1759913287
 20
116.5727291124
 10
70.1527485193
 20
116.5493631091
 10
70.1269141673
 20
116.5306586203
 10
70.1189444638
 20
116.5261001413
  0
LWPOLYLINE
  5
4DB
100
AcDbEntity
  8
0
100
AcDbPolyline
 62
253
  6
CONTINUOUS
 90
7
 70
0
 10
70.1873365654
 20
115.4223767456
 10
70.1859555575
 20
115.4107433424
 10
70.1812303177
 20
115.3979534013
 10
70.1732278185
 20
115.3855817239
 10
70.1620876606
 20
115.3738384433
 10
70.1479998404
 20
115.3629197598
 10
70.1312046222
 20
115.3530092398
  0
LWPOLYLINE
  5
4DC
100
AcDbEntity
  8
0
100
AcDbPolyline
 62
253
  6
CONTINUOUS
 90
7
 70
0
 10
75.3944671221
 20
166.9953398257
 10
75.3927560943
 20
166.9822872064
 10
75.3876522873
 20
166.9694579211
 10
75.3792430286
 20
166.9570714824
 10
75.3676722028
 20
166.9453398257
 10
75.3531377901
 20
166.9344636828
 10
75.3358884783
 20
166.9246291475
  0
LWPOLYLINE
  5
4DD
100
AcDbEntity
  8
0
100
AcDbPolyline
 62
7
  6
CONTINUOUS
 90
7
 70
0
 10
66.619587616
 20
120.1490136708
 10
66.6162743648
 20
120.1336939261
 10
66.6121799935
 20
120.1213224251
 10
66.6078813446
 20
120.11226959
 10
66.6041706151
 20
120.1066833791
 10
66.6021712628
 20
120.1044992284
 10
66.6018474918
 20
120.104168768
  0
LWPOLYLINE
  5
4DE
100
AcDbEntity
  8
0
100
AcDbPolyline
 62
253
  6
CONTINUOUS
 90
14
 70
0
 10
66.6600475612
 20
120.0635736597
 10
66.6524998775
 20
120.0328104265
 10
66.6418834607
 20
120.0044244486
 10
66.6283443179
 20
119.9786852946
 10
66.6123204699
 20
119.9564016713
 10
66.5937267731
 20
119.9376793642
 10
66.5726483711
 20
119.9224125876
 10
66.5497787152
 20
119.9110926918
 10
66.5250818647
 20
119.9038457161
 10
66.4985937603
 20
119.9005456212
 10
66.4711156751
 20
119.9013056387
 10
66.4429147001
 20
119.9061635127
 10
66.4137237442
 20
119.9150814993
 10
66.3835428076
 20
119.9280595983
  0
LWPOLYLINE
  5
4DF
100
AcDbEntity
  8
0
100
AcDbPolyline
 62
7
  6
CONTINUOUS
 90
7
 70
0
 10
66.5606080132
 20
117.2942130797
 10
66.5611527548
 20
117.2962642012
 10
66.563635677
 20
117.2999643703
 10
66.5680676162
 20
117.3048098204
 10
66.5743985407
 20
117.3109085032
 10
66.5826849514
 20
117.3179981798
 10
66.5929622996
 20
117.3260718029
  0
LWPOLYLINE
  5
4E0
100
AcDbEntity
  8
0
100
AcDbPolyline
 62
253
  6
CONTINUOUS
 90
13
 70
0
 10
67.1665217891
 20
124.6368583199
 10
67.1042796363
 20
124.4147453703
 10
67.0523314626
 20
124.1849596488
 10
67.0106772679
 20
123.9475011552
 10
66.9792373537
 20
123.7016729711
 10
66.9580914186
 20
123.448172015
 10
66.9474785576
 20
123.1890890428
 10
66.9475286542
 20
122.92435524
 10
66.9581118249
 20
122.6540394211
 10
66.9790775149
 20
122.380438786
 10
67.0103755393
 20
122.1043190679
 10
67.0520560831
 20
121.8249145336
 10
67.1041191462
 20
121.5422251831
  0
LWPOLYLINE
  5
4E1
100
AcDbEntity
  8
0
100
AcDbPolyline
 62
253
  6
CONTINUOUS
 90
13
 70
0
 10
67.5081707442
 20
124.5723000613
 10
67.4484543436
 20
124.3591862445
 10
67.3984695789
 20
124.1379333291
 10
67.3583350511
 20
123.9090663062
 10
67.3281459895
 20
123.6731282408
 10
67.3079740223
 20
123.4306789615
 10
67.2978670104
 20
123.1822937302
 10
67.2978489348
 20
122.9285619494
 10
67.3079198363
 20
122.6700856405
 10
67.3280558311
 20
122.4074779849
 10
67.358209161
 20
122.1413620487
 10
67.3983082903
 20
121.8723693106
 10
67.4482580862
 20
121.6011380343
  0
LWPOLYLINE
  5
4E2
100
AcDbEntity
  8
0
100
AcDbPolyline
 62
7
  6
CONTINUOUS
 90
25
 70
0
 10
68.1227367736
 20
124.8666872853
 10
68.0916727774
 20
124.7613071901
 10
68.0630508856
 20
124.6539405538
 10
68.0368710983
 20
124.5445873764
 10
68.013119018
 20
124.4331746803
 10
67.9918090422
 20
124.3197754431
 10
67.9729843627
 20
124.2046085981
 10
67.956651153
 20
124.087676844
 10
67.9428032395
 20
123.9689774822
 10
67.9314652934
 20
123.8487213496
 10
67.9226417527
 20
123.7269052071
 10
67.9163281794
 20
123.6035322938
 10
67.912535931
 20
123.4788231639
 10
67.9112696584
 20
123.352774387
 10
67.9125247107
 20
123.2253893936
 10
67.9162984921
 20
123.096899029
 10
67.9225955286
 20
122.9673029285
 10
67.9314112943
 20
122.8366014569
 10
67.9427296154
 20
122.7050265532
 10
67.9565564798
 20
122.572568688
 10
67.9728858998
 20
122.4392373908
 10
67.9916837389
 20
122.3052931892
 10
68.0129386184
 20
122.1708229258
 10
68.0366619171
 20
122.035739758
 10
68.0628536351
 20
121.9000436858
  0
LINE
  5
4E3
100
AcDbEntity
  8
0
100
AcDbLine
 62
253
  6
CONTINUOUS
 10
66.5102107081
 20
139.2132724763
 11
66.5240278052
 21
139.2214370508
  0
LWPOLYLINE
  5
4E4
100
AcDbEntity
  8
RACCORDO
100
AcDbPolyline
 62
253
  6
CONTINUOUS
 90
30
 70
0
 10
93.013976198
 20
154.2828117706
 10
93.0326375134
 20
154.2927412103
 10
93.050750777
 20
154.3029212111
 10
93.0683025374
 20
154.3133442133
 10
93.0852797608
 20
154.3240024772
 10
93.1016698384
 20
154.3348880873
 10
93.1174605962
 20
154.3459929582
 10
93.1326403068
 20
154.3573088425
 10
93.1471976983
 20
154.3688273374
 10
93.16112196
 20
154.380539889
 10
93.1744027517
 20
154.3924377994
 10
93.1870302106
 20
154.4045122328
 10
93.1989949591
 20
154.4167542222
 10
93.2102881119
 20
154.4291546763
 10
93.2209012827
 20
154.4417043865
 10
93.23082659
 20
154.4543940328
 10
93.240056663
 20
154.4672141917
 10
93.2485846475
 20
154.4801553426
 10
93.2564042103
 20
154.4932078749
 10
93.2635095447
 20
154.5063620955
 10
93.2698953742
 20
154.5196082358
 10
93.2755569566
 20
154.5329364587
 10
93.2804900878
 20
154.5463368663
 10
93.2846911045
 20
154.5597995073
 10
93.288156887
 20
154.5733143836
 10
93.2908848619
 20
154.5868714589
 10
93.2928730036
 20
154.6004606654
 10
93.2941198359
 20
154.6140719112
 10
93.2946244331
 20
154.6276950883
 10
93.2946363977
 20
154.6301409579
  0
LINE
  5
4E5
100
AcDbEntity
  8
0
100
AcDbLine
 62
7
  6
CONTINUOUS
 10
68.8305060914
 20
140.1473073961
 11
68.583018718
 21
140.018272924
  0
LINE
  5
4E6
100
AcDbEntity
  8
0
100
AcDbLine
 62
7
  6
CONTINUOUS
 10
66.4557938659
 20
139.2251060511
 11
66.6224407674
 21
139.3116934445
  0
LINE
  5
4E7
100
AcDbEntity
  8
0
100
AcDbLine
 62
253
  6
CONTINUOUS
 10
66.5240278052
 20
139.2214370508
 11
66.6224407674
 21
139.2725710462
  0
LINE
  5
4E8
100
AcDbEntity
  8
0
100
AcDbLine
 62
253
  6
CONTINUOUS
 10
66.3212968325
 20
139.6088942009
 11
66.6224407674
 21
139.7606272697
  0
LINE
  5
4E9
100
AcDbEntity
  8
0
100
AcDbLine
 62
7
  6
CONTINUOUS
 10
68.8948631571
 20
140.8371691561
 11
67.8158714082
 21
140.2935130823
  0
LINE
  5
4EA
100
AcDbEntity
  8
0
100
AcDbLine
 62
7
  6
CONTINUOUS
 10
66.3212968325
 20
139.4858683538
 11
66.6224407674
 21
139.6376014227
  0
LINE
  5
4EB
100
AcDbEntity
  8
0
100
AcDbLine
 62
253
  6
CONTINUOUS
 10
67.5609250959
 20
138.8150060995
 11
68.3725917796
 21
139.2069148022
  0
LINE
  5
4EC
100
AcDbEntity
  8
0
100
AcDbLine
 62
7
  6
CONTINUOUS
 10
67.4562810082
 20
138.5983248932
 11
68.8948631571
 21
139.2929362095
  0
LINE
  5
4ED
100
AcDbEntity
  8
0
100
AcDbLine
 62
7
  6
CONTINUOUS
 10
68.8305060914
 20
139.3266315812
 11
68.583018718
 21
139.2081786799
  0
LINE
  5
4EE
100
AcDbEntity
  8
0
100
AcDbLine
 62
7
  6
CONTINUOUS
 10
66.4616983744
 20
139.0175624737
 11
66.4828403053
 21
139.0270863873
  0
LWPOLYLINE
  5
4EF
100
AcDbEntity
  8
0
100
AcDbPolyline
 62
253
  6
CONTINUOUS
 90
13
 70
0
 10
67.5609250959
 20
138.8150060995
 10
67.5362573158
 20
138.8045493574
 10
67.5090964013
 20
138.795772324
 10
67.4798968998
 20
138.7888218396
 10
67.4491474384
 20
138.7838141734
 10
67.417362601
 20
138.7808330878
 10
67.3850743222
 20
138.7799284259
 10
67.3528228974
 20
138.7811152734
 10
67.3211479572
 20
138.7843737205
 10
67.2905794953
 20
138.7896491925
 10
67.2616289554
 20
138.7968533666
 10
67.2347806761
 20
138.8058656562
 10
67.210483808
 20
138.8165352269
  0
LWPOLYLINE
  5
4F0
100
AcDbEntity
  8
RACCORDO
100
AcDbPolyline
 62
253
  6
CONTINUOUS
 90
56
 70
0
 10
93.1315267575
 20
148.0924517371
 10
93.13852966
 20
148.0949640914
 10
93.1455899955
 20
148.0972512605
 10
93.1527068407
 20
148.0993145325
 10
93.1598631084
 20
148.1011679341
 10
93.1670737435
 20
148.1028003009
 10
93.1743853586
 20
148.1041757708
 10
93.1818151321
 20
148.1053053115
 10
93.1893420842
 20
148.1061828144
 10
93.1969545854
 20
148.1067480216
 10
93.2046636029
 20
148.1070029501
 10
93.2124521841
 20
148.1069529216
 10
93.2202657894
 20
148.1065437706
 10
93.2280916296
 20
148.1057763144
 10
93.2359344027
 20
148.1046593432
 10
93.2437647463
 20
148.1031517742
 10
93.2515663456
 20
148.1012634977
 10
93.2593449034
 20
148.0989970946
 10
93.2671023357
 20
148.096302522
 10
93.2748401472
 20
148.0931883179
 10
93.2825420245
 20
148.0896634694
 10
93.2901808385
 20
148.085681317
 10
93.2977563279
 20
148.0812455898
 10
93.3052494524
 20
148.0763756545
 10
93.3126032573
 20
148.0710502318
 10
93.3197958618
 20
148.0652911
 10
93.3268270828
 20
148.0591033578
 10
93.3336703871
 20
148.0524433016
 10
93.340307357
 20
148.0453480592
 10
93.346728908
 20
148.0378149801
 10
93.3529168625
 20
148.029747784
 10
93.3588668763
 20
148.0211747897
 10
93.3645441357
 20
148.0121183481
 10
93.3698765554
 20
148.0024837345
 10
93.3748502242
 20
147.9923115658
 10
93.3794276434
 20
147.9816302971
 10
93.383492372
 20
147.9703388363
 10
93.3870262213
 20
147.9584774392
 10
93.3899809401
 20
147.9460991883
 10
93.3921869331
 20
147.9331334418
 10
93.3936042242
 20
147.9195403238
 10
93.394190922
 20
147.9054810955
 10
93.393787977
 20
147.8911689147
 10
93.3923248381
 20
147.8765751544
 10
93.3898234886
 20
147.8618109563
 10
93.3863089104
 20
147.8472348515
 10
93.381781817
 20
147.8329110584
 10
93.3762555168
 20
147.8187691983
 10
93.3698086995
 20
147.8049142648
 10
93.3624599572
 20
147.7913536066
 10
93.3542141563
 20
147.7780577114
 10
93.3451377133
 20
147.7650632111
 10
93.3352441553
 20
147.7523585232
 10
93.3245443535
 20
147.7399290069
 10
93.3131034478
 20
147.7278019829
 10
93.3009375562
 20
147.7159654355
  0
LWPOLYLINE
  5
4F1
100
AcDbEntity
  8
0
100
AcDbPolyline
 62
253
  6
CONTINUOUS
 90
13
 70
0
 10
67.210483808
 20
151.4250482224
 10
67.2347807377
 20
151.4143786077
 10
67.2616290813
 20
151.4053662885
 10
67.2905796834
 20
151.3981620986
 10
67.3211482
 20
151.3928866235
 10
67.3528231848
 20
151.3896281841
 10
67.3850746427
 20
151.3884413534
 10
67.4173629549
 20
151.3893460408
 10
67.4491478112
 20
151.3923271591
 10
67.4798972408
 20
151.3973348551
 10
67.5090966551
 20
151.4042853544
 10
67.536257451
 20
151.4130623821
 10
67.5609250958
 20
151.4235190919
  0
LINE
  5
4F2
100
AcDbEntity
  8
0
100
AcDbLine
 62
7
  6
CONTINUOUS
 10
68.1007444538
 20
148.5487879447
 11
69.018518532
 21
148.0899009056
  0
LINE
  5
4F3
100
AcDbEntity
  8
0
100
AcDbLine
 62
7
  6
CONTINUOUS
 10
66.5442678205
 20
149.8596125788
 11
66.3212968325
 21
149.9710980728
  0
LINE
  5
4F4
100
AcDbEntity
  8
0
100
AcDbLine
 62
253
  6
CONTINUOUS
 10
66.5930648906
 20
149.9379458456
 11
66.3212968325
 21
150.0738298746
  0
LINE
  5
4F5
100
AcDbEntity
  8
0
100
AcDbLine
 62
253
  6
CONTINUOUS
 10
66.3212968325
 20
150.4454728107
 11
66.6663747503
 21
150.2729338519
  0
LINE
  5
4F6
100
AcDbEntity
  8
0
100
AcDbLine
 62
253
  6
CONTINUOUS
 10
66.3212968325
 20
150.8381374721
 11
66.6224407674
 21
150.6875655047
  0
LINE
  5
4F7
100
AcDbEntity
  8
RACCORDO
100
AcDbLine
 62
253
  6
CONTINUOUS
 10
64.5865771258
 20
151.7367656655
 11
49.7174678053
 21
159.1713203258
  0
LINE
  5
4F8
100
AcDbEntity
  8
0
100
AcDbLine
 62
7
  6
CONTINUOUS
 10
70.9703426777
 20
148.9952219563
 11
69.9972322804
 21
149.4817771549
  0
LINE
  5
4F9
100
AcDbEntity
  8
0
100
AcDbLine
 62
7
  6
CONTINUOUS
 10
70.1032982975
 20
149.5285943764
 11
70.38614101
 21
149.3871730202
  0
LINE
  5
4FA
100
AcDbEntity
  8
0
100
AcDbLine
 62
7
  6
CONTINUOUS
 10
67.1356321656
 20
151.3281607571
 11
67.210483808
 21
151.2907349359
  0
LINE
  5
4FB
100
AcDbEntity
  8
0
100
AcDbLine
 62
7
  6
CONTINUOUS
 10
66.3212968325
 20
151.7464376127
 11
66.4225267864
 21
151.6958226358
  0
LINE
  5
4FC
100
AcDbEntity
  8
0
100
AcDbLine
 62
253
  6
CONTINUOUS
 10
66.3212968325
 20
151.8080766938
 11
66.3835428076
 21
151.7769537063
  0
LWPOLYLINE
  5
4FD
100
AcDbEntity
  8
0
100
AcDbPolyline
 62
7
  6
CONTINUOUS
 90
18
 70
0
 10
66.4225593071
 20
151.6958050485
 10
66.4256571822
 20
151.694217999
 10
66.4418841944
 20
151.6846932154
 10
66.4595412275
 20
151.672140316
 10
66.4779069388
 20
151.6567191303
 10
66.496503305
 20
151.6385729364
 10
66.5149595905
 20
151.6178453415
 10
66.5328495113
 20
151.5948267351
 10
66.5498306991
 20
151.5698016882
 10
66.5655668021
 20
151.5431405959
 10
66.5797433864
 20
151.5152980438
 10
66.5921391119
 20
151.4866726431
 10
66.602541508
 20
151.4577696939
 10
66.6107661759
 20
151.4292574042
 10
66.6167805335
 20
151.4015878225
 10
66.6205963904
 20
151.3752758718
 10
66.6222994014
 20
151.3510811464
 10
66.6224408632
 20
151.342204684
  0
LWPOLYLINE
  5
4FE
100
AcDbEntity
  8
0
100
AcDbPolyline
 62
253
  6
CONTINUOUS
 90
4
 70
0
 10
66.3835428076
 20
151.7769537063
 10
66.413678061
 20
151.7598012803
 10
66.4428453895
 20
151.739553223
 10
66.4710447932
 20
151.7162095343
  0
LWPOLYLINE
  5
4FF
100
AcDbEntity
  8
0
100
AcDbPolyline
 62
253
  6
CONTINUOUS
 90
7
 70
0
 10
66.6663747503
 20
151.2891407637
 10
66.6535042034
 20
151.2964734065
 10
66.6426461773
 20
151.3045793433
 10
66.6339844001
 20
151.3133214138
 10
66.6276654374
 20
151.322551694
 10
66.6237962122
 20
151.3321139986
 10
66.6224407674
 20
151.3421737723
  0
LINE
  5
500
100
AcDbEntity
  8
0
100
AcDbLine
 62
253
  6
CONTINUOUS
 10
66.4710447932
 20
151.7162095343
 11
66.4985559811
 21
151.6894515383
  0
LWPOLYLINE
  5
501
100
AcDbEntity
  8
0
100
AcDbPolyline
 62
253
  6
CONTINUOUS
 90
3
 70
0
 10
57.7412365286
 20
163.7732115338
 10
57.7580376345
 20
163.7548413171
 10
57.7735579716
 20
163.7344614133
  0
LWPOLYLINE
  5
502
100
AcDbEntity
  8
0
100
AcDbPolyline
 62
253
  6
CONTINUOUS
 90
9
 70
0
 10
66.4985559811
 20
151.6894515383
 10
66.5250992442
 20
151.659597911
 10
66.549835455
 20
151.6276046799
 10
66.5727129997
 20
151.5933933728
 10
66.5937834921
 20
151.5570424619
 10
66.6123626463
 20
151.519743391
 10
66.6283622242
 20
151.4814962611
 10
66.6418704638
 20
151.4423009713
 10
66.6524677934
 20
151.4033486625
  0
LWPOLYLINE
  5
503
100
AcDbEntity
  8
0
100
AcDbPolyline
 62
253
  6
CONTINUOUS
 90
8
 70
0
 10
62.192975354
 20
161.0917400202
 10
62.2069404622
 20
161.0697097209
 10
62.2191323698
 20
161.0463613133
 10
62.2293095607
 20
161.0221440339
 10
62.2372512455
 20
160.9976398947
 10
62.2428560149
 20
160.9733266906
 10
62.2460957003
 20
160.9495565086
 10
62.2469640119
 20
160.9267122515
  0
LWPOLYLINE
  5
504
100
AcDbEntity
  8
0
100
AcDbPolyline
 62
7
  6
CONTINUOUS
 90
9
 70
0
 10
66.6191866463
 20
155.6790260503
 10
66.6051527193
 20
155.7052328458
 10
66.5929622996
 20
155.7312901113
 10
66.5826849514
 20
155.7570854138
 10
66.5743985406
 20
155.7825375398
 10
66.5680676162
 20
155.807503079
 10
66.563635677
 20
155.831792898
 10
66.5611527548
 20
155.8554101281
 10
66.5606080132
 20
155.8721472833
  0
LWPOLYLINE
  5
505
100
AcDbEntity
  8
0
100
AcDbPolyline
 62
253
  6
CONTINUOUS
 90
6
 70
0
 10
65.2952098288
 20
164.2156665501
 10
65.287134728
 20
164.2386568828
 10
65.2766683997
 20
164.2598599981
 10
65.2639899161
 20
164.2789129992
 10
65.2493162016
 20
164.2954898234
 10
65.2328983011
 20
164.3093068041
  0
LWPOLYLINE
  5
506
100
AcDbEntity
  8
0
100
AcDbPolyline
 62
7
  6
CONTINUOUS
 90
13
 70
0
 10
75.3944671221
 20
166.9953398257
 10
75.3928374613
 20
167.035901727
 10
75.388060979
 20
167.0745921184
 10
75.3803051323
 20
167.1112876117
 10
75.3697364722
 20
167.1458843465
 10
75.3565192529
 20
167.1782964835
 10
75.340846617
 20
167.208394054
 10
75.3230194557
 20
167.2359387262
 10
75.3032072702
 20
167.26096924
 10
75.2813982367
 20
167.2836558105
 10
75.2577149903
 20
167.3039232429
 10
75.2324767612
 20
167.3215625569
 10
75.2059418855
 20
167.336487404
  0
LINE
  5
507
100
AcDbEntity
  8
0
100
AcDbLine
 62
253
  6
CONTINUOUS
 10
75.3358884783
 20
166.9246291475
 11
75.3358884783
 21
166.5112167894
  0
LINE
  5
508
100
AcDbEntity
  8
0
100
AcDbLine
 62
7
  6
CONTINUOUS
 10
75.3944671221
 20
166.9953398257
 11
75.3944671221
 21
166.5476950139
  0
LINE
  5
509
100
AcDbEntity
  8
0
100
AcDbLine
 62
253
  6
CONTINUOUS
 10
76.6086806844
 20
163.4644225652
 11
76.6086806844
 21
163.816245956
  0
LINE
  5
50A
100
AcDbEntity
  8
0
100
AcDbLine
 62
7
  6
CONTINUOUS
 10
76.8677796865
 20
163.7783862178
 11
76.8674997295
 21
163.7610627149
  0
LINE
  5
50B
100
AcDbEntity
  8
0
100
AcDbLine
 62
7
  6
CONTINUOUS
 10
73.5744588585
 20
138.556164022
 11
73.3851093261
 21
136.4260863454
  0
LINE
  5
50C
100
AcDbEntity
  8
0
100
AcDbLine
 62
7
  6
CONTINUOUS
 10
73.4247802709
 20
136.5323984986
 11
73.3851093261
 21
136.4260863454
  0
LINE
  5
50D
100
AcDbEntity
  8
0
100
AcDbLine
 62
7
  6
CONTINUOUS
 10
73.8239517483
 20
139.0195084903
 11
72.8301225257
 21
137.1738235362
  0
LINE
  5
50E
100
AcDbEntity
  8
0
100
AcDbLine
 62
7
  6
CONTINUOUS
 10
78.3823646279
 20
141.6340086742
 11
73.8239517483
 21
139.0195084903
  0
LINE
  5
50F
100
AcDbEntity
  8
0
100
AcDbLine
 62
7
  6
CONTINUOUS
 10
77.4939799493
 20
139.55515045
 11
77.9347851242
 21
139.7251016658
  0
LINE
  5
510
100
AcDbEntity
  8
0
100
AcDbLine
 62
253
  6
CONTINUOUS
 10
77.4939799493
 20
139.5040395956
 11
77.9347851247
 21
139.6739908117
  0
LWPOLYLINE
  5
511
100
AcDbEntity
  8
RACCORDO
100
AcDbPolyline
 62
253
  6
CONTINUOUS
 90
16
 70
0
 10
65.2803396844
 20
151.6655215273
 10
65.2416460084
 20
151.655641898
 10
65.1997146971
 20
151.6477889276
 10
65.1549901553
 20
151.6420458451
 10
65.1079463911
 20
151.6384735178
 10
65.0590819928
 20
151.6371098067
 10
65.0089148447
 20
151.6379691649
 10
64.9579766377
 20
151.6410424847
 10
64.9068072351
 20
151.6462971937
 10
64.8559489504
 20
151.6536776006
 10
64.8059407995
 20
151.6631054848
 10
64.7573127886
 20
151.6744809259
 10
64.7105802965
 20
151.6876833628
 10
64.6662386125
 20
151.702572871
 10
64.6247576872
 20
151.7189916455
 10
64.5865771518
 20
151.7367656737
  0
LINE
  5
512
100
AcDbEntity
  8
RACCORDO
100
AcDbLine
 62
253
  6
CONTINUOUS
 10
65.2761496329
 20
152.8089823327
 11
50.3892165861
 21
160.252448856
  0
LINE
  5
513
100
AcDbEntity
  8
0
100
AcDbLine
 62
7
  6
CONTINUOUS
 10
69.018518532
 20
151.1146099181
 11
68.1755960962
 21
151.5360711361
  0
LINE
  5
514
100
AcDbEntity
  8
0
100
AcDbLine
 62
253
  6
CONTINUOUS
 10
66.6802344939
 20
152.3395930074
 11
66.3212968325
 21
152.519061838
  0
LINE
  5
515
100
AcDbEntity
  8
0
100
AcDbLine
 62
253
  6
CONTINUOUS
 10
66.8539260105
 20
152.6429121416
 11
66.1632700373
 21
152.9882401282
  0
LINE
  5
516
100
AcDbEntity
  8
0
100
AcDbLine
 62
253
  6
CONTINUOUS
 10
68.1369614656
 20
152.0348923738
 11
68.9534418008
 21
151.6266522062
  0
LINE
  5
517
100
AcDbEntity
  8
0
100
AcDbLine
 62
7
  6
CONTINUOUS
 10
65.9678645959
 20
153.1588067828
 11
51.0456295763
 21
160.6199242926
  0
LINE
  5
518
100
AcDbEntity
  8
0
100
AcDbLine
 62
253
  6
CONTINUOUS
 10
54.0011391619
 20
159.4174299626
 11
54.6834420021
 21
159.0762785425
  0
LINE
  5
519
100
AcDbEntity
  8
0
100
AcDbLine
 62
253
  6
CONTINUOUS
 10
68.2152683427
 20
152.3103653722
 11
68.8948631571
 21
151.9705679651
  0
LINE
  5
51A
100
AcDbEntity
  8
0
100
AcDbLine
 62
7
  6
CONTINUOUS
 10
64.6947059527
 20
154.3395631184
 11
64.3396034996
 21
154.5171143449
  0
LINE
  5
51B
100
AcDbEntity
  8
0
100
AcDbLine
 62
7
  6
CONTINUOUS
 10
58.330744922
 20
157.5215436337
 11
57.9756424689
 21
157.6990948603
  0
LINE
  5
51C
100
AcDbEntity
  8
0
100
AcDbLine
 62
7
  6
CONTINUOUS
 10
55.5677311108
 20
159.5533728037
 11
55.0495685679
 21
159.8124540752
  0
LINE
  5
51D
100
AcDbEntity
  8
0
100
AcDbLine
 62
7
  6
CONTINUOUS
 10
56.2438976905
 20
159.6483022158
 11
57.0801370728
 21
159.2301825246
  0
LINE
  5
51E
100
AcDbEntity
  8
0
100
AcDbLine
 62
7
  6
CONTINUOUS
 10
67.7115316924
 20
153.9144852148
 11
68.5477710747
 21
153.4963655237
  0
LINE
  5
51F
100
AcDbEntity
  8
0
100
AcDbLine
 62
7
  6
CONTINUOUS
 10
68.8970302317
 20
153.6708113908
 11
64.8555993348
 21
155.6915268393
  0
LINE
  5
520
100
AcDbEntity
  8
0
100
AcDbLine
 62
7
  6
CONTINUOUS
 10
64.2826673918
 20
155.9779928108
 11
58.4916383041
 21
158.8735073546
  0
LINE
  5
521
100
AcDbEntity
  8
0
100
AcDbLine
 62
7
  6
CONTINUOUS
 10
57.9187063611
 20
159.1599733261
 11
53.8772754642
 21
161.1806887746
  0
LINE
  5
522
100
AcDbEntity
  8
0
100
AcDbLine
 62
253
  6
CONTINUOUS
 10
68.9534418008
 20
153.7247910478
 11
64.6947059527
 21
155.8541589719
  0
LINE
  5
523
100
AcDbEntity
  8
0
100
AcDbLine
 62
253
  6
CONTINUOUS
 10
64.3396034996
 20
156.0317101984
 11
58.330744922
 21
159.0361394872
  0
LINE
  5
524
100
AcDbEntity
  8
0
100
AcDbLine
 62
253
  6
CONTINUOUS
 10
57.9756424689
 20
159.2136907137
 11
53.7169066208
 21
161.3430586378
  0
LWPOLYLINE
  5
525
100
AcDbEntity
  8
0
100
AcDbPolyline
 62
7
  6
CONTINUOUS
 90
13
 70
0
 10
58.4918429711
 20
158.8733109889
 10
58.4866316135
 20
158.8760124934
 10
58.4694707834
 20
158.8860635414
 10
58.4527106053
 20
158.8973449452
 10
58.4364368776
 20
158.9097771167
 10
58.4207740046
 20
158.9233363876
 10
58.4056992574
 20
158.9377233937
 10
58.3912590852
 20
158.9528971961
 10
58.3775472673
 20
158.9688090008
 10
58.3646022264
 20
158.9851601896
 10
58.3524633078
 20
159.0018210444
 10
58.3411693646
 20
159.018829331
 10
58.330744922
 20
159.0361394872
  0
LWPOLYLINE
  5
526
100
AcDbEntity
  8
0
100
AcDbPolyline
 62
7
  6
CONTINUOUS
 90
13
 70
0
 10
64.8558040018
 20
155.6913304735
 10
64.8505926441
 20
155.694031978
 10
64.8334318141
 20
155.704083026
 10
64.816671636
 20
155.7153644298
 10
64.8003979083
 20
155.7277966014
 10
64.7847350352
 20
155.7413558723
 10
64.7696602881
 20
155.7557428783
 10
64.7552201159
 20
155.7709166808
 10
64.741508298
 20
155.7868284854
 10
64.728563257
 20
155.8031796742
 10
64.7164243385
 20
155.8198405291
 10
64.7051303953
 20
155.8368488157
 10
64.6947059527
 20
155.8541589719
  0
LWPOLYLINE
  5
527
100
AcDbEntity
  8
0
100
AcDbPolyline
 62
7
  6
CONTINUOUS
 90
11
 70
0
 10
53.8777040832
 20
161.1804759327
 10
53.8578019415
 20
161.1916177279
 10
53.8389960964
 20
161.2041932155
 10
53.8207611554
 20
161.2182544974
 10
53.8033084807
 20
161.2335711321
 10
53.7866369607
 20
161.250008558
 10
53.7707289006
 20
161.2673999387
 10
53.7558022377
 20
161.2855343443
 10
53.7419183522
 20
161.3042617375
 10
53.7289658244
 20
161.32347726
 10
53.7169066208
 20
161.3430586378
  0
LWPOLYLINE
  5
528
100
AcDbEntity
  8
0
100
AcDbPolyline
 62
253
  6
CONTINUOUS
 90
8
 70
0
 10
53.6518298896
 20
161.9028966854
 10
53.6348465775
 20
161.9125582827
 10
53.6204841449
 20
161.9232299657
 10
53.6089802249
 20
161.9347351664
 10
53.6005251553
 20
161.9468835258
 10
53.5952588292
 20
161.9594740437
 10
53.5932683803
 20
161.972298404
 10
53.5932512458
 20
161.9736073639
  0
LWPOLYLINE
  5
529
100
AcDbEntity
  8
0
100
AcDbPolyline
 62
253
  6
CONTINUOUS
 90
9
 70
0
 10
53.6728142529
 20
162.8211982831
 10
53.6654367433
 20
162.8254140975
 10
53.6541696949
 20
162.8343132684
 10
53.6442884655
 20
162.8455132672
 10
53.6359696126
 20
162.8588817493
 10
53.6293797009
 20
162.8741863566
 10
53.624615617
 20
162.8911886918
 10
53.6217306152
 20
162.9096802193
 10
53.6207644672
 20
162.9294085703
  0
LWPOLYLINE
  5
52A
100
AcDbEntity
  8
0
100
AcDbPolyline
 62
7
  6
CONTINUOUS
 90
11
 70
0
 10
53.6569756037
 20
162.8300294944
 10
53.6391485694
 20
162.8424434555
 10
53.6226688292
 20
162.8568188356
 10
53.6078484692
 20
162.8729188069
 10
53.5948562449
 20
162.8905710302
 10
53.5837833143
 20
162.9097171205
 10
53.5748224263
 20
162.9301552977
 10
53.5681605609
 20
162.9515992344
 10
53.5639157884
 20
162.9738705688
 10
53.5622155271
 20
162.996672475
 10
53.5621858327
 20
163.0001496852
  0
LWPOLYLINE
  5
52B
100
AcDbEntity
  8
0
100
AcDbPolyline
 62
7
  6
CONTINUOUS
 90
11
 70
0
 10
65.9606335964
 20
156.6782004981
 10
65.942806562
 20
156.6906144592
 10
65.9263268219
 20
156.7049898393
 10
65.9115064618
 20
156.7210898106
 10
65.8985142375
 20
156.7387420339
 10
65.887441307
 20
156.7578881242
 10
65.8784804189
 20
156.7783263014
 10
65.8718185536
 20
156.7997702381
 10
65.867573781
 20
156.8220415724
 10
65.8658735197
 20
156.8448434786
 10
65.8658438254
 20
156.8483206889
  0
LWPOLYLINE
  5
52C
100
AcDbEntity
  8
0
100
AcDbPolyline
 62
253
  6
CONTINUOUS
 90
3
 70
0
 10
62.1606539111
 20
161.1304901407
 10
62.1774550169
 20
161.112119924
 10
62.192975354
 20
161.0917400202
  0
LWPOLYLINE
  5
52D
100
AcDbEntity
  8
0
100
AcDbPolyline
 62
253
  6
CONTINUOUS
 90
8
 70
0
 10
70.0768612876
 20
157.5831414506
 10
70.0907961579
 20
157.561267876
 10
70.102961493
 20
157.5381252551
 10
70.1131492213
 20
157.5141094112
 10
70.1211850954
 20
157.489631103
 10
70.1269316724
 20
157.4651089988
 10
70.130290665
 20
157.4409625162
 10
70.1312046222
 20
157.4176046483
  0
LWPOLYLINE
  5
52E
100
AcDbEntity
  8
0
100
AcDbPolyline
 62
253
  6
CONTINUOUS
 90
7
 70
0
 10
70.1312046222
 20
157.0101090138
 10
70.1390034256
 20
156.9958933775
 10
70.1442358808
 20
156.9830937127
 10
70.1468134497
 20
156.9719266019
 10
70.1466925172
 20
156.9625810034
 10
70.1438751298
 20
156.9552150539
 10
70.1428920654
 20
156.9538667902
  0
LWPOLYLINE
  5
52F
100
AcDbEntity
  8
0
100
AcDbPolyline
 62
253
  6
CONTINUOUS
 90
6
 70
0
 10
70.8275187181
 20
161.4517142853
 10
70.819340508
 20
161.4745447029
 10
70.8087650391
 20
161.495603485
 10
70.7959712951
 20
161.5145342239
 10
70.7811758029
 20
161.5310165276
 10
70.7646289679
 20
161.5447714422
  0
LWPOLYLINE
  5
530
100
AcDbEntity
  8
0
100
AcDbPolyline
 62
7
  6
CONTINUOUS
 90
8
 70
0
 10
76.901523897
 20
163.8121808444
 10
76.9007978498
 20
163.8255090172
 10
76.8993082908
 20
163.8363047264
 10
76.8971794131
 20
163.8445603378
 10
76.8945093353
 20
163.8502413152
 10
76.891421265
 20
163.8533751598
 10
76.8881022572
 20
163.8540535553
 10
76.8867177149
 20
163.8536268193
  0
LWPOLYLINE
  5
531
100
AcDbEntity
  8
SMUSSO
100
AcDbPolyline
 62
7
  6
CONTINUOUS
 90
5
 70
0
 10
77.9256083714
 20
140.3151344975
 10
77.9265260416
 20
140.2759661539
 10
77.9283613819
 20
140.236448795
 10
77.9311143923
 20
140.1965384927
 10
77.9347850729
 20
140.1562352472
  0
LINE
  5
532
100
AcDbEntity
  8
0
100
AcDbLine
 62
7
  6
CONTINUOUS
 10
76.901523897
 20
163.8121808444
 11
76.9015526871
 21
163.8072233369
  0
LINE
  5
533
100
AcDbEntity
  8
SMUSSO
100
AcDbLine
 62
7
  6
CONTINUOUS
 10
77.923875887
 20
140.6061668271
 11
77.9256083714
 21
140.3151344975
  0
LINE
  5
534
100
AcDbEntity
  8
0
100
AcDbLine
 62
7
  6
CONTINUOUS
 10
76.8674997295
 20
163.7610627149
 11
76.8674997295
 21
163.6813918678
  0
LINE
  5
535
100
AcDbEntity
  8
0
100
AcDbLine
 62
7
  6
CONTINUOUS
 10
77.4939799493
 20
138.5354428874
 11
77.4939799493
 21
141.1244712613
  0
LINE
  5
536
100
AcDbEntity
  8
SMUSSO
100
AcDbLine
 62
7
  6
CONTINUOUS
 10
77.9347851187
 20
141.3772972398
 11
77.9347851385
 21
138.2363837843
  0
LINE
  5
537
100
AcDbEntity
  8
SMUSSO
100
AcDbLine
 62
7
  6
CONTINUOUS
 10
77.937264174
 20
141.3787191142
 11
77.937264174
 21
138.2351442665
  0
LINE
  5
538
100
AcDbEntity
  8
0
100
AcDbLine
 62
7
  6
CONTINUOUS
 10
78.3823646279
 20
124.0324979843
 11
78.3823646279
 21
138.0125940396
  0
LINE
  5
539
100
AcDbEntity
  8
0
100
AcDbLine
 62
7
  6
CONTINUOUS
 10
78.3823646279
 20
141.6340086742
 11
78.3823646279
 21
155.6141047295
  0
LINE
  5
53A
100
AcDbEntity
  8
RACCORDO
100
AcDbLine
 62
7
  6
CONTINUOUS
 10
78.4118029765
 20
155.1127224868
 11
78.4118029765
 21
124.5044418784
  0
LWPOLYLINE
  5
53B
100
AcDbEntity
  8
SMUSSO
100
AcDbPolyline
 62
7
  6
CONTINUOUS
 90
6
 70
0
 10
77.9347850729
 20
140.5036324466
 10
77.9311143923
 20
140.4669998816
 10
77.9283613819
 20
140.4298425898
 10
77.9265260416
 20
140.3921605712
 10
77.9256083714
 20
140.3539098978
 10
77.9255215917
 20
140.3249980081
  0
LWPOLYLINE
  5
53C
100
AcDbEntity
  8
SMUSSO
100
AcDbPolyline
 62
7
  6
CONTINUOUS
 90
8
 70
0
 10
77.9347851121
 20
140.82412386
 10
77.9341931809
 20
140.8190913407
 10
77.9304692386
 20
140.7798982243
 10
77.9275705021
 20
140.7401927893
 10
77.9254987235
 20
140.6999990358
 10
77.9242551553
 20
140.6593412591
 10
77.923840549
 20
140.6182440347
 10
77.923875887
 20
140.6061668271
  0
LINE
  5
53D
100
AcDbEntity
  8
0
100
AcDbLine
 62
253
  6
CONTINUOUS
 10
70.1389588178
 20
115.7850606428
 11
70.1312046222
 21
115.7605048744
  0
LWPOLYLINE
  5
53E
100
AcDbEntity
  8
0
100
AcDbPolyline
 62
7
  6
CONTINUOUS
 90
4
 70
0
 10
69.5622064553
 20
114.9909345918
 10
69.5681553647
 20
115.0094154478
 10
69.5717645948
 20
115.0298303155
 10
69.5729682116
 20
115.0518278895
  0
LWPOLYLINE
  5
53F
100
AcDbEntity
  8
0
100
AcDbPolyline
 62
7
  6
CONTINUOUS
 90
8
 70
0
 10
68.8948631584
 20
119.0123438516
 10
68.895807745
 20
119.0149915454
 10
68.8984200081
 20
119.0187502349
 10
68.9025798894
 20
119.0232414039
 10
68.9081737094
 20
119.0284825604
 10
68.9150579285
 20
119.0345659995
 10
68.923141077
 20
119.0411709007
 10
68.932320902
 20
119.0482149402
  0
LINE
  5
540
100
AcDbEntity
  8
0
100
AcDbLine
 62
7
  6
CONTINUOUS
 10
66.6018474918
 20
120.104168768
 11
66.6018162603
 21
120.1041156716
  0
LWPOLYLINE
  5
541
100
AcDbEntity
  8
RACCORDO
100
AcDbPolyline
 62
253
  6
CONTINUOUS
 90
61
 70
0
 10
86.2747636235
 20
150.9401126515
 10
86.3117777116
 20
150.9902064517
 10
86.3476428345
 20
151.0405430359
 10
86.3823657082
 20
151.0910784671
 10
86.416051316
 20
151.1418734377
 10
86.4486085987
 20
151.1927803459
 10
86.4797654667
 20
151.2434390854
 10
86.5095136484
 20
151.2937594503
 10
86.5379125775
 20
151.3437403848
 10
86.5648133139
 20
151.3931528944
 10
86.5902257561
 20
151.4419254845
 10
86.6142073571
 20
151.4900480459
 10
86.6366908201
 20
151.537385954
 10
86.657709656
 20
151.583919003
 10
86.6773023154
 20
151.6295999625
 10
86.6954172681
 20
151.6742581057
 10
86.7120714663
 20
151.7178287322
 10
86.7273298661
 20
151.7603268044
 10
86.7412183893
 20
151.8017063231
 10
86.7537668544
 20
151.8419413482
 10
86.7650229401
 20
151.8810247002
 10
86.7750391785
 20
151.9189428424
 10
86.7838460483
 20
151.9556867318
 10
86.7914844736
 20
151.9912471092
 10
86.7980221337
 20
152.0256142411
 10
86.8034846855
 20
152.0587575296
 10
86.8079127845
 20
152.0907036458
 10
86.8113937014
 20
152.121530759
 10
86.8139553729
 20
152.1512520202
 10
86.8156242824
 20
152.1798571093
 10
86.8164816118
 20
152.2073893691
 10
86.8165508619
 20
152.2338450402
 10
86.8158558815
 20
152.2592385731
 10
86.8144753485
 20
152.2836407348
 10
86.8124324571
 20
152.3070490526
 10
86.809743219
 20
152.3294805741
 10
86.8064714926
 20
152.3510328125
 10
86.8026324501
 20
152.3717284637
 10
86.7982414104
 20
152.3915582528
 10
86.7933593889
 20
152.4105694675
 10
86.7880043303
 20
152.4287611127
 10
86.7821843104
 20
152.4461506218
 10
86.7759433313
 20
152.4628109145
 10
86.7692985108
 20
152.4787454925
 10
86.7622533957
 20
152.4939656811
 10
86.754828957
 20
152.508551528
 10
86.7470299038
 20
152.5225217301
 10
86.7388673414
 20
152.5358676245
 10
86.7303700324
 20
152.548624649
 10
86.7215474091
 20
152.5607971809
 10
86.7124035749
 20
152.5723911403
 10
86.7029583506
 20
152.5834424732
 10
86.6932323269
 20
152.5939459218
 10
86.6832163906
 20
152.6039164119
 10
86.6728846055
 20
152.6134153061
 10
86.6622569007
 20
152.6224408811
 10
86.6513225252
 20
152.6309974702
 10
86.6400082084
 20
152.6391460838
 10
86.6282919167
 20
152.6469016081
 10
86.6162034836
 20
152.6542391739
 10
86.603746972
 20
152.6611544994
  0
LWPOLYLINE
  5
542
100
AcDbEntity
  8
0
100
AcDbPolyline
 62
7
  6
CONTINUOUS
 90
9
 70
0
 10
66.5930648906
 20
129.1226512719
 10
66.5818061794
 20
129.1103490112
 10
66.5723437674
 20
129.0988746674
 10
66.5645943382
 20
129.0883044697
 10
66.558400041
 20
129.0787541814
 10
66.5537338205
 20
129.0702028799
 10
66.5507214879
 20
129.0625143221
 10
66.5492981295
 20
129.0557054614
 10
66.5491401983
 20
129.0530690533
  0
LINE
  5
543
100
AcDbEntity
  8
RACCORDO
100
AcDbLine
 62
253
  6
CONTINUOUS
 10
94.2098131874
 20
148.2945114137
 11
94.2148206072
 21
148.2977691612
  0
LINE
  5
544
100
AcDbEntity
  8
DRAFT
100
AcDbLine
 62
7
  6
CONTINUOUS
 10
93.2946363977
 20
147.7025827929
 11
94.2098131846
 21
148.2945114119
  0
LWPOLYLINE
  5
545
100
AcDbEntity
  8
0
100
AcDbPolyline
 62
253
  6
CONTINUOUS
 90
13
 70
0
 10
67.2811783292
 20
132.5493766736
 10
67.2581026536
 20
132.5359863402
 10
67.2354221222
 20
132.5191203388
 10
67.2135248327
 20
132.4990674
 10
67.1927854207
 20
132.4761707273
 10
67.1735587684
 20
132.4508222448
 10
67.1561739037
 20
132.4234559299
 10
67.1409282324
 20
132.394540211
 10
67.1280824424
 20
132.3645698299
 10
67.1178561672
 20
132.3340575195
 10
67.1104242477
 20
132.303525298
 10
67.105913723
 20
132.2734955439
 10
67.1044016339
 20
132.244481975
  0
LWPOLYLINE
  5
546
100
AcDbEntity
  8
0
100
AcDbPolyline
 62
7
  6
CONTINUOUS
 90
15
 70
0
 10
66.815251765
 20
132.7823399557
 10
66.798771668
 20
132.7738607372
 10
66.7805557047
 20
132.7642829186
 10
66.7607487381
 20
132.7536026487
 10
66.7393488581
 20
132.7417798259
 10
66.7166931288
 20
132.7289012969
 10
66.6934163449
 20
132.7152727865
 10
66.6697680744
 20
132.7012268325
 10
66.6457508697
 20
132.6867974294
 10
66.6216031314
 20
132.6719191019
 10
66.5974717147
 20
132.6567943122
 10
66.5734688663
 20
132.6415974877
 10
66.5498354796
 20
132.6262095195
 10
66.5267737391
 20
132.6107419144
 10
66.4828403053
 20
132.5809008631
  0
LINE
  5
547
100
AcDbEntity
  8
0
100
AcDbLine
 62
7
  6
CONTINUOUS
 10
67.416292529
 20
133.0828603377
 11
66.815251765
 21
132.7823399557
  0
LINE
  5
548
100
AcDbEntity
  8
0
100
AcDbLine
 62
7
  6
CONTINUOUS
 10
67.981977954
 20
132.9767943205
 11
68.8658614305
 21
133.4187360587
  0
LINE
  5
549
100
AcDbEntity
  8
0
100
AcDbLine
 62
253
  6
CONTINUOUS
 10
77.4939799493
 20
138.9264498856
 11
77.9347851298
 21
139.1412266952
  0
LINE
  5
54A
100
AcDbEntity
  8
0
100
AcDbLine
 62
253
  6
CONTINUOUS
 10
77.4939799493
 20
138.5354428874
 11
77.9347851335
 21
138.7502196988
  0
LINE
  5
54B
100
AcDbEntity
  8
0
100
AcDbLine
 62
253
  6
CONTINUOUS
 10
68.8948631571
 20
133.3285353357
 11
67.2811783292
 21
132.5493766736
  0
LINE
  5
54C
100
AcDbEntity
  8
0
100
AcDbLine
 62
253
  6
CONTINUOUS
 10
68.8948631571
 20
132.704092456
 11
67.5609250959
 21
132.06000795
  0
LINE
  5
54D
100
AcDbEntity
  8
0
100
AcDbLine
 62
7
  6
CONTINUOUS
 10
66.4201047445
 20
132.5764656455
 11
66.3212968325
 21
132.5300105543
  0
LINE
  5
54E
100
AcDbEntity
  8
0
100
AcDbLine
 62
253
  6
CONTINUOUS
 10
66.447220269
 20
132.555716196
 11
66.3212968325
 21
132.4975605801
  0
LINE
  5
54F
100
AcDbEntity
  8
0
100
AcDbLine
 62
253
  6
CONTINUOUS
 10
66.6224407674
 20
132.172583629
 11
66.3212968325
 21
132.0335053802
  0
LWPOLYLINE
  5
550
100
AcDbEntity
  8
0
100
AcDbPolyline
 62
7
  6
CONTINUOUS
 90
16
 70
0
 10
67.981977954
 20
132.9767943205
 10
67.9621193681
 20
132.9679204711
 10
67.9410263447
 20
132.9602579818
 10
67.9186988836
 20
132.9538068526
 10
67.8948672918
 20
132.9485232692
 10
67.8698012625
 20
132.9444510459
 10
67.8443098749
 20
132.9417216256
 10
67.8183792502
 20
132.9403788226
 10
67.7920232672
 20
132.9403788226
 10
67.7660926424
 20
132.9417216256
 10
67.7406012549
 20
132.9444510459
 10
67.7155352255
 20
132.9485232692
 10
67.6917036337
 20
132.9538068526
 10
67.6693761727
 20
132.9602579818
 10
67.6482831492
 20
132.9679204711
 10
67.6284245634
 20
132.9767943205
  0
LINE
  5
551
100
AcDbEntity
  8
0
100
AcDbLine
 62
7
  6
CONTINUOUS
 10
73.6079780665
 20
136.760325599
 11
73.4604037637
 21
136.6947948665
  0
LINE
  5
552
100
AcDbEntity
  8
0
100
AcDbLine
 62
7
  6
CONTINUOUS
 10
77.4939799493
 20
138.4567863789
 11
73.6388322035
 21
136.7448985305
  0
LINE
  5
553
100
AcDbEntity
  8
0
100
AcDbLine
 62
7
  6
CONTINUOUS
 10
73.8239517483
 20
135.988419577
 11
78.3823646279
 21
138.0125940396
  0
LWPOLYLINE
  5
554
100
AcDbEntity
  8
0
100
AcDbPolyline
 62
253
  6
CONTINUOUS
 90
9
 70
0
 10
67.7850006865
 20
155.7970673888
 10
67.8052434198
 20
155.8028068605
 10
67.8250030577
 20
155.8117719068
 10
67.8439567677
 20
155.8238195298
 10
67.8617686552
 20
155.8387398474
 10
67.8781033764
 20
155.856239908
 10
67.8926847729
 20
155.8759933947
 10
67.9052909041
 20
155.8976656989
 10
67.9157234223
 20
155.920882306
  0
LWPOLYLINE
  5
555
100
AcDbEntity
  8
0
100
AcDbPolyline
 62
253
  6
CONTINUOUS
 90
4
 70
0
 10
67.7352880828
 20
155.79717006
 10
67.7444458696
 20
155.795598292
 10
67.7646194151
 20
155.7946510074
 10
67.7850006865
 20
155.7970673888
  0
LINE
  5
556
100
AcDbEntity
  8
DRAFT
100
AcDbLine
 62
7
  6
CONTINUOUS
 10
70.2447196538
 20
154.3799420417
 11
70.9394838402
 21
154.2396667297
  0
LINE
  5
557
100
AcDbEntity
  8
0
100
AcDbLine
 62
7
  6
CONTINUOUS
 10
67.7352889723
 20
155.7971698714
 11
68.3853751883
 21
155.6592660788
  0
LINE
  5
558
100
AcDbEntity
  8
0
100
AcDbLine
 62
253
  6
CONTINUOUS
 10
67.9157234223
 20
155.920882306
 11
68.6351727983
 21
155.7682643992
  0
LINE
  5
559
100
AcDbEntity
  8
DRAFT
100
AcDbLine
 62
7
  6
CONTINUOUS
 10
70.2447196538
 20
154.3799420417
 11
70.9703426777
 21
154.2242373109
  0
LWPOLYLINE
  5
55A
100
AcDbEntity
  8
0
100
AcDbPolyline
 62
253
  6
CONTINUOUS
 90
7
 70
0
 10
66.0633756731
 20
157.4050557215
 10
66.0445438871
 20
157.4126692284
 10
66.0260742542
 20
157.4171867127
 10
66.0082859569
 20
157.4185275264
 10
65.9914848511
 20
157.4166653541
 10
65.975964514
 20
157.4116292799
 10
65.9708789912
 20
157.4091272336
  0
LWPOLYLINE
  5
55B
100
AcDbEntity
  8
0
100
AcDbPolyline
 62
253
  6
CONTINUOUS
 90
10
 70
0
 10
53.997763856
 20
162.296725089
 10
53.9666879092
 20
162.3103075879
 10
53.9359029636
 20
162.3205212076
 10
53.9056454239
 20
162.3272901129
 10
53.8761477491
 20
162.3305645308
 10
53.8476343816
 20
162.3303203037
 10
53.8203201385
 20
162.3265587737
 10
53.794410455
 20
162.3193072326
 10
53.7701031953
 20
162.3086213767
 10
53.7622041781
 20
162.3042000994
  0
LWPOLYLINE
  5
55C
100
AcDbEntity
  8
0
100
AcDbPolyline
 62
253
  6
CONTINUOUS
 90
13
 70
0
 10
58.7188791204
 20
161.0543826928
 10
58.738633918
 20
161.0457251649
 10
58.7604958855
 20
161.0384344943
 10
58.7840896622
 20
161.0326380955
 10
58.8090131126
 20
161.0284372714
 10
58.8348329537
 20
161.0259074277
 10
58.8610911296
 20
161.0250941523
 10
58.8873880538
 20
161.026014787
 10
58.9132120509
 20
161.0286563897
 10
58.9379508116
 20
161.0329380326
 10
58.9611522673
 20
161.0387381216
 10
58.9825145009
 20
161.0459357239
 10
59.0017218329
 20
161.0543826928
  0
LWPOLYLINE
  5
55D
100
AcDbEntity
  8
0
100
AcDbPolyline
 62
253
  6
CONTINUOUS
 90
13
 70
0
 10
64.3243111152
 20
158.2516666954
 10
64.3438323521
 20
158.2430988125
 10
64.3654176693
 20
158.2358658996
 10
64.3887046819
 20
158.2300915137
 10
64.4133052778
 20
158.2258742785
 10
64.4388013624
 20
158.2232881266
 10
64.464750838
 20
158.222378578
 10
64.4907677551
 20
158.2231639236
 10
64.51635727
 20
158.225633989
 10
64.5409256948
 20
158.2297140323
 10
64.5640326529
 20
158.2352896672
 10
64.5853822893
 20
158.2422463541
 10
64.6046641455
 20
158.2504433934
  0
LWPOLYLINE
  5
55E
100
AcDbEntity
  8
0
100
AcDbPolyline
 62
253
  6
CONTINUOUS
 90
13
 70
0
 10
55.3317123994
 20
162.4587554443
 10
55.3512336363
 20
162.4501875615
 10
55.3728189535
 20
162.4429546485
 10
55.3961059661
 20
162.4371802627
 10
55.420706562
 20
162.4329630275
 10
55.4462026465
 20
162.4303768756
 10
55.4721521222
 20
162.429467327
 10
55.4981690392
 20
162.4302526725
 10
55.5237585542
 20
162.432722738
 10
55.548326979
 20
162.4368027813
 10
55.5714339371
 20
162.4423784162
 10
55.5927835735
 20
162.4493351031
 10
55.6120654297
 20
162.4575321424
  0
LWPOLYLINE
  5
55F
100
AcDbEntity
  8
0
100
AcDbPolyline
 62
253
  6
CONTINUOUS
 90
13
 70
0
 10
69.018518532
 20
154.2195523641
 10
69.037840536
 20
154.2110611675
 10
69.0591827377
 20
154.2038801795
 10
69.0821921141
 20
154.1981282462
 10
69.1064880351
 20
154.193900578
 10
69.131668574
 20
154.1912671696
 10
69.1573171575
 20
154.1902716432
 10
69.1830094677
 20
154.1909305291
 10
69.2083203613
 20
154.193232985
 10
69.2328309262
 20
154.1971409517
 10
69.2561355483
 20
154.2025897942
 10
69.2778486152
 20
154.2094893906
 10
69.2976108034
 20
154.2177256059
  0
LWPOLYLINE
  5
560
100
AcDbEntity
  8
0
100
AcDbPolyline
 62
253
  6
CONTINUOUS
 90
13
 70
0
 10
67.635370392
 20
156.306926448
 10
67.654365299
 20
156.2985615855
 10
67.6754703069
 20
156.2914194285
 10
67.6983795977
 20
156.2856431934
 10
67.7228007554
 20
156.2813498312
 10
67.7482977087
 20
156.2786572169
 10
67.7742806834
 20
156.2776450083
 10
67.8002552172
 20
156.2783276784
 10
67.8258350994
 20
156.2806902983
 10
67.8505784542
 20
156.2846915479
 10
67.8740650154
 20
156.2902616269
 10
67.8959023823
 20
156.297305537
 10
67.9157234223
 20
156.3057031461
  0
LWPOLYLINE
  5
561
100
AcDbEntity
  8
0
100
AcDbPolyline
 62
253
  6
CONTINUOUS
 90
19
 70
0
 10
53.8637439216
 20
162.0567474127
 10
53.845052206
 20
162.0650489788
 10
53.8267702716
 20
162.0712421693
 10
53.8088981184
 20
162.075326984
 10
53.7913039863
 20
162.0773033211
 10
53.7741196354
 20
162.0771712825
 10
53.757740346
 20
162.0749311739
 10
53.7421871061
 20
162.0705346362
 10
53.7274389277
 20
162.0640300285
 10
53.7138281267
 20
162.055562734
 10
53.7013807204
 20
162.04508766
 10
53.6900706915
 20
162.0326498993
 10
53.6801523045
 20
162.0185301129
 10
53.671656429
 20
162.0026793914
 10
53.6645521955
 20
161.9851466444
 10
53.6590012592
 20
161.9663592613
 10
53.6550575054
 20
161.9464597053
 10
53.6526670488
 20
161.9253055134
 10
53.6518298896
 20
161.9028966854
  0
LWPOLYLINE
  5
562
100
AcDbEntity
  8
0
100
AcDbPolyline
 62
7
  6
CONTINUOUS
 90
4
 70
0
 10
67.6873432258
 20
155.8139337498
 10
67.6989950849
 20
155.8085673263
 10
67.7231426223
 20
155.8001461762
 10
67.7352851031
 20
155.7971706922
  0
LWPOLYLINE
  5
563
100
AcDbEntity
  8
0
100
AcDbPolyline
 62
7
  6
CONTINUOUS
 90
4
 70
0
 10
55.3836852332
 20
161.9657627461
 10
55.3953370922
 20
161.9603963226
 10
55.4194846296
 20
161.9519751725
 10
55.4316271104
 20
161.9489996885
  0
LINE
  5
564
100
AcDbEntity
  8
0
100
AcDbLine
 62
253
  6
CONTINUOUS
 10
68.8066045
 20
154.5853171235
 11
68.354819768
 21
154.8112094895
  0
LINE
  5
565
100
AcDbEntity
  8
0
100
AcDbLine
 62
253
  6
CONTINUOUS
 10
66.6191866463
 20
155.6790260503
 11
64.3243111152
 21
156.8264638159
  0
LINE
  5
566
100
AcDbEntity
  8
0
100
AcDbLine
 62
253
  6
CONTINUOUS
 10
63.9514693012
 20
157.0128847229
 11
58.7188791204
 21
159.6291798133
  0
LINE
  5
567
100
AcDbEntity
  8
0
100
AcDbLine
 62
253
  6
CONTINUOUS
 10
58.3460373064
 20
159.8156007203
 11
56.0511617753
 21
160.9630384858
  0
LINE
  5
568
100
AcDbEntity
  8
0
100
AcDbLine
 62
253
  6
CONTINUOUS
 10
54.3155286537
 20
161.8308550466
 11
53.8637439216
 21
162.0567474127
  0
LINE
  5
569
100
AcDbEntity
  8
0
100
AcDbLine
 62
253
  6
CONTINUOUS
 10
68.9406244343
 20
154.8252947998
 11
68.6300672455
 21
154.9805733943
  0
LINE
  5
56A
100
AcDbEntity
  8
0
100
AcDbLine
 62
253
  6
CONTINUOUS
 10
66.5606080025
 20
156.0153030157
 11
64.5995585927
 21
156.9958277207
  0
LINE
  5
56B
100
AcDbEntity
  8
0
100
AcDbLine
 62
253
  6
CONTINUOUS
 10
63.8928906574
 20
157.3491616883
 11
58.9941265979
 21
159.798543718
  0
LINE
  5
56C
100
AcDbEntity
  8
0
100
AcDbLine
 62
253
  6
CONTINUOUS
 10
58.2874586627
 20
160.1518776857
 11
56.3264092528
 21
161.1324023906
  0
LINE
  5
56D
100
AcDbEntity
  8
0
100
AcDbLine
 62
253
  6
CONTINUOUS
 10
54.2569500099
 20
162.1671320121
 11
53.997763856
 21
162.296725089
  0
LINE
  5
56E
100
AcDbEntity
  8
0
100
AcDbLine
 62
7
  6
CONTINUOUS
 10
67.6873490291
 20
155.8139308479
 11
65.976401097
 21
156.6694048139
  0
LINE
  5
56F
100
AcDbEntity
  8
0
100
AcDbLine
 62
7
  6
CONTINUOUS
 10
55.3836910365
 20
161.9657598442
 11
53.6727431044
 21
162.8212338102
  0
LINE
  5
570
100
AcDbEntity
  8
DRAFT
100
AcDbLine
 62
7
  6
CONTINUOUS
 10
70.9394838402
 20
154.2396667297
 11
70.9703426777
 21
154.2242373109
  0
LINE
  5
571
100
AcDbEntity
  8
0
100
AcDbLine
 62
253
  6
CONTINUOUS
 10
67.635370392
 20
155.9221056079
 11
65.9244224599
 21
156.777579574
  0
LINE
  5
572
100
AcDbEntity
  8
0
100
AcDbLine
 62
253
  6
CONTINUOUS
 10
55.3317123994
 20
162.0739346043
 11
53.6207644672
 21
162.9294085703
  0
LINE
  5
573
100
AcDbEntity
  8
0
100
AcDbLine
 62
7
  6
CONTINUOUS
 10
63.8928906574
 20
157.9590327786
 11
62.8945334503
 21
158.4582113821
  0
LINE
  5
574
100
AcDbEntity
  8
0
100
AcDbLine
 62
7
  6
CONTINUOUS
 10
61.1900285337
 20
159.3104638404
 11
59.5674072578
 21
160.1217744784
  0
LINE
  5
575
100
AcDbEntity
  8
0
100
AcDbLine
 62
253
  6
CONTINUOUS
 10
67.635370392
 20
156.306926448
 11
65.9244224599
 21
157.1624004141
  0
LINE
  5
576
100
AcDbEntity
  8
0
100
AcDbLine
 62
253
  6
CONTINUOUS
 10
55.3317123994
 20
162.4587554443
 11
53.6207644672
 21
163.3142294104
  0
LINE
  5
577
100
AcDbEntity
  8
0
100
AcDbLine
 62
7
  6
CONTINUOUS
 10
57.269310219
 20
161.6470696225
 11
58.2874586627
 21
161.1379954007
  0
LINE
  5
578
100
AcDbEntity
  8
0
100
AcDbLine
 62
7
  6
CONTINUOUS
 10
61.6887276014
 20
159.4373609313
 11
62.8359548065
 21
158.8637473287
  0
LINE
  5
579
100
AcDbEntity
  8
0
100
AcDbLine
 62
7
  6
CONTINUOUS
 10
65.5424595589
 20
157.5104949525
 11
65.8938573881
 21
157.3347960379
  0
LINE
  5
57A
100
AcDbEntity
  8
0
100
AcDbLine
 62
7
  6
CONTINUOUS
 10
69.8915296004
 20
155.3359599318
 11
69.5729682116
 21
155.4952406262
  0
LINE
  5
57B
100
AcDbEntity
  8
0
100
AcDbLine
 62
253
  6
CONTINUOUS
 10
64.3243111152
 20
158.2516666954
 11
63.9514693012
 21
158.4380876024
  0
LINE
  5
57C
100
AcDbEntity
  8
0
100
AcDbLine
 62
253
  6
CONTINUOUS
 10
58.7188791204
 20
161.0543826928
 11
58.3460373064
 21
161.2408035998
  0
LINE
  5
57D
100
AcDbEntity
  8
0
100
AcDbLine
 62
253
  6
CONTINUOUS
 10
67.7743236053
 20
156.5495817554
 11
66.0633756731
 21
157.4050557215
  0
LINE
  5
57E
100
AcDbEntity
  8
0
100
AcDbLine
 62
253
  6
CONTINUOUS
 10
55.4706656126
 20
162.7014107517
 11
53.7597176805
 21
163.5568847178
  0
LINE
  5
57F
100
AcDbEntity
  8
0
100
AcDbLine
 62
253
  6
CONTINUOUS
 10
64.4632643285
 20
158.4943220028
 11
64.0904225145
 21
158.6807429098
  0
LINE
  5
580
100
AcDbEntity
  8
0
100
AcDbLine
 62
253
  6
CONTINUOUS
 10
58.8578323337
 20
161.2970380002
 11
58.4849905197
 21
161.4834589072
  0
LINE
  5
581
100
AcDbEntity
  8
0
100
AcDbLine
 62
7
  6
CONTINUOUS
 10
62.3030960519
 20
159.8221669576
 11
62.8359548065
 21
159.5557375803
  0
LINE
  5
582
100
AcDbEntity
  8
0
100
AcDbLine
 62
7
  6
CONTINUOUS
 10
70.5859842975
 20
155.6807228348
 11
69.5729682116
 21
156.1872308777
  0
LINE
  5
583
100
AcDbEntity
  8
0
100
AcDbLine
 62
7
  6
CONTINUOUS
 10
58.5861655394
 20
161.6806322138
 11
57.269310219
 21
162.339059874
  0
LINE
  5
584
100
AcDbEntity
  8
0
100
AcDbLine
 62
253
  6
CONTINUOUS
 10
64.4407056954
 20
158.9156927161
 11
62.8945334503
 21
159.6887788387
  0
LINE
  5
585
100
AcDbEntity
  8
0
100
AcDbLine
 62
253
  6
CONTINUOUS
 10
61.1900285337
 20
160.541031297
 11
59.5674072578
 21
161.3523419349
  0
LINE
  5
586
100
AcDbEntity
  8
0
100
AcDbLine
 62
7
  6
CONTINUOUS
 10
53.6728394923
 20
162.8211857028
 11
53.6569756037
 21
162.8300294944
  0
LINE
  5
587
100
AcDbEntity
  8
0
100
AcDbLine
 62
7
  6
CONTINUOUS
 10
65.9764974849
 20
156.6693567065
 11
65.9606335964
 21
156.6782004981
  0
LWPOLYLINE
  5
588
100
AcDbEntity
  8
0
100
AcDbPolyline
 62
253
  6
CONTINUOUS
 90
7
 70
0
 10
53.6207644672
 20
162.9294085703
 10
53.6036686729
 20
162.939143202
 10
53.5892328511
 20
162.949901549
 10
53.577699558
 20
162.9615031318
 10
53.5692625824
 20
162.9737534417
 10
53.5640640141
 20
162.9864467518
 10
53.5621858235
 20
163.0001192992
  0
LWPOLYLINE
  5
589
100
AcDbEntity
  8
0
100
AcDbPolyline
 62
253
  6
CONTINUOUS
 90
7
 70
0
 10
65.9244224599
 20
156.777579574
 10
65.9073266656
 20
156.7873142056
 10
65.8928908438
 20
156.7980725527
 10
65.8813575507
 20
156.8096741355
 10
65.8729205751
 20
156.8219244453
 10
65.8677220068
 20
156.8346177555
 10
65.8658438161
 20
156.8482903029
  0
LWPOLYLINE
  5
58A
100
AcDbEntity
  8
0
100
AcDbPolyline
 62
253
  6
CONTINUOUS
 90
9
 70
0
 10
65.9764722455
 20
156.6693692868
 10
65.969094736
 20
156.6735851012
 10
65.9578276876
 20
156.6824842721
 10
65.9479464582
 20
156.6936842708
 10
65.9396276052
 20
156.707052753
 10
65.9330376936
 20
156.7223573603
 10
65.9282736096
 20
156.7393596955
 10
65.9253886079
 20
156.757851223
 10
65.9244224599
 20
156.777579574
  0
LINE
  5
58B
100
AcDbEntity
  8
0
100
AcDbLine
 62
7
  6
CONTINUOUS
 10
59.0889935831
 20
161.9767265786
 11
59.0563871378
 21
161.9966938669
  0
LINE
  5
58C
100
AcDbEntity
  8
0
100
AcDbLine
 62
7
  6
CONTINUOUS
 10
59.027010297
 20
161.9475847908
 11
58.7381890863
 21
162.1557928927
  0
LWPOLYLINE
  5
58D
100
AcDbEntity
  8
0
100
AcDbPolyline
 62
253
  6
CONTINUOUS
 90
3
 70
0
 10
70.0446624792
 20
157.6216130928
 10
70.0613952193
 20
157.6033718608
 10
70.0768612876
 20
157.5831414506
  0
LINE
  5
58E
100
AcDbEntity
  8
0
100
AcDbLine
 62
253
  6
CONTINUOUS
 10
82.0719815228
 20
162.7920575036
 11
82.0719815228
 21
162.2981094265
  0
LWPOLYLINE
  5
58F
100
AcDbEntity
  8
0
100
AcDbPolyline
 62
253
  6
CONTINUOUS
 90
12
 70
0
 10
82.3013810329
 20
163.2029429167
 10
82.299964246
 20
163.1605791536
 10
82.2939961131
 20
163.1077114735
 10
82.2835853775
 20
163.0582537331
 10
82.2689213283
 20
163.0120120793
 10
82.2503270979
 20
162.969360238
 10
82.2281720032
 20
162.9305933313
 10
82.2027074928
 20
162.8956273343
 10
82.1741070494
 20
162.8642453339
 10
82.1425869304
 20
162.8364295268
 10
82.108455085
 20
162.8123485986
 10
82.0719815228
 20
162.7920575036
  0
LWPOLYLINE
  5
590
100
AcDbEntity
  8
RACCORDO
100
AcDbPolyline
 62
7
  6
CONTINUOUS
 90
136
 70
0
 10
93.1315267575
 20
148.0924517371
 10
93.1909235904
 20
148.1411798748
 10
93.2484407943
 20
148.1886909268
 10
93.304078369
 20
148.2349848932
 10
93.3577812294
 20
148.2800272192
 10
93.4096044608
 20
148.3238524595
 10
93.4597133186
 20
148.3665642786
 10
93.5081150488
 20
148.4081676034
 10
93.5548024054
 20
148.448657507
 10
93.5999189063
 20
148.4881228725
 10
93.6434687574
 20
148.5265662244
 10
93.6854477528
 20
148.5639850382
 10
93.7259867928
 20
148.6004606242
 10
93.765089798
 20
148.6359953596
 10
93.8027528478
 20
148.6705868672
 10
93.83909508
 20
148.7043093257
 10
93.8741201545
 20
148.737164994
 10
93.9078244115
 20
148.7691516131
 10
93.940316009
 20
148.8003365845
 10
93.9715982913
 20
148.8307220029
 10
94.0016679141
 20
148.8603057736
 10
94.0306230027
 20
148.8891490131
 10
94.0584666357
 20
148.9172537062
 10
94.0851957345
 20
148.9446178682
 10
94.1108991892
 20
148.9712966613
 10
94.1355798457
 20
148.997292013
 10
94.159234858
 20
149.0226019958
 10
94.1819445785
 20
149.0472759893
 10
94.203711617
 20
149.0713158957
 10
94.2245333637
 20
149.0947198128
 10
94.2444823406
 20
149.1175314134
 10
94.2635609116
 20
149.1397526197
 10
94.2817667129
 20
149.1613815095
 10
94.2991651746
 20
149.1824559887
 10
94.3157583747
 20
149.2029780402
 10
94.3315442353
 20
149.222945681
 10
94.3465819531
 20
149.2423908688
 10
94.3608732325
 20
149.2613156606
 10
94.374416369
 20
149.2797179993
 10
94.3872654461
 20
149.2976236711
 10
94.399421674
 20
149.315034802
 10
94.4108838424
 20
149.331949266
 10
94.4217024041
 20
149.3483864711
 10
94.4318778117
 20
149.364348352
 10
94.4414096126
 20
149.3798329741
 10
94.450346901
 20
149.3948539404
 10
94.4586894146
 20
149.4094131321
 10
94.4664374159
 20
149.4235086682
 10
94.4736407861
 20
149.4371485088
 10
94.4802980938
 20
149.45033336
 10
94.4864107706
 20
149.4630625159
 10
94.4920329918
 20
149.4753418181
 10
94.4971601274
 20
149.4871621251
 10
94.5017968074
 20
149.4985325785
 10
94.5060110973
 20
149.5094864454
 10
94.5098010561
 20
149.5200102946
 10
94.5131686248
 20
149.5301175573
 10
94.5161876923
 20
149.5398817942
 10
94.5188635655
 20
149.5493007265
 10
94.5211909375
 20
149.5583766331
 10
94.5232277765
 20
149.5671899118
 10
94.5249814817
 20
149.5757455586
 10
94.5264446539
 20
149.5840385775
 10
94.5276530638
 20
149.5921343783
 10
94.5286129975
 20
149.6000372106
 10
94.5293181689
 20
149.6077428248
 10
94.5297854901
 20
149.6153038817
 10
94.5300206219
 20
149.6227235534
 10
94.5300179036
 20
149.6299986678
 10
94.5297772658
 20
149.6371723701
 10
94.5293043585
 20
149.6442473918
 10
94.5285935317
 20
149.6512210012
 10
94.5276277653
 20
149.6581281488
 10
94.5264133808
 20
149.6649709665
 10
94.5249440567
 20
149.6717473222
 10
94.5231838082
 20
149.6784857708
 10
94.5211402946
 20
149.685188654
 10
94.5188058564
 20
149.6918536299
 10
94.5161215311
 20
149.6985022275
 10
94.5130924981
 20
149.7051428394
 10
94.5097135778
 20
149.711767073
 10
94.5059102687
 20
149.718371279
 10
94.5016801538
 20
149.7249672485
 10
94.49702565
 20
149.7315431903
 10
94.4918795069
 20
149.738060082
 10
94.4862373215
 20
149.744521664
 10
94.4801034969
 20
149.7509241958
 10
94.4734239913
 20
149.7572174334
 10
94.4661975256
 20
149.7633990915
 10
94.4584253789
 20
149.7694714553
 10
94.4500573468
 20
149.7753911364
 10
94.4410930259
 20
149.7811561097
 10
94.4315328195
 20
149.7867684003
 10
94.4213277334
 20
149.7921906944
 10
94.4104782806
 20
149.7974214892
 10
94.398983948
 20
149.8024622875
 10
94.3867942016
 20
149.8072802845
 10
94.3739102461
 20
149.8118746186
 10
94.3603308767
 20
149.8162461513
 10
94.3460019446
 20
149.8203646629
 10
94.3309251647
 20
149.8242298646
 10
94.3150988221
 20
149.8278420451
 10
94.2984636226
 20
149.8311718512
 10
94.2810216541
 20
149.8342194563
 10
94.2627708287
 20
149.836984687
 10
94.2436455883
 20
149.8394376696
 10
94.223648287
 20
149.8415789349
 10
94.2027765708
 20
149.843407952
 10
94.180957819
 20
149.8448932544
 10
94.1581947092
 20
149.8460356464
 10
94.1344845639
 20
149.8468343236
 10
94.1097467305
 20
149.8472554066
 10
94.0839838302
 20
149.84729991
 10
94.0571932419
 20
149.8469668191
 10
94.0292864487
 20
149.8462192107
 10
94.0002674381
 20
149.8450583596
 10
93.9701322228
 20
149.8434829909
 10
93.9387803241
 20
149.8414523569
 10
93.9062130971
 20
149.8389676527
 10
93.8724291867
 20
149.8360276833
 10
93.8373240497
 20
149.8325881158
 10
93.800892787
 20
149.8286489978
 10
93.7631402976
 20
149.8242102817
 10
93.7239767351
 20
149.8192274928
 10
93.6834108538
 20
149.8137023041
 10
93.6414338994
 20
149.8076330426
 10
93.5979297626
 20
149.8009702143
 10
93.5529133472
 20
149.7937175321
 10
93.5063697494
 20
149.7858712833
 10
93.4581381484
 20
149.7773708355
 10
93.4082187179
 20
149.7682178118
 10
93.3566112842
 20
149.7584105893
 10
93.3031545057
 20
149.7478836657
 10
93.2477946017
 20
149.7366152072
 10
93.190585353
 20
149.7246270477
 10
93.1315267595
 20
149.7119191873
  0
LWPOLYLINE
  5
591
100
AcDbEntity
  8
RACCORDO
100
AcDbPolyline
 62
253
  6
CONTINUOUS
 90
104
 70
0
 10
94.2148206072
 20
148.2977691612
 10
94.2462149723
 20
148.3190794805
 10
94.2769710986
 20
148.3415042349
 10
94.3070755843
 20
148.3650336531
 10
94.3365153016
 20
148.3896574781
 10
94.3652773758
 20
148.4153649454
 10
94.3933492203
 20
148.4421448048
 10
94.4207185607
 20
148.4699853428
 10
94.4473734661
 20
148.4988744187
 10
94.4733023249
 20
148.5287994473
 10
94.4984938311
 20
148.5597473852
 10
94.5229369658
 20
148.5917047006
 10
94.5466210309
 20
148.6246574064
 10
94.5695356705
 20
148.658591089
 10
94.5916708968
 20
148.693490952
 10
94.613017067
 20
148.7293417921
 10
94.6335648728
 20
148.7661279814
 10
94.6533053261
 20
148.8038334352
 10
94.6722297882
 20
148.8424416527
 10
94.6903299856
 20
148.8819357491
 10
94.7075980283
 20
148.9222985023
 10
94.7240263923
 20
148.9635123252
 10
94.7396079119
 20
149.0055592474
 10
94.7543357724
 20
149.0484208869
 10
94.7682035309
 20
149.0920784929
 10
94.7812051266
 20
149.1365129788
 10
94.7933348907
 20
149.1817049635
 10
94.8045875355
 20
149.2276347463
 10
94.8149581511
 20
149.274282293
 10
94.8244422032
 20
149.3216272161
 10
94.8330355451
 20
149.3696488156
 10
94.8407344228
 20
149.4183261062
 10
94.8475354783
 20
149.4676378486
 10
94.853435745
 20
149.5175625317
 10
94.858432647
 20
149.5680783681
 10
94.8625240007
 20
149.6191632892
 10
94.8657080182
 20
149.6707949757
 10
94.8679833095
 20
149.7229508768
 10
94.8693488816
 20
149.7756082245
 10
94.8698041386
 20
149.8287440307
 10
94.8693488815
 20
149.8823350939
 10
94.8679833093
 20
149.9363580138
 10
94.8657080179
 20
149.9907892061
 10
94.8625240002
 20
150.0456049104
 10
94.8584326464
 20
150.1007811852
 10
94.8534357442
 20
150.1562939237
 10
94.8475354774
 20
150.2121188735
 10
94.8407344218
 20
150.2682316714
 10
94.833035544
 20
150.3246078397
 10
94.824442202
 20
150.3812227812
 10
94.8149581498
 20
150.4380517565
 10
94.8045875341
 20
150.4950699187
 10
94.7933348891
 20
150.5522523464
 10
94.7812051249
 20
150.6095740953
 10
94.7682035291
 20
150.6670101769
 10
94.7543357705
 20
150.7245355414
 10
94.7396079099
 20
150.7821250414
 10
94.7240263902
 20
150.8397534832
 10
94.7075980261
 20
150.89739567
 10
94.6903299832
 20
150.9550264662
 10
94.6722297857
 20
151.01262076
 10
94.6533053236
 20
151.0701534394
 10
94.6335648701
 20
151.1275993466
 10
94.6130170643
 20
151.1849333416
 10
94.5916708939
 20
151.242130352
 10
94.5695356675
 20
151.2991654414
 10
94.5466210277
 20
151.3560137636
 10
94.5229369626
 20
151.4126505344
 10
94.4984938278
 20
151.4690509844
 10
94.4733023216
 20
151.5251904284
 10
94.4473734627
 20
151.5810443159
 10
94.4207185571
 20
151.6365882973
 10
94.3933492165
 20
151.6917981757
 10
94.365277372
 20
151.7466498795
 10
94.3365152978
 20
151.8011194209
 10
94.3070755805
 20
151.8551829631
 10
94.2769710946
 20
151.908816867
 10
94.2462149681
 20
151.9619977479
 10
94.2148206029
 20
152.0147024322
 10
94.1828016882
 20
152.0669079355
 10
94.1501722217
 20
152.1185914318
 10
94.116946477
 20
152.1697303122
 10
94.0831389796
 20
152.2203022229
 10
94.0487644757
 20
152.2702851078
 10
94.0138379514
 20
152.3196571766
 10
93.9783746418
 20
152.3683968903
 10
93.9423900458
 20
152.4164829461
 10
93.9058998956
 20
152.4638943207
 10
93.8689201365
 20
152.510610298
 10
93.8314669046
 20
152.5566104953
 10
93.7935565388
 20
152.6018748451
 10
93.7552055841
 20
152.646383592
 10
93.716430794
 20
152.6901172913
 10
93.6772491086
 20
152.7330568366
 10
93.6376776406
 20
152.7751834742
 10
93.5977336647
 20
152.8164788144
 10
93.5574346196
 20
152.8569248286
 10
93.5167981023
 20
152.896503856
 10
93.475841856
 20
152.9351986149
 10
93.4345837601
 20
152.9729922131
 10
93.3930418246
 20
153.0098681522
 10
93.3512341937
 20
153.0458103258
 10
93.3091791335
 20
153.0808030303
 10
93.2946363977
 20
153.0925062303
  0
LINE
  5
592
100
AcDbEntity
  8
0
100
AcDbLine
 62
7
  6
CONTINUOUS
 10
68.8305060914
 20
131.4870533582
 11
68.583018718
 21
131.3580188861
  0
LINE
  5
593
100
AcDbEntity
  8
0
100
AcDbLine
 62
7
  6
CONTINUOUS
 10
68.8948631571
 20
132.1769151182
 11
67.8158714082
 21
131.6332590444
  0
LINE
  5
594
100
AcDbEntity
  8
0
100
AcDbLine
 62
253
  6
CONTINUOUS
 10
66.3798533838
 20
129.1265252234
 11
66.3212968325
 21
129.097021175
  0
LINE
  5
595
100
AcDbEntity
  8
0
100
AcDbLine
 62
253
  6
CONTINUOUS
 10
66.5491309078
 20
128.7391311018
 11
66.3212968325
 21
128.6243356189
  0
LINE
  5
596
100
AcDbEntity
  8
0
100
AcDbLine
 62
7
  6
CONTINUOUS
 10
68.8305060914
 20
130.6663775434
 11
68.583018718
 21
130.5479246421
  0
LINE
  5
597
100
AcDbEntity
  8
0
100
AcDbLine
 62
253
  6
CONTINUOUS
 10
66.3212968325
 20
130.5166196192
 11
66.6224407674
 21
130.6567159506
  0
LINE
  5
598
100
AcDbEntity
  8
0
100
AcDbLine
 62
7
  6
CONTINUOUS
 10
66.3212968325
 20
130.390595168
 11
66.6224407674
 21
130.5306914993
  0
LWPOLYLINE
  5
599
100
AcDbEntity
  8
0
100
AcDbPolyline
 62
253
  6
CONTINUOUS
 90
13
 70
0
 10
67.5609250959
 20
132.06000795
 10
67.5362583331
 20
132.0495515655
 10
67.509098436
 20
132.0407747057
 10
67.4798998626
 20
132.0338242309
 10
67.4491511836
 20
132.0288164414
 10
67.417366907
 20
132.0258351309
 10
67.3850788694
 20
132.0249301847
 10
67.3528273363
 20
132.026116745
 10
67.3211519627
 20
132.0293749575
 10
67.2905827628
 20
132.0346503036
 10
67.2616312415
 20
132.0418545124
 10
67.2347818357
 20
132.0508670383
 10
67.210483808
 20
132.0615370774
  0
LWPOLYLINE
  5
59A
100
AcDbEntity
  8
0
100
AcDbPolyline
 62
7
  6
CONTINUOUS
 90
4
 70
0
 10
67.6096457253
 20
158.2823748114
 10
67.6271561459
 20
158.2808959844
 10
67.6452956498
 20
158.2762434002
 10
67.6637583633
 20
158.2684988983
  0
LWPOLYLINE
  5
59B
100
AcDbEntity
  8
RACCORDO
100
AcDbPolyline
 62
253
  6
CONTINUOUS
 90
11
 70
0
 10
86.5554237895
 20
155.1262181499
 10
86.591222185
 20
155.1199960684
 10
86.6448267685
 20
155.1099745466
 10
86.6960080092
 20
155.0996416049
 10
86.7452066215
 20
155.0891164401
 10
86.7924257664
 20
155.078421901
 10
86.837662283
 20
155.0675351389
 10
86.8813474029
 20
155.0565068052
 10
86.9236248699
 20
155.0453537839
 10
86.9643509404
 20
155.0340591911
 10
87.0035256141
 20
155.0226230268
  0
LWPOLYLINE
  5
59C
100
AcDbEntity
  8
0
100
AcDbPolyline
 62
7
  6
CONTINUOUS
 90
3
 70
0
 10
68.2761277692
 20
158.5576497944
 10
68.3003204681
 20
158.5515417723
 10
68.3236449272
 20
158.5424313752
  0
LWPOLYLINE
  5
59D
100
AcDbEntity
  8
0
100
AcDbPolyline
 62
253
  6
CONTINUOUS
 90
7
 70
0
 10
58.4849905197
 20
161.4834589072
 10
58.4661587336
 20
161.4910724141
 10
58.4476891007
 20
161.4955898984
 10
58.4299008035
 20
161.496930712
 10
58.4130996976
 20
161.4950685398
 10
58.3975793605
 20
161.4900324656
 10
58.3924938377
 20
161.4875304192
  0
LWPOLYLINE
  5
59E
100
AcDbEntity
  8
0
100
AcDbPolyline
 62
253
  6
CONTINUOUS
 90
7
 70
0
 10
53.7597176805
 20
163.5568847178
 10
53.7408858945
 20
163.5644982247
 10
53.7224162615
 20
163.5690157091
 10
53.7046279643
 20
163.5703565227
 10
53.6878268585
 20
163.5684943504
 10
53.6723065213
 20
163.5634582763
 10
53.6672209985
 20
163.5609562299
  0
LWPOLYLINE
  5
59F
100
AcDbEntity
  8
0
100
AcDbPolyline
 62
253
  6
CONTINUOUS
 90
7
 70
0
 10
63.0334866635
 20
159.9314341461
 10
63.0146548775
 20
159.939047653
 10
62.9961852446
 20
159.9435651373
 10
62.9783969473
 20
159.9449059509
 10
62.9615958415
 20
159.9430437787
 10
62.9460755044
 20
159.9380077045
 10
62.9409899816
 20
159.9355056581
  0
LWPOLYLINE
  5
5A0
100
AcDbEntity
  8
0
100
AcDbPolyline
 62
253
  6
CONTINUOUS
 90
7
 70
0
 10
64.0904225145
 20
158.6807429098
 10
64.0719088774
 20
158.6885272149
 10
64.0537507554
 20
158.6932120323
 10
64.0362621912
 20
158.6947130878
 10
64.0197438145
 20
158.6930004935
 10
64.0044852076
 20
158.6880999446
 10
64.0004279864
 20
158.6861416042
  0
LWPOLYLINE
  5
5A1
100
AcDbEntity
  8
0
100
AcDbPolyline
 62
253
  6
CONTINUOUS
 90
13
 70
0
 10
61.1900285337
 20
160.541031297
 10
61.2095497706
 20
160.5324634141
 10
61.2311350878
 20
160.5252305012
 10
61.2544221004
 20
160.5194561153
 10
61.2790226963
 20
160.5152388801
 10
61.3045187809
 20
160.5126527282
 10
61.3304682565
 20
160.5117431796
 10
61.3564851736
 20
160.5125285252
 10
61.3820746885
 20
160.5149985906
 10
61.4066431133
 20
160.5190786339
 10
61.4297500714
 20
160.5246542688
 10
61.4510997078
 20
160.5316109557
 10
61.470381564
 20
160.539807995
  0
LWPOLYLINE
  5
5A2
100
AcDbEntity
  8
0
100
AcDbPolyline
 62
253
  6
CONTINUOUS
 90
7
 70
0
 10
70.076631853
 20
157.6660294851
 10
70.0740324702
 20
157.667260471
 10
70.0587676473
 20
157.6722731732
 10
70.0424033915
 20
157.6741390593
 10
70.0252742776
 20
157.6728958363
 10
70.0076427725
 20
157.6686338461
 10
69.9898048051
 20
157.6614832576
  0
LINE
  5
5A3
100
AcDbEntity
  8
0
100
AcDbLine
 62
7
  6
CONTINUOUS
 10
63.9042275448
 20
160.3191273645
 11
63.909510672
 21
160.316577432
  0
LINE
  5
5A4
100
AcDbEntity
  8
0
100
AcDbLine
 62
7
  6
CONTINUOUS
 10
68.3236449272
 20
158.5424313752
 11
68.3289280544
 21
158.5398814427
  0
LINE
  5
5A5
100
AcDbEntity
  8
0
100
AcDbLine
 62
7
  6
CONTINUOUS
 10
56.0199869346
 20
164.6942603715
 11
56.0252700618
 21
164.691710439
  0
LWPOLYLINE
  5
5A6
100
AcDbEntity
  8
0
100
AcDbPolyline
 62
253
  6
CONTINUOUS
 90
7
 70
0
 10
62.1925384971
 20
161.1750636637
 10
62.1906737651
 20
161.1759640636
 10
62.1755212041
 20
161.1811585913
 10
62.1591482771
 20
161.1832237663
 10
62.1418349176
 20
161.1821276836
 10
62.123872324
 20
161.1778919955
 10
62.1055641948
 20
161.1705908609
  0
LWPOLYLINE
  5
5A7
100
AcDbEntity
  8
0
100
AcDbPolyline
 62
253
  6
CONTINUOUS
 90
7
 70
0
 10
57.7731211147
 20
163.8177850568
 10
57.7712563827
 20
163.8186854567
 10
57.7561038217
 20
163.8238799844
 10
57.7397308947
 20
163.8259451594
 10
57.7224175351
 20
163.8248490767
 10
57.7044549416
 20
163.8206133886
 10
57.6861468124
 20
163.813312254
  0
LINE
  5
5A8
100
AcDbEntity
  8
0
100
AcDbLine
 62
253
  6
CONTINUOUS
 10
64.7975292956
 20
159.04941283
 11
63.0334866635
 21
159.9314341461
  0
LINE
  5
5A9
100
AcDbEntity
  8
0
100
AcDbLine
 62
253
  6
CONTINUOUS
 10
61.328981747
 20
160.7836866044
 11
59.5649391149
 21
161.6657079204
  0
LINE
  5
5AA
100
AcDbEntity
  8
0
100
AcDbLine
 62
7
  6
CONTINUOUS
 10
58.7381890863
 20
162.1557928927
 11
59.0563871378
 21
161.9966938669
  0
LINE
  5
5AB
100
AcDbEntity
  8
0
100
AcDbLine
 62
7
  6
CONTINUOUS
 10
70.260765027
 20
156.3945049223
 11
70.3569627987
 21
156.3464060364
  0
LINE
  5
5AC
100
AcDbEntity
  8
0
100
AcDbLine
 62
7
  6
CONTINUOUS
 10
59.3906090234
 20
161.9720608663
 11
61.5473277843
 21
160.8937014859
  0
LINE
  5
5AD
100
AcDbEntity
  8
0
100
AcDbLine
 62
7
  6
CONTINUOUS
 10
63.2443409809
 20
160.0451948876
 11
65.4010597418
 21
158.9668355071
  0
LINE
  5
5AE
100
AcDbEntity
  8
0
100
AcDbLine
 62
7
  6
CONTINUOUS
 10
58.7381890863
 20
162.379322109
 11
59.0563871378
 21
162.2202230832
  0
LINE
  5
5AF
100
AcDbEntity
  8
0
100
AcDbLine
 62
7
  6
CONTINUOUS
 10
70.260765027
 20
156.6180341386
 11
70.5789630785
 21
156.4589351129
  0
LINE
  5
5B0
100
AcDbEntity
  8
0
100
AcDbLine
 62
7
  6
CONTINUOUS
 10
55.3601003706
 20
164.4203278946
 11
57.1279104019
 21
163.536422879
  0
LINE
  5
5B1
100
AcDbEntity
  8
0
100
AcDbLine
 62
7
  6
CONTINUOUS
 10
67.6637583633
 20
158.2684988983
 11
69.4315683946
 21
157.3845938827
  0
LINE
  5
5B2
100
AcDbEntity
  8
0
100
AcDbLine
 62
253
  6
CONTINUOUS
 10
60.3476928601
 20
162.0495265282
 11
62.1055641948
 21
161.1705908609
  0
LINE
  5
5B3
100
AcDbEntity
  8
0
100
AcDbLine
 62
253
  6
CONTINUOUS
 10
63.8224117062
 20
160.3121671052
 11
65.5802830409
 21
159.4332314378
  0
LINE
  5
5B4
100
AcDbEntity
  8
0
100
AcDbLine
 62
7
  6
CONTINUOUS
 10
60.5217918044
 20
162.0104370101
 11
62.192538771
 21
161.1750635268
  0
LINE
  5
5B5
100
AcDbEntity
  8
0
100
AcDbLine
 62
7
  6
CONTINUOUS
 10
63.9093862823
 20
160.3166397711
 11
65.5801299284
 21
159.4812679481
  0
LINE
  5
5B6
100
AcDbEntity
  8
0
100
AcDbLine
 62
253
  6
CONTINUOUS
 10
69.9898048051
 20
157.6614832576
 11
68.2418290886
 21
158.5354711159
  0
LINE
  5
5B7
100
AcDbEntity
  8
0
100
AcDbLine
 62
253
  6
CONTINUOUS
 10
57.6861468124
 20
163.813312254
 11
55.938171096
 21
164.6873001122
  0
LINE
  5
5B8
100
AcDbEntity
  8
0
100
AcDbLine
 62
7
  6
CONTINUOUS
 10
70.0767793812
 20
157.6659559236
 11
68.3288036647
 21
158.5399437818
  0
LINE
  5
5B9
100
AcDbEntity
  8
0
100
AcDbLine
 62
7
  6
CONTINUOUS
 10
57.7731213885
 20
163.8177849199
 11
56.0251456721
 21
164.6917727781
  0
LWPOLYLINE
  5
5BA
100
AcDbEntity
  8
0
100
AcDbPolyline
 62
7
  6
CONTINUOUS
 90
10
 70
0
 10
70.076631853
 20
157.6660294851
 10
70.0857644911
 20
157.6611737113
 10
70.1074276296
 20
157.6470022193
 10
70.1271274639
 20
157.6301037944
 10
70.1445244481
 20
157.6107313115
 10
70.1593274445
 20
157.5891448249
 10
70.1712485831
 20
157.5656605949
 10
70.1800158629
 20
157.5406869014
 10
70.1854226466
 20
157.514673796
 10
70.1873365355
 20
157.4871830064
  0
LWPOLYLINE
  5
5BB
100
AcDbEntity
  8
0
100
AcDbPolyline
 62
253
  6
CONTINUOUS
 90
4
 70
0
 10
69.9898048051
 20
157.6614832576
 10
70.0085585173
 20
157.6509194138
 10
70.0269492582
 20
157.6375531549
 10
70.0446624792
 20
157.6216130928
  0
LWPOLYLINE
  5
5BC
100
AcDbEntity
  8
0
100
AcDbPolyline
 62
253
  6
CONTINUOUS
 90
4
 70
0
 10
62.1055641948
 20
161.1705908609
 10
62.1243959809
 20
161.1599766916
 10
62.1428656138
 20
161.1465332281
 10
62.1606539111
 20
161.1304901407
  0
LWPOLYLINE
  5
5BD
100
AcDbEntity
  8
0
100
AcDbPolyline
 62
253
  6
CONTINUOUS
 90
4
 70
0
 10
57.6861468124
 20
163.813312254
 10
57.7049785985
 20
163.8026980847
 10
57.7234482314
 20
163.7892546212
 10
57.7412365286
 20
163.7732115338
  0
LWPOLYLINE
  5
5BE
100
AcDbEntity
  8
0
100
AcDbPolyline
 62
7
  6
CONTINUOUS
 90
13
 70
0
 10
69.4315683946
 20
157.3845938827
 10
69.4500196629
 20
157.3738813937
 10
69.46816206
 20
157.3603930274
 10
69.4856810325
 20
157.3443571578
 10
69.5022722312
 20
157.3260453183
 10
69.5176506758
 20
157.3057702085
 10
69.5315557763
 20
157.283880524
 10
69.5437521082
 20
157.2607518968
 10
69.5540286241
 20
157.2367787451
 10
69.5622064553
 20
157.2123703273
 10
69.5681468127
 20
157.1879448379
 10
69.5717531497
 20
157.1639221867
 10
69.5729682116
 20
157.1407152733
  0
LWPOLYLINE
  5
5BF
100
AcDbEntity
  8
RACCORDO
100
AcDbPolyline
 62
7
  6
CONTINUOUS
 90
104
 70
0
 10
93.2946363977
 20
141.2316042962
 10
93.3073577424
 20
141.222349471
 10
93.3521793542
 20
141.1884811495
 10
93.3966632012
 20
141.1536062373
 10
93.4408208612
 20
141.1177214498
 10
93.4846514383
 20
141.0808312587
 10
93.5281231907
 20
141.042965925
 10
93.5712008113
 20
141.0041610884
 10
93.6138637319
 20
140.9644410664
 10
93.6561014388
 20
140.9238212627
 10
93.6978939402
 20
140.8823263333
 10
93.7392200662
 20
140.8399830632
 10
93.7800708198
 20
140.7968062791
 10
93.8204439417
 20
140.7528029025
 10
93.8603347654
 20
140.7079812201
 10
93.8997172379
 20
140.6623735433
 10
93.9385571632
 20
140.6160239212
 10
93.9768260615
 20
140.5689724566
 10
94.014524688
 20
140.5212242149
 10
94.0516624253
 20
140.4727710534
 10
94.0882381276
 20
140.4236159139
 10
94.1242233232
 20
140.3737983395
 10
94.1595862745
 20
140.3233652995
 10
94.1943035622
 20
140.2723548574
 10
94.2283725852
 20
140.2207753827
 10
94.2617931571
 20
140.168630018
 10
94.2945571287
 20
140.1159329087
 10
94.3266458263
 20
140.0627153527
 10
94.3580429633
 20
140.0090061095
 10
94.3887343074
 20
139.9548315129
 10
94.418709241
 20
139.9002121326
 10
94.4479572747
 20
139.8451684533
 10
94.4764658786
 20
139.7897251464
 10
94.5042238156
 20
139.7339049677
 10
94.5312224978
 20
139.6777255254
 10
94.5574511589
 20
139.6212089307
 10
94.5828976418
 20
139.5643808439
 10
94.6075513479
 20
139.5072641723
 10
94.6314018671
 20
139.4498818692
 10
94.6544380697
 20
139.3922592456
 10
94.6766487389
 20
139.3344227671
 10
94.6980212046
 20
139.276404073
 10
94.7185485552
 20
139.2182202205
 10
94.7382278788
 20
139.1598755702
 10
94.7570546581
 20
139.1013765095
 10
94.7750128345
 20
139.0427652451
 10
94.7920832619
 20
138.9840996913
 10
94.8082511326
 20
138.925430238
 10
94.8235165894
 20
138.8667554149
 10
94.8378828614
 20
138.8080550854
 10
94.8513470523
 20
138.7493254696
 10
94.8638931228
 20
138.6906192665
 10
94.875504865
 20
138.6320005628
 10
94.8861717705
 20
138.5735164516
 10
94.8958923163
 20
138.5151680708
 10
94.9046647008
 20
138.4569500205
 10
94.9124838344
 20
138.3988697753
 10
94.9193400599
 20
138.3409683925
 10
94.925224729
 20
138.2832902218
 10
94.9301321476
 20
138.225861613
 10
94.9340573323
 20
138.1687036646
 10
94.936994735
 20
138.1118515958
 10
94.9389398839
 20
138.0553385527
 10
94.9398893815
 20
137.9991775852
 10
94.9398392484
 20
137.9433730394
 10
94.9387839351
 20
137.8879146103
 10
94.9367187485
 20
137.8328595789
 10
94.9336447318
 20
137.7783111342
 10
94.9295663062
 20
137.7243369544
 10
94.924481836
 20
137.6709097487
 10
94.9183844683
 20
137.6179888906
 10
94.9112622426
 20
137.5655320468
 10
94.9031196866
 20
137.5136270281
 10
94.8939790527
 20
137.4624249108
 10
94.8838588283
 20
137.4120033316
 10
94.87275438
 20
137.3623168308
 10
94.8606578097
 20
137.3133283737
 10
94.8475582942
 20
137.2650082965
 10
94.8334705169
 20
137.217424654
 10
94.8184274186
 20
137.1706845297
 10
94.8024457303
 20
137.1248230477
 10
94.7855279876
 20
137.0798321747
 10
94.7676932734
 20
137.0357484044
 10
94.7489572572
 20
136.9925938117
 10
94.7293274401
 20
136.9503702184
 10
94.7088121515
 20
136.9090828231
 10
94.6874032896
 20
136.868707785
 10
94.6651309873
 20
136.8292949433
 10
94.6420681777
 20
136.7909539247
 10
94.6182752761
 20
136.7537515515
 10
94.59373445
 20
136.7176277261
 10
94.5684027487
 20
136.6825017068
 10
94.5422628243
 20
136.6483439976
 10
94.5153597428
 20
136.6152082162
 10
94.4877420734
 20
136.5831420785
 10
94.4594449097
 20
136.552169626
 10
94.4304727877
 20
136.5222795112
 10
94.4008315045
 20
136.493464494
 10
94.3705434628
 20
136.4657343477
 10
94.3396262189
 20
136.4390932929
 10
94.3080770054
 20
136.4135292219
 10
94.2759077051
 20
136.3890444084
 10
94.2431462025
 20
136.3656526847
 10
94.2098131843
 20
136.3433608394
  0
LWPOLYLINE
  5
5C0
100
AcDbEntity
  8
RACCORDO
100
AcDbPolyline
 62
253
  6
CONTINUOUS
 90
105
 70
0
 10
93.2946363977
 20
141.1413556579
 10
93.3091791422
 20
141.1296524508
 10
93.3512342025
 20
141.094659746
 10
93.3930418335
 20
141.0587175721
 10
93.434583769
 20
141.0218416326
 10
93.475841865
 20
140.9840480341
 10
93.5167981114
 20
140.9453532749
 10
93.5574346288
 20
140.9057742472
 10
93.5977336738
 20
140.8653282327
 10
93.6376776497
 20
140.8240328923
 10
93.6772491177
 20
140.7819062544
 10
93.7164308032
 20
140.7389667088
 10
93.7552055934
 20
140.695233009
 10
93.7935565482
 20
140.6507242617
 10
93.8314669139
 20
140.6054599117
 10
93.8689201456
 20
140.5594597143
 10
93.9058999046
 20
140.5127437368
 10
93.9423900549
 20
140.4653323617
 10
93.9783746511
 20
140.4172463054
 10
94.0138379607
 20
140.3685065912
 10
94.0487644849
 20
140.3191345223
 10
94.0831389885
 20
140.2691516373
 10
94.1169464858
 20
140.2185797266
 10
94.1501722305
 20
140.1674408457
 10
94.1828016971
 20
140.1157573488
 10
94.2148206119
 20
140.063551845
 10
94.2462149769
 20
140.0108471606
 10
94.2769711031
 20
139.9576662798
 10
94.3070755887
 20
139.9040323758
 10
94.3365153061
 20
139.8499688331
 10
94.3652773803
 20
139.7954992912
 10
94.3933492248
 20
139.7406475869
 10
94.4207185651
 20
139.6854377084
 10
94.4473734704
 20
139.629893727
 10
94.4733023291
 20
139.5740398395
 10
94.4984938353
 20
139.5179003951
 10
94.52293697
 20
139.4614999446
 10
94.5466210351
 20
139.4048631734
 10
94.5695356746
 20
139.348014851
 10
94.5916709007
 20
139.2909797617
 10
94.6130170708
 20
139.2337827513
 10
94.6335648765
 20
139.1764487559
 10
94.6533053298
 20
139.1190028484
 10
94.6722297918
 20
139.0614701686
 10
94.6903299891
 20
139.0038758747
 10
94.7075980317
 20
138.9462450786
 10
94.7240263955
 20
138.8886028917
 10
94.7396079149
 20
138.8309744497
 10
94.7543357753
 20
138.7733849495
 10
94.7682035337
 20
138.7158595847
 10
94.7812051292
 20
138.6584235031
 10
94.7933348932
 20
138.6011017541
 10
94.8045875379
 20
138.5439193263
 10
94.8149581533
 20
138.486901164
 10
94.8244422052
 20
138.4300721886
 10
94.8330355469
 20
138.3734572471
 10
94.8407344244
 20
138.3170810787
 10
94.8475354798
 20
138.2609682807
 10
94.8534357462
 20
138.2051433308
 10
94.8584326481
 20
138.1496305923
 10
94.8625240015
 20
138.0944543176
 10
94.8657080189
 20
138.0396386133
 10
94.86798331
 20
137.9852074209
 10
94.8693488819
 20
137.931184501
 10
94.8698041386
 20
137.8775934378
 10
94.8693488813
 20
137.8244576316
 10
94.8679833088
 20
137.7718002841
 10
94.8657080172
 20
137.7196443831
 10
94.8625239992
 20
137.6680126966
 10
94.8584326452
 20
137.6169277755
 10
94.8534357428
 20
137.5664119391
 10
94.8475354757
 20
137.5164872561
 10
94.8407344198
 20
137.467175514
 10
94.8330355418
 20
137.4184982236
 10
94.8244421995
 20
137.3704766242
 10
94.814958147
 20
137.3231317011
 10
94.804587531
 20
137.2764841546
 10
94.7933348858
 20
137.230554372
 10
94.7812051213
 20
137.1853623874
 10
94.7682035252
 20
137.1409279018
 10
94.7543357663
 20
137.097270296
 10
94.7396079054
 20
137.0544086568
 10
94.7240263854
 20
137.0123617348
 10
94.707598021
 20
136.9711479122
 10
94.6903299778
 20
136.9307851591
 10
94.67222978
 20
136.891291063
 10
94.6533053175
 20
136.8526828459
 10
94.6335648638
 20
136.8149773925
 10
94.6130170577
 20
136.7781912036
 10
94.591670887
 20
136.7423403637
 10
94.5695356602
 20
136.7074405009
 10
94.5466210201
 20
136.6735068186
 10
94.5229369547
 20
136.6405541133
 10
94.4984938197
 20
136.6085967985
 10
94.4733023132
 20
136.5776488611
 10
94.4473734539
 20
136.5477238327
 10
94.4207185478
 20
136.5188347571
 10
94.3933492069
 20
136.4909942194
 10
94.3652773622
 20
136.4642143605
 10
94.3365152878
 20
136.4385068939
 10
94.3070755702
 20
136.4138830694
 10
94.276971084
 20
136.3903536516
 10
94.246214957
 20
136.3679288975
 10
94.2148205914
 20
136.3466185786
 10
94.2098131847
 20
136.3433608398
  0
LWPOLYLINE
  5
5C1
100
AcDbEntity
  8
0
100
AcDbPolyline
 62
7
  6
CONTINUOUS
 90
8
 70
0
 10
82.3013818983
 20
163.2028023873
 10
82.3000021642
 20
163.2540875873
 10
82.2945934074
 20
163.3174971566
 10
82.2850798899
 20
163.3823920896
 10
82.2714923599
 20
163.4485873224
 10
82.2538440723
 20
163.5158391128
 10
82.2321024572
 20
163.5839836529
 10
82.207135001
 20
163.6506605486
  0
LWPOLYLINE
  5
5C2
100
AcDbEntity
  8
0
100
AcDbPolyline
 62
253
  6
CONTINUOUS
 90
10
 70
0
 10
82.0719815228
 20
162.7920575036
 10
82.0715697232
 20
162.8113896041
 10
82.0698045161
 20
162.8312411665
 10
82.0666993307
 20
162.8514611668
 10
82.0622777908
 20
162.8718957778
 10
82.0565735339
 20
162.8923895404
 10
82.0496299548
 20
162.9127865461
 10
82.0414998774
 20
162.9329316219
 10
82.0322451528
 20
162.9526715107
 10
82.0219361878
 20
162.9718560382
  0
LINE
  5
5C3
100
AcDbEntity
  8
0
100
AcDbLine
 62
7
  6
CONTINUOUS
 10
82.3013811634
 20
163.2054781874
 11
82.3013811634
 21
162.4505327256
  0
LWPOLYLINE
  5
5C4
100
AcDbEntity
  8
RACCORDO
100
AcDbPolyline
 62
253
  6
CONTINUOUS
 90
24
 70
0
 10
86.2747635899
 20
150.9401126768
 10
86.299377353
 20
150.9995175712
 10
86.3229757938
 20
151.0590649002
 10
86.3455339949
 20
151.1187344801
 10
86.3670630842
 20
151.1786574769
 10
86.387503524
 20
151.2386626197
 10
86.4067424857
 20
151.2982702168
 10
86.4247642782
 20
151.3573956329
 10
86.4415840157
 20
151.4160710913
 10
86.4571627397
 20
151.4739850158
 10
86.4715066531
 20
151.531068687
 10
86.4846387492
 20
151.5873378704
 10
86.4965612189
 20
151.6426057645
 10
86.5073015277
 20
151.6968567032
 10
86.5168787613
 20
151.7500579974
 10
86.5252974826
 20
151.8019968027
 10
86.5325883192
 20
151.8525981503
 10
86.5387946316
 20
151.9018932183
 10
86.5439516405
 20
151.9498290263
 10
86.5480990093
 20
151.9963722424
 10
86.5512779147
 20
152.0415205693
 10
86.5535289602
 20
152.0852694278
 10
86.5548942849
 20
152.1276010199
 10
86.5554157253
 20
152.1685054006
  0
LINE
  5
5C5
100
AcDbEntity
  8
0
100
AcDbLine
 62
7
  6
CONTINUOUS
 10
66.561843847
 20
116.5306508908
 11
66.3212968325
 21
116.2329898844
  0
LINE
  5
5C6
100
AcDbEntity
  8
0
100
AcDbLine
 62
253
  6
CONTINUOUS
 10
66.6204209058
 20
116.4870829929
 11
66.3212968325
 21
116.1169367539
  0
LWPOLYLINE
  5
5C7
100
AcDbEntity
  8
0
100
AcDbPolyline
 62
7
  6
CONTINUOUS
 90
9
 70
0
 10
66.6663747503
 20
121.1492475101
 10
66.6551523268
 20
121.1369847745
 10
66.6457135245
 20
121.1255445765
 10
66.6379758837
 20
121.1150024581
 10
66.6317830822
 20
121.1054732392
 10
66.627108457
 20
121.0969363139
 10
66.6240767972
 20
121.0892567102
 10
66.6226238025
 20
121.0824513951
 10
66.6224488179
 20
121.0796659632
  0
LINE
  5
5C8
100
AcDbEntity
  8
RACCORDO
100
AcDbLine
 62
253
  6
CONTINUOUS
 10
93.3009375562
 20
147.7159654355
 11
93.2946363977
 21
147.7103084866
  0
LWPOLYLINE
  5
5C9
100
AcDbEntity
  8
RACCORDO
100
AcDbPolyline
 62
253
  6
CONTINUOUS
 90
55
 70
0
 10
93.013976198
 20
147.9550876416
 10
93.0197438935
 20
147.9602464946
 10
93.0254886343
 20
147.9651898608
 10
93.0312092805
 20
147.9699178729
 10
93.0368993916
 20
147.974432553
 10
93.042563194
 20
147.9787320805
 10
93.0482150813
 20
147.9828110159
 10
93.0538554029
 20
147.9866728185
 10
93.0594804539
 20
147.9903146513
 10
93.0650977731
 20
147.9937219414
 10
93.0707069583
 20
147.9968965744
 10
93.0763043147
 20
147.9998374732
 10
93.0818919631
 20
148.0025257845
 10
93.0874671146
 20
148.0049616859
 10
93.0930280118
 20
148.0071458379
 10
93.0985779174
 20
148.0090602301
 10
93.1041053282
 20
148.010705388
 10
93.1096167622
 20
148.0120816246
 10
93.1151409739
 20
148.0131711232
 10
93.1206628936
 20
148.0139825754
 10
93.1261897528
 20
148.0145089195
 10
93.1317795494
 20
148.014710081
 10
93.1374317603
 20
148.0145988304
 10
93.1431319079
 20
148.0141659974
 10
93.1489118079
 20
148.0133401679
 10
93.1547754689
 20
148.0121228496
 10
93.160697386
 20
148.0105174229
 10
93.1666626516
 20
148.0084558308
 10
93.1726643541
 20
148.0059310335
 10
93.1786861893
 20
148.0029544833
 10
93.1846999595
 20
147.9994853924
 10
93.1906831153
 20
147.9955272497
 10
93.1966358736
 20
147.9910797181
 10
93.2025633518
 20
147.9860961908
 10
93.208447182
 20
147.9805831292
 10
93.2142777623
 20
147.9745374368
 10
93.2200682387
 20
147.9678989988
 10
93.2258099655
 20
147.96065406
 10
93.23147341
 20
147.9528203663
 10
93.2370367574
 20
147.9443853772
 10
93.242479111
 20
147.9353435558
 10
93.2477808041
 20
147.9257028936
 10
93.2529211387
 20
147.915470743
 10
93.2578633774
 20
147.9046788406
 10
93.2626017259
 20
147.8932960457
 10
93.2671520708
 20
147.881236136
 10
93.2714816839
 20
147.8684995193
 10
93.2755560949
 20
147.8550866514
 10
93.2793684818
 20
147.8409127975
 10
93.2828758647
 20
147.8259537775
 10
93.2860252673
 20
147.8102327081
 10
93.2887765882
 20
147.7937359627
 10
93.2910690844
 20
147.7764678787
 10
93.2928462643
 20
147.7584175172
 10
93.294052036
 20
147.7395473482
  0
LINE
  5
5CA
100
AcDbEntity
  8
0
100
AcDbLine
 62
7
  6
CONTINUOUS
 10
66.5491309078
 20
126.3187546722
 11
66.3212968325
 21
126.2231191817
  0
LWPOLYLINE
  5
5CB
100
AcDbEntity
  8
RACCORDO
100
AcDbPolyline
 62
253
  6
CONTINUOUS
 90
56
 70
0
 10
93.1315262382
 20
136.1413007405
 10
93.1385924731
 20
136.1438362711
 10
93.1457222809
 20
136.1461426402
 10
93.1529147001
 20
136.1482211906
 10
93.160150219
 20
136.1500869977
 10
93.1674461182
 20
136.1517279692
 10
93.1748560595
 20
136.1531054015
 10
93.1824049613
 20
136.1542312696
 10
93.1900638327
 20
136.1550988134
 10
93.1978044197
 20
136.1556424932
 10
93.2056416134
 20
136.155860503
 10
93.2135541849
 20
136.1557624031
 10
93.2214588804
 20
136.1553005426
 10
93.2293357449
 20
136.1544720579
 10
93.2371967692
 20
136.1532891952
 10
93.2450060452
 20
136.1517274922
 10
93.2527419055
 20
136.1497970156
 10
93.2604162617
 20
136.1474990745
 10
93.2680422617
 20
136.144797577
 10
93.2756137275
 20
136.1417079053
 10
93.2831236102
 20
136.138230273
 10
93.290581163
 20
136.1343089299
 10
93.2979934436
 20
136.1299500138
 10
93.3053348146
 20
136.125169649
 10
93.3125628411
 20
136.1199302198
 10
93.3196680706
 20
136.114242832
 10
93.3266372379
 20
136.1081240897
 10
93.3334202917
 20
136.1015469177
 10
93.3399950085
 20
136.0945443612
 10
93.3463573035
 20
136.0871163389
 10
93.3524805338
 20
136.0791908688
 10
93.3583512574
 20
136.0708099574
 10
93.3639479795
 20
136.0619768223
 10
93.3692237025
 20
136.0525719005
 10
93.3741700679
 20
136.0426368946
 10
93.3787456524
 20
136.0321968085
 10
93.3828422892
 20
136.0211222202
 10
93.3864471122
 20
136.009423766
 10
93.3895038982
 20
135.9971872289
 10
93.3918337712
 20
135.984403848
 10
93.3933947326
 20
135.9710598754
 10
93.3941550211
 20
135.957278548
 10
93.3939656008
 20
135.9432372895
 10
93.3927764388
 20
135.9289545771
 10
93.3905918237
 20
135.9144893284
 10
93.3873738369
 20
135.9000379862
 10
93.3830806972
 20
135.8855857589
 10
93.3777392255
 20
135.8711845019
 10
93.3714489339
 20
135.8570793642
 10
93.3642426167
 20
135.8433190142
 10
93.3561143851
 20
135.8298278994
 10
93.3471252703
 20
135.8166344694
 10
93.3372828155
 20
135.8037208924
 10
93.3266028799
 20
135.7910810744
 10
93.3151620766
 20
135.7787556796
 10
93.3029817855
 20
135.7667364282
  0
LWPOLYLINE
  5
5CC
100
AcDbEntity
  8
0
100
AcDbPolyline
 62
253
  6
CONTINUOUS
 90
9
 70
0
 10
70.9362777005
 20
161.3238476968
 10
70.935244082
 20
161.3235616965
 10
70.930118364
 20
161.3222091497
 10
70.9208998842
 20
161.3199076534
 10
70.9078246132
 20
161.3168946645
 10
70.8910947717
 20
161.3132899904
 10
70.8709407694
 20
161.3092390953
 10
70.8476639376
 20
161.3049042127
 10
70.8215678293
 20
161.3004112192
  0
LWPOLYLINE
  5
5CD
100
AcDbEntity
  8
0
100
AcDbPolyline
 62
253
  6
CONTINUOUS
 90
3
 70
0
 10
70.3639094119
 20
161.7043228809
 10
70.341980715
 20
161.7004466035
 10
70.3197740886
 20
161.6949860708
  0
LWPOLYLINE
  5
5CE
100
AcDbEntity
  8
0
100
AcDbPolyline
 62
7
  6
CONTINUOUS
 90
8
 70
0
 10
64.7975292956
 20
159.04941283
 10
64.7674041345
 20
159.0482694985
 10
64.7379319294
 20
159.0450484674
 10
64.7092789906
 20
159.039861811
 10
64.681295318
 20
159.0328433745
 10
64.6544641922
 20
159.0241232051
 10
64.6298452486
 20
159.0139233716
 10
64.6167600042
 20
159.0074704486
  0
LWPOLYLINE
  5
5CF
100
AcDbEntity
  8
0
100
AcDbPolyline
 62
7
  6
CONTINUOUS
 90
4
 70
0
 10
63.1902283429
 20
160.0590708007
 10
63.2077387634
 20
160.0575919738
 10
63.2258782674
 20
160.0529393896
 10
63.2443409809
 20
160.0451948876
  0
LWPOLYLINE
  5
5D0
100
AcDbEntity
  8
0
100
AcDbPolyline
 62
7
  6
CONTINUOUS
 90
4
 70
0
 10
59.3364963854
 20
161.9859367795
 10
59.354006806
 20
161.9844579525
 10
59.37214631
 20
161.9798053683
 10
59.3906090234
 20
161.9720608663
  0
LWPOLYLINE
  5
5D1
100
AcDbEntity
  8
0
100
AcDbPolyline
 62
253
  6
CONTINUOUS
 90
4
 70
0
 10
55.4316300902
 20
161.9489990564
 10
55.4407878769
 20
161.9474272883
 10
55.4609614224
 20
161.9464800037
 10
55.4813426938
 20
161.9488963851
  0
LINE
  5
5D2
100
AcDbEntity
  8
0
100
AcDbLine
 62
7
  6
CONTINUOUS
 10
56.0817171956
 20
161.8110950751
 11
55.4316309796
 21
161.9489988677
  0
LINE
  5
5D3
100
AcDbEntity
  8
0
100
AcDbLine
 62
253
  6
CONTINUOUS
 10
56.3315148057
 20
161.9200933955
 11
55.6120654297
 21
162.0727113023
  0
LWPOLYLINE
  5
5D4
100
AcDbEntity
  8
0
100
AcDbPolyline
 62
7
  6
CONTINUOUS
 90
3
 70
0
 10
63.8567103868
 20
160.3343457837
 10
63.8809030857
 20
160.3282377616
 10
63.9042275448
 20
160.3191273645
  0
LWPOLYLINE
  5
5D5
100
AcDbEntity
  8
0
100
AcDbPolyline
 62
7
  6
CONTINUOUS
 90
3
 70
0
 10
55.9724697765
 20
164.7094787907
 10
55.9966624754
 20
164.7033707687
 10
56.0199869346
 20
164.6942603715
  0
LWPOLYLINE
  5
5D6
100
AcDbEntity
  8
RACCORDO
100
AcDbPolyline
 62
7
  6
CONTINUOUS
 90
9
 70
0
 10
87.0851241018
 20
155.033738101
 10
87.0790073612
 20
155.0353375987
 10
87.0692371475
 20
155.0368704126
 10
87.058910952
 20
155.0372858569
 10
87.0481237549
 20
155.0365840845
 10
87.0371604959
 20
155.0347655531
 10
87.0261161552
 20
155.0318304156
 10
87.0148957527
 20
155.0277785192
 10
87.0034992885
 20
155.022609864
  0
LWPOLYLINE
  5
5D7
100
AcDbEntity
  8
RACCORDO
100
AcDbPolyline
 62
7
  6
CONTINUOUS
 90
6
 70
0
 10
87.0851139655
 20
155.0337141485
 10
86.976398619
 20
155.0649999943
 10
86.861543576
 20
155.0943536714
 10
86.744282152
 20
155.1206807415
 10
86.6249089872
 20
155.1439428333
 10
86.5554237895
 20
155.1555048738
  0
LWPOLYLINE
  5
5D8
100
AcDbEntity
  8
0
100
AcDbPolyline
 62
253
  6
CONTINUOUS
 90
4
 70
0
 10
70.5060869125
 20
161.6857816612
 10
70.4857058269
 20
161.6938715787
 10
70.4661811353
 20
161.6998544208
 10
70.4476073025
 20
161.703832383
  0
LWPOLYLINE
  5
5D9
100
AcDbEntity
  8
0
100
AcDbPolyline
 62
253
  6
CONTINUOUS
 90
3
 70
0
 10
70.4476073025
 20
161.703832383
 10
70.4285695312
 20
161.7114713129
 10
70.4128992893
 20
161.7151731408
  0
LWPOLYLINE
  5
5DA
100
AcDbEntity
  8
0
100
AcDbPolyline
 62
253
  6
CONTINUOUS
 90
7
 70
0
 10
70.2521240827
 20
161.6692773351
 10
70.2336437763
 20
161.6770148052
 10
70.2154374424
 20
161.6816356342
 10
70.1978165965
 20
161.6830607583
 10
70.1810827362
 20
161.6812657934
 10
70.1655221823
 20
161.6762814518
 10
70.1633118234
 20
161.6752660417
  0
LWPOLYLINE
  5
5DB
100
AcDbEntity
  8
0
100
AcDbPolyline
 62
253
  6
CONTINUOUS
 90
4
 70
0
 10
70.8001066603
 20
161.5391546562
 10
70.786050552
 20
161.5451359279
 10
70.7670983835
 20
161.5510910852
 10
70.7466169359
 20
161.5555825958
  0
LWPOLYLINE
  5
5DC
100
AcDbEntity
  8
0
100
AcDbPolyline
 62
253
  6
CONTINUOUS
 90
5
 70
0
 10
65.272450766
 20
164.3029841995
 10
65.2645136093
 20
164.3065631586
 10
65.249121813
 20
164.3121540518
 10
65.2325914049
 20
164.3166410174
 10
65.2150171218
 20
164.3201274734
  0
LWPOLYLINE
  5
5DD
100
AcDbEntity
  8
0
100
AcDbPolyline
 62
7
  6
CONTINUOUS
 90
4
 70
0
 10
70.5200242572
 20
161.679203268
 10
70.4926562586
 20
161.6917724613
 10
70.4590486033
 20
161.704065098
 10
70.4255521415
 20
161.7127942072
  0
LWPOLYLINE
  5
5DE
100
AcDbEntity
  8
0
100
AcDbPolyline
 62
7
  6
CONTINUOUS
 90
4
 70
0
 10
64.9916737564
 20
164.4433741074
 10
64.9684891239
 20
164.4541376594
 10
64.935867896
 20
164.4664713585
 10
64.9033638512
 20
164.4754475364
  0
LINE
  5
5DF
100
AcDbEntity
  8
0
100
AcDbLine
 62
253
  6
CONTINUOUS
 10
70.5192447385
 20
161.6795965235
 11
70.5060869125
 21
161.6857816612
  0
LINE
  5
5E0
100
AcDbEntity
  8
0
100
AcDbLine
 62
253
  6
CONTINUOUS
 10
65.2735885591
 20
164.3024246017
 11
65.272450766
 21
164.3029841995
  0
LINE
  5
5E1
100
AcDbEntity
  8
0
100
AcDbLine
 62
253
  6
CONTINUOUS
 10
70.8015486487
 20
161.5384448838
 11
70.8001066603
 21
161.5391546562
  0
LINE
  5
5E2
100
AcDbEntity
  8
0
100
AcDbLine
 62
7
  6
CONTINUOUS
 10
70.5199782252
 20
161.6792298923
 11
70.5192447385
 21
161.6795965235
  0
LINE
  5
5E3
100
AcDbEntity
  8
RACCORDO
100
AcDbLine
 62
253
  6
CONTINUOUS
 10
86.5917228236
 20
152.6673965565
 11
86.5554237895
 21
152.6855460736
  0
LINE
  5
5E4
100
AcDbEntity
  8
0
100
AcDbLine
 62
253
  6
CONTINUOUS
 10
64.7220680793
 20
164.4343053368
 11
65.019533902
 21
164.2855724255
  0
LINE
  5
5E5
100
AcDbEntity
  8
0
100
AcDbLine
 62
253
  6
CONTINUOUS
 10
70.2521240827
 20
161.6692773351
 11
70.5495899054
 21
161.5205444238
  0
LINE
  5
5E6
100
AcDbEntity
  8
0
100
AcDbLine
 62
7
  6
CONTINUOUS
 10
64.9920718036
 20
164.4431833366
 11
65.2731825639
 21
164.3026279565
  0
LINE
  5
5E7
100
AcDbEntity
  8
0
100
AcDbLine
 62
7
  6
CONTINUOUS
 10
70.5203201263
 20
161.6790591753
 11
70.8014295033
 21
161.5385044867
  0
LINE
  5
5E8
100
AcDbEntity
  8
RACCORDO
100
AcDbLine
 62
253
  6
CONTINUOUS
 10
86.603746972
 20
152.6611544994
 11
86.5917228236
 21
152.6673965565
  0
LINE
  5
5E9
100
AcDbEntity
  8
0
100
AcDbLine
 62
253
  6
CONTINUOUS
 10
70.7646289679
 20
161.5447714422
 11
70.746610836
 21
161.5555661735
  0
LINE
  5
5EA
100
AcDbEntity
  8
0
100
AcDbLine
 62
253
  6
CONTINUOUS
 10
65.2328983011
 20
164.3093068041
 11
65.2150171218
 21
164.3201274734
  0
LINE
  5
5EB
100
AcDbEntity
  8
0
100
AcDbLine
 62
7
  6
CONTINUOUS
 10
77.9681668375
 20
157.0459018615
 11
76.8268130641
 21
159.0144459287
  0
LWPOLYLINE
  5
5EC
100
AcDbEntity
  8
RACCORDO
100
AcDbPolyline
 62
7
  6
CONTINUOUS
 90
31
 70
0
 10
86.5554237799
 20
159.4603531124
 10
86.555142815
 20
159.4944477463
 10
86.5540138358
 20
159.5369292168
 10
86.5520281309
 20
159.5794746298
 10
86.5491920232
 20
159.6220892154
 10
86.5455129834
 20
159.6647524866
 10
86.5410019369
 20
159.7074149171
 10
86.5356668385
 20
159.7500703985
 10
86.5295149288
 20
159.7927111772
 10
86.5225607415
 20
159.8352831414
 10
86.5148128714
 20
159.8777797145
 10
86.5062788364
 20
159.920194309
 10
86.4969769829
 20
159.9624712101
 10
86.4869168303
 20
160.0046016502
 10
86.476106048
 20
160.0465813659
 10
86.464564837
 20
160.0883600126
 10
86.4523052397
 20
160.1299213481
 10
86.4393332484
 20
160.1712688732
 10
86.4256619589
 20
160.2123805748
 10
86.4113004654
 20
160.2532467413
 10
86.3962553058
 20
160.2938638066
 10
86.3805359735
 20
160.3342176572
 10
86.3641492508
 20
160.3743011768
 10
86.347100978
 20
160.4141074173
 10
86.3293999348
 20
160.4536216373
 10
86.3110519697
 20
160.4928354832
 10
86.2920614223
 20
160.5317417441
 10
86.2724350689
 20
160.5703277473
 10
86.2521772598
 20
160.6085844146
 10
86.2312912305
 20
160.6465040153
 10
86.2134563399
 20
160.6777575732
  0
LWPOLYLINE
  5
5ED
100
AcDbEntity
  8
RACCORDO
100
AcDbPolyline
 62
253
  6
CONTINUOUS
 90
37
 70
0
 10
86.2747635899
 20
159.1130256157
 10
86.2745336611
 20
159.15102789
 10
86.2736251777
 20
159.1893454413
 10
86.2720385317
 20
159.2279600102
 10
86.2697744066
 20
159.2668531073
 10
86.2668338816
 20
159.3060062926
 10
86.2632184186
 20
159.3454011886
 10
86.2589296918
 20
159.3850191532
 10
86.2539697065
 20
159.4248412025
 10
86.2483409021
 20
159.464848292
 10
86.2420459512
 20
159.5050213156
 10
86.2350878098
 20
159.5453412012
 10
86.2274698251
 20
159.5857888384
 10
86.2191956115
 20
159.6263449781
 10
86.2102690816
 20
159.6669903105
 10
86.2006944979
 20
159.7077055598
 10
86.1904764053
 20
159.7484713826
 10
86.1796196539
 20
159.7892683458
 10
86.1681294271
 20
159.8300770057
 10
86.1560111994
 20
159.8708779495
 10
86.143270729
 20
159.9116517609
 10
86.1299140815
 20
159.9523789983
 10
86.1159476398
 20
159.9930402639
 10
86.101378043
 20
160.0336162412
 10
86.0862121791
 20
160.0740876605
 10
86.0704572885
 20
160.1144352778
 10
86.054120877
 20
160.1546399022
 10
86.0372106513
 20
160.1946824328
 10
86.019734662
 20
160.2345438945
 10
86.0017012652
 20
160.2742052695
 10
85.9831190364
 20
160.313647526
 10
85.9639969172
 20
160.3528518063
 10
85.9443439846
 20
160.3917995884
 10
85.9241694034
 20
160.4304725141
 10
85.9034827321
 20
160.4688522512
 10
85.8822939278
 20
160.5069205073
 10
85.8606131142
 20
160.5446591903
  0
LINE
  5
5EE
100
AcDbEntity
  8
RACCORDO
100
AcDbLine
 62
253
  6
CONTINUOUS
 10
86.2747635899
 20
150.9401126348
 11
86.2747635899
 21
159.1130256157
  0
LINE
  5
5EF
100
AcDbEntity
  8
RACCORDO
100
AcDbLine
 62
7
  6
CONTINUOUS
 10
86.5554237895
 20
152.1735719791
 11
86.5554237895
 21
159.460354801
  0
LINE
  5
5F0
100
AcDbEntity
  8
RACCORDO
100
AcDbLine
 62
253
  6
CONTINUOUS
 10
86.5554157253
 20
152.1685054006
 11
86.5554237895
 21
152.1735719791
  0
LWPOLYLINE
  5
5F1
100
AcDbEntity
  8
RACCORDO
100
AcDbPolyline
 62
7
  6
CONTINUOUS
 90
16
 70
0
 10
93.013976198
 20
147.9550874345
 10
93.0205242982
 20
147.9655041869
 10
93.027265823
 20
147.9757792375
 10
93.0342007724
 20
147.9859125863
 10
93.0413301289
 20
147.9959192866
 10
93.04865291
 20
148.005784285
 10
93.0561661685
 20
148.0154624217
 10
93.0638755713
 20
148.0249538866
 10
93.0717754516
 20
148.0342584898
 10
93.0798458621
 20
148.0433305011
 10
93.088090628
 20
148.0521670827
 10
93.096505924
 20
148.0607710723
 10
93.1050603273
 20
148.0691052542
 10
93.1137433635
 20
148.077157223
 10
93.1225655069
 20
148.084939384
 10
93.1315267575
 20
148.0924517371
  0
LWPOLYLINE
  5
5F2
100
AcDbEntity
  8
0
100
AcDbPolyline
 62
253
  6
CONTINUOUS
 90
10
 70
0
 10
67.7060810701
 20
114.8578568076
 10
67.6925390523
 20
114.840198073
 10
67.6800426681
 20
114.8211682174
 10
67.6687756197
 20
114.8010019981
 10
67.6588943903
 20
114.77992077
 10
67.6505755373
 20
114.7582334348
 10
67.6439856257
 20
114.736338916
 10
67.6392215418
 20
114.7145724968
 10
67.63633654
 20
114.6931959675
 10
67.635370392
 20
114.6725014686
  0
LINE
  5
5F3
100
AcDbEntity
  8
0
100
AcDbLine
 62
253
  6
CONTINUOUS
 10
68.3535855085
 20
115.6205006915
 11
67.7060810701
 21
114.8578568076
  0
LINE
  5
5F4
100
AcDbEntity
  8
0
100
AcDbLine
 62
253
  6
CONTINUOUS
 10
68.6351727983
 20
115.5186602598
 11
67.9157234223
 21
114.6712781666
  0
LINE
  5
5F5
100
AcDbEntity
  8
0
100
AcDbLine
 62
7
  6
CONTINUOUS
 10
66.8765265531
 20
124.1423053727
 11
66.3212968325
 21
123.8391891481
  0
LINE
  5
5F6
100
AcDbEntity
  8
0
100
AcDbLine
 62
7
  6
CONTINUOUS
 10
66.7445410869
 20
123.9997067839
 11
66.3212968325
 21
123.7686453048
  0
LINE
  5
5F7
100
AcDbEntity
  8
0
100
AcDbLine
 62
7
  6
CONTINUOUS
 10
66.5926952973
 20
123.9011752057
 11
66.8765265531
 21
124.0501740658
  0
LINE
  5
5F8
100
AcDbEntity
  8
0
100
AcDbLine
 62
7
  6
CONTINUOUS
 10
68.8948631571
 20
123.9496737823
 11
68.3169747468
 21
123.6585014498
  0
LINE
  5
5F9
100
AcDbEntity
  8
0
100
AcDbLine
 62
253
  6
CONTINUOUS
 10
67.5609250959
 20
124.9504760713
 11
68.1755960962
 21
125.2452027505
  0
LINE
  5
5FA
100
AcDbEntity
  8
0
100
AcDbLine
 62
253
  6
CONTINUOUS
 10
67.5081707442
 20
124.5723000613
 11
68.1227367737
 21
124.8666872856
  0
LWPOLYLINE
  5
5FB
100
AcDbEntity
  8
RACCORDO
100
AcDbPolyline
 62
253
  6
CONTINUOUS
 90
16
 70
0
 10
64.5631698704
 20
124.7798057844
 10
64.5240717737
 20
124.7622341245
 10
64.4817415372
 20
124.7467698584
 10
64.4366276257
 20
124.7335768212
 10
64.3892079954
 20
124.7227947855
 10
64.3399850302
 20
124.7145379809
 10
64.2894802192
 20
124.7088938835
 10
64.2382286323
 20
124.7059222893
 10
64.1867732507
 20
124.7056546806
 10
64.1356592148
 20
124.7080938926
 10
64.0854280487
 20
124.7132140833
 10
64.0366119229
 20
124.7209610072
 10
63.9897280165
 20
124.7312525899
 10
63.9452730376
 20
124.7439797981
 10
63.9037179615
 20
124.7590077943
 10
63.8655030404
 20
124.7761773653
  0
LWPOLYLINE
  5
5FC
100
AcDbEntity
  8
0
100
AcDbPolyline
 62
253
  6
CONTINUOUS
 90
13
 70
0
 10
67.5609250959
 20
124.9504759973
 10
67.5362583333
 20
124.9400196129
 10
67.5090984363
 20
124.9312427531
 10
67.4798998631
 20
124.9242922784
 10
67.4491511842
 20
124.9192844888
 10
67.4173669077
 20
124.9163031782
 10
67.3850788701
 20
124.915398232
 10
67.3528273371
 20
124.9165847923
 10
67.3211519634
 20
124.9198430048
 10
67.2905827634
 20
124.9251183508
 10
67.2616312419
 20
124.9323225596
 10
67.2347818359
 20
124.9413350856
 10
67.210483808
 20
124.9520051247
  0
LWPOLYLINE
  5
5FD
100
AcDbEntity
  8
0
100
AcDbPolyline
 62
253
  6
CONTINUOUS
 90
13
 70
0
 10
67.5081706732
 20
124.5722998317
 10
67.4835974363
 20
124.5625128391
 10
67.4566766269
 20
124.5554487841
 10
67.4278586927
 20
124.5512258727
 10
67.3976258336
 20
124.5499147714
 10
67.3664839142
 20
124.5515374242
 10
67.3349539984
 20
124.5560666904
 10
67.3035636617
 20
124.563426796
 10
67.2728381529
 20
124.5734945983
 10
67.2432915861
 20
124.5861016517
 10
67.2154183621
 20
124.6010370202
 10
67.1896848936
 20
124.6180508029
 10
67.1665217891
 20
124.6368583199
  0
LINE
  5
5FE
100
AcDbEntity
  8
RACCORDO
100
AcDbLine
 62
253
  6
CONTINUOUS
 10
72.2666768676
 20
165.0898565772
 11
72.2768594129
 21
165.0927051716
  0
LWPOLYLINE
  5
5FF
100
AcDbEntity
  8
RACCORDO
100
AcDbPolyline
 62
253
  6
CONTINUOUS
 90
3
 70
0
 10
72.2768594129
 20
165.0927051716
 10
72.2872313142
 20
165.0955109459
 10
72.2924883805
 20
165.0968972448
  0
LWPOLYLINE
  5
600
100
AcDbEntity
  8
RACCORDO
100
AcDbPolyline
 62
253
  6
CONTINUOUS
 90
4
 70
0
 10
72.2924883805
 20
165.0968972448
 10
72.3031449759
 20
165.09963223
 10
72.3085445049
 20
165.1009809163
 10
72.3139913677
 20
165.1023155251
  0
LWPOLYLINE
  5
601
100
AcDbEntity
  8
RACCORDO
100
AcDbPolyline
 62
253
  6
CONTINUOUS
 90
128
 70
0
 10
72.3139913677
 20
165.1023155251
 10
72.3250272457
 20
165.104942546
 10
72.3306158269
 20
165.1062333525
 10
72.3362515838
 20
165.1075085344
 10
72.341934316
 20
165.1087680512
 10
72.3476630649
 20
165.1100101933
 10
72.3534379921
 20
165.1112349833
 10
72.3592589359
 20
165.1124423987
 10
72.3651244534
 20
165.1136306632
 10
72.3710343638
 20
165.1147997321
 10
72.3769888479
 20
165.11594965
 10
72.3829870049
 20
165.1170787739
 10
72.3890290665
 20
165.1181871409
 10
72.3951148012
 20
165.1192747139
 10
72.4012426128
 20
165.1203397386
 10
72.4074208196
 20
165.1213833894
 10
72.4136411035
 20
165.122404492
 10
72.4198769139
 20
165.1233977698
 10
72.4261246788
 20
165.1243622753
 10
72.4323879703
 20
165.125298956
 10
72.4386509539
 20
165.1262053779
 10
72.444911137
 20
165.1270809799
 10
72.4511710122
 20
165.1279263231
 10
72.4574222233
 20
165.1287406566
 10
72.4636636704
 20
165.129523741
 10
72.4698964534
 20
165.1302758157
 10
72.476115516
 20
165.1309968485
 10
72.4823204822
 20
165.131686742
 10
72.488511728
 20
165.1323455935
 10
72.4946853243
 20
165.1329736631
 10
72.5008408771
 20
165.1335708794
 10
72.5069787806
 20
165.1341373139
 10
72.5130962876
 20
165.1346734409
 10
72.5191931226
 20
165.1351792234
 10
72.5252695613
 20
165.1356546985
 10
72.5313236839
 20
165.1361004518
 10
72.5373558675
 20
165.1365164932
 10
72.5433657352
 20
165.1369028129
 10
72.5493502363
 20
165.1372599665
 10
72.5553091793
 20
165.1375879202
 10
72.5612427557
 20
165.1378867078
 10
72.5671484897
 20
165.1381569866
 10
72.5730262128
 20
165.1383987354
 10
72.5788760934
 20
165.1386119754
 10
72.5846961613
 20
165.1387974273
 10
72.5904864952
 20
165.1389550808
 10
72.5962470165
 20
165.1390849462
 10
72.6019755184
 20
165.1391877752
 10
72.6076720236
 20
165.1392635513
 10
72.6133365095
 20
165.1393122909
 10
72.6189667013
 20
165.1393347956
 10
72.6245624737
 20
165.1393310494
 10
72.6301239519
 20
165.1393010683
 10
72.6356492374
 20
165.139245702
 10
72.6411381378
 20
165.139164944
 10
72.6465908454
 20
165.1390588009
 10
72.6520060387
 20
165.1389281416
 10
72.6573836628
 20
165.1387729637
 10
72.6627237725
 20
165.1385932697
 10
72.6680252106
 20
165.1383899356
 10
72.6732882599
 20
165.1381629375
 10
72.6785126375
 20
165.1379122993
 10
72.6836963377
 20
165.1376389694
 10
72.6888391508
 20
165.1373429421
 10
72.6939412865
 20
165.137024223
 10
72.6990013685
 20
165.1366837767
 10
72.7040191841
 20
165.1363216108
 10
72.708994946
 20
165.1359377178
 10
72.7139279158
 20
165.1355330395
 10
72.7188180101
 20
165.1351075823
 10
72.7236653124
 20
165.1346613399
 10
72.7284693346
 20
165.1341952359
 10
72.7332300247
 20
165.1337092764
 10
72.7379474347
 20
165.1332034553
 10
72.7426212336
 20
165.132678678
 10
72.7472513647
 20
165.1321349528
 10
72.7518378847
 20
165.1315722714
 10
72.756380632
 20
165.1309915132
 10
72.7608795273
 20
165.1303926929
 10
72.7653346499
 20
165.1297757959
 10
72.7697460761
 20
165.1291416579
 10
72.7741137543
 20
165.1284902931
 10
72.7784377362
 20
165.1278216875
 10
72.7827182522
 20
165.1271366344
 10
72.786955265
 20
165.1264351479
 10
72.791148812
 20
165.125717214
 10
72.7952992361
 20
165.1249835846
 10
72.7994064878
 20
165.1242342779
 10
72.8034706165
 20
165.1234692757
 10
72.8074921138
 20
165.1226892754
 10
72.8114709428
 20
165.1218942952
 10
72.8154071403
 20
165.121084317
 10
72.8193013081
 20
165.1202599833
 10
72.8231534052
 20
165.1194213156
 10
72.8269634725
 20
165.1185682925
 10
72.8307322346
 20
165.117701491
 10
72.8344596496
 20
165.1168209367
 10
72.8381457593
 20
165.1159266041
 10
72.8417914141
 20
165.1150189949
 10
72.8453965976
 20
165.1140981308
 10
72.8489613262
 20
165.1131639902
 10
72.8524864987
 20
165.1122170096
 10
72.8559721149
 20
165.1112572077
 10
72.8594181751
 20
165.1102845658
 10
72.8628255794
 20
165.1092994647
 10
72.8661943179
 20
165.108301927
 10
72.8695244005
 20
165.1072919301
 10
72.8728167568
 20
165.1062697876
 10
72.8760713795
 20
165.105235523
 10
72.879288276
 20
165.1041891127
 10
72.8824683983
 20
165.1031307992
 10
72.8856117544
 20
165.1020606027
 10
72.8887183363
 20
165.100978503
 10
72.8917890716
 20
165.0998846822
 10
72.8948239835
 20
165.0987791551
 10
72.8978230488
 20
165.097661907
 10
72.9007871257
 20
165.0965330758
 10
72.9037162497
 20
165.0953926706
 10
72.9066103853
 20
165.0942406822
 10
72.909470284
 20
165.0930772212
 10
72.9122959716
 20
165.0919022978
 10
72.9150874224
 20
165.0907159017
 10
72.917845311
 20
165.0895181122
 10
72.9205696499
 20
165.0883089475
 10
72.9232604266
 20
165.0870883894
 10
72.9259182783
 20
165.0858564625
 10
72.9285434172
 20
165.0846131751
 10
72.9311356311
 20
165.0833585191
  0
LWPOLYLINE
  5
602
100
AcDbEntity
  8
0
100
AcDbPolyline
 62
7
  6
CONTINUOUS
 90
6
 70
0
 10
70.3338149502
 20
161.7197934454
 10
70.3062305261
 20
161.7175532242
 10
70.2781926237
 20
161.7133089961
 10
70.2497999847
 20
161.707006658
 10
70.2211334885
 20
161.6985954842
 10
70.1922750823
 20
161.6880289008
  0
LINE
  5
603
100
AcDbEntity
  8
0
100
AcDbLine
 62
7
  6
CONTINUOUS
 10
70.3608449265
 20
161.7200934309
 11
70.3338149502
 21
161.7197934454
  0
LINE
  5
604
100
AcDbEntity
  8
0
100
AcDbLine
 62
7
  6
CONTINUOUS
 10
59.0563871378
 20
162.2202230832
 11
59.6007126584
 21
162.2173141569
  0
LWPOLYLINE
  5
605
100
AcDbEntity
  8
0
100
AcDbPolyline
 62
7
  6
CONTINUOUS
 90
8
 70
0
 10
60.3476928601
 20
162.0495265282
 10
60.3778180213
 20
162.0480947418
 10
60.4072902264
 20
162.0448857079
 10
60.4359431652
 20
162.0398451908
 10
60.4639268378
 20
162.032826546
 10
60.4907579635
 20
162.0239070298
 10
60.5153769072
 20
162.0135405451
 10
60.5223347711
 20
162.0101654626
  0
LWPOLYLINE
  5
606
100
AcDbEntity
  8
0
100
AcDbPolyline
 62
7
  6
CONTINUOUS
 90
4
 70
0
 10
55.3059877326
 20
164.4342038077
 10
55.3234981532
 20
164.4327249808
 10
55.3416376572
 20
164.4280723966
 10
55.3601003706
 20
164.4203278946
  0
LWPOLYLINE
  5
607
100
AcDbEntity
  8
0
100
AcDbPolyline
 62
253
  6
CONTINUOUS
 90
7
 70
0
 10
70.8215678293
 20
161.3004112192
 10
70.8009310874
 20
161.3026506325
 10
70.7798438351
 20
161.3024112535
 10
70.7583060725
 20
161.2996930822
 10
70.7363177995
 20
161.2944961186
 10
70.7138790162
 20
161.2868203627
 10
70.6909897225
 20
161.2766658144
  0
LWPOLYLINE
  5
608
100
AcDbEntity
  8
0
100
AcDbPolyline
 62
253
  6
CONTINUOUS
 90
7
 70
0
 10
70.7466169359
 20
161.5555825958
 10
70.7159735487
 20
161.5590942469
 10
70.6841587663
 20
161.5588401978
 10
70.651388365
 20
161.5548204519
 10
70.6178846321
 20
161.5470602461
 10
70.5838748766
 20
161.5356098875
 10
70.5495899054
 20
161.5205444238
  0
LWPOLYLINE
  5
609
100
AcDbEntity
  8
0
100
AcDbPolyline
 62
253
  6
CONTINUOUS
 90
10
 70
0
 10
65.2888092617
 20
164.0634856737
 10
65.2752133201
 20
164.0651609344
 10
65.2613806028
 20
164.0657746899
 10
65.2473111096
 20
164.06532694
 10
65.2329839052
 20
164.0638139758
 10
65.218419925
 20
164.0612395062
 10
65.2036819753
 20
164.0576146586
 10
65.1887909914
 20
164.0529431421
 10
65.1737260381
 20
164.0472212476
 10
65.1584871152
 20
164.0404489751
  0
LWPOLYLINE
  5
60A
100
AcDbEntity
  8
0
100
AcDbPolyline
 62
253
  6
CONTINUOUS
 90
3
 70
0
 10
64.9237345909
 20
164.4670237683
 10
64.8923622561
 20
164.4709004675
 10
64.8598008769
 20
164.4710203437
  0
LWPOLYLINE
  5
60B
100
AcDbEntity
  8
0
100
AcDbPolyline
 62
253
  6
CONTINUOUS
 90
5
 70
0
 10
70.4476073025
 20
161.703832383
 10
70.4274063403
 20
161.7063582264
 10
70.4066833392
 20
161.7072829216
 10
70.3854975165
 20
161.7066038263
 10
70.3639094119
 20
161.7043228809
  0
LWPOLYLINE
  5
60C
100
AcDbEntity
  8
0
100
AcDbPolyline
 62
253
  6
CONTINUOUS
 90
10
 70
0
 10
65.2150171218
 20
164.3201274734
 10
65.1948161599
 20
164.3226533168
 10
65.1740931592
 20
164.323578012
 10
65.1529073369
 20
164.3228989167
 10
65.1313192328
 20
164.3206179715
 10
65.1093905363
 20
164.3167416943
 10
65.08718391
 20
164.3112811618
 10
65.0647628107
 20
164.3042519777
 10
65.0421913082
 20
164.2956742285
 10
65.019533902
 20
164.2855724255
  0
LINE
  5
60D
100
AcDbEntity
  8
0
100
AcDbLine
 62
7
  6
CONTINUOUS
 10
64.8915479523
 20
164.4779026646
 11
64.8488347248
 21
164.4834007446
  0
LWPOLYLINE
  5
60E
100
AcDbEntity
  8
0
100
AcDbPolyline
 62
7
  6
CONTINUOUS
 90
3
 70
0
 10
70.4128992893
 20
161.7151731408
 10
70.3872349368
 20
161.7185264446
 10
70.3608449265
 20
161.7200934309
  0
LINE
  5
60F
100
AcDbEntity
  8
0
100
AcDbLine
 62
7
  6
CONTINUOUS
 10
70.4128992893
 20
161.7151731408
 11
70.4128228538
 21
161.7151858713
  0
LINE
  5
610
100
AcDbEntity
  8
0
100
AcDbLine
 62
7
  6
CONTINUOUS
 10
70.4255521415
 20
161.7127942072
 11
70.4128204992
 21
161.7151727728
  0
LINE
  5
611
100
AcDbEntity
  8
0
100
AcDbLine
 62
7
  6
CONTINUOUS
 10
64.891873038
 20
164.4778419115
 11
64.8915479523
 21
164.4779026646
  0
LINE
  5
612
100
AcDbEntity
  8
0
100
AcDbLine
 62
7
  6
CONTINUOUS
 10
64.9033638512
 20
164.4754475364
 11
64.8918693313
 21
164.4778244588
  0
LWPOLYLINE
  5
613
100
AcDbEntity
  8
0
100
AcDbPolyline
 62
253
  6
CONTINUOUS
 90
3
 70
0
 10
64.9237298412
 20
164.4670109773
 10
64.905033865
 20
164.4745732514
 10
64.891873038
 20
164.4778419115
  0
LWPOLYLINE
  5
614
100
AcDbEntity
  8
RACCORDO
100
AcDbPolyline
 62
7
  6
CONTINUOUS
 90
3
 70
0
 10
87.0971647835
 20
155.0289203204
 10
87.0883165732
 20
155.032687568
 10
87.0851241018
 20
155.033738101
  0
LWPOLYLINE
  5
615
100
AcDbEntity
  8
0
100
AcDbPolyline
 62
253
  6
CONTINUOUS
 90
6
 70
0
 10
64.7220680793
 20
164.4343053368
 10
64.7039161456
 20
164.4421943148
 10
64.6860324624
 20
164.4469652671
 10
64.668722906
 20
164.4485365931
 10
64.6522835332
 20
164.4468814175
 10
64.6358568567
 20
164.4415159955
  0
LWPOLYLINE
  5
616
100
AcDbEntity
  8
DRAFT
100
AcDbPolyline
 62
7
  6
CONTINUOUS
 90
10
 70
0
 10
88.0178168649
 20
155.387468086
 10
88.0539224845
 20
155.3717603611
 10
88.0894570869
 20
155.3557518737
 10
88.124420672
 20
155.3394426236
 10
88.1588234092
 20
155.3228275262
 10
88.1926551292
 20
155.3059116662
 10
88.225885324
 20
155.2887102976
 10
88.2585038242
 20
155.271228505
 10
88.2905207991
 20
155.2534612038
 10
88.3219362488
 20
155.235408394
  0
LWPOLYLINE
  5
617
100
AcDbEntity
  8
0
100
AcDbPolyline
 62
253
  6
CONTINUOUS
 90
4
 70
0
 10
64.9917558067
 20
164.4433413029
 10
64.9696657133
 20
164.4533243486
 10
64.9460562107
 20
164.4616076764
 10
64.9237345909
 20
164.4670237683
  0
LINE
  5
618
100
AcDbEntity
  8
0
100
AcDbLine
 62
7
  6
CONTINUOUS
 10
64.4783021491
 20
165.315523041
 11
65.3080484175
 21
164.9006499068
  0
LINE
  5
619
100
AcDbEntity
  8
0
100
AcDbLine
 62
7
  6
CONTINUOUS
 10
75.7326376607
 20
159.6883552853
 11
76.5768225833
 21
159.2662628239
  0
LINE
  5
61A
100
AcDbEntity
  8
0
100
AcDbLine
 62
7
  6
CONTINUOUS
 10
68.0526886321
 20
163.6942880766
 11
72.4721187432
 21
161.484573021
  0
LINE
  5
61B
100
AcDbEntity
  8
DRAFT
100
AcDbLine
 62
7
  6
CONTINUOUS
 10
88.4658103449
 20
155.1478114934
 11
87.8342790238
 21
155.4635771539
  0
LINE
  5
61C
100
AcDbEntity
  8
DRAFT
100
AcDbLine
 62
7
  6
CONTINUOUS
 10
88.0178168649
 20
155.387468086
 11
88.3219362488
 21
155.235408394
  0
LWPOLYLINE
  5
61D
100
AcDbEntity
  8
RACCORDO
100
AcDbPolyline
 62
7
  6
CONTINUOUS
 90
4
 70
0
 10
87.9456929209
 20
154.6046562517
 10
88.0282485447
 20
154.5633469508
 10
88.1126697989
 20
154.5209312869
 10
88.1530910137
 20
154.500543331
  0
LWPOLYLINE
  5
61E
100
AcDbEntity
  8
RACCORDO
100
AcDbPolyline
 62
7
  6
CONTINUOUS
 90
10
 70
0
 10
87.9077488537
 20
154.6173239066
 10
87.8102718
 20
154.6673793383
 10
87.7146585982
 20
154.7163552139
 10
87.6209092482
 20
154.7642515335
 10
87.5290381669
 20
154.8110697213
 10
87.4390309375
 20
154.856808353
 10
87.3508443095
 20
154.9014631561
 10
87.2644638661
 20
154.9450327062
 10
87.1799040241
 20
154.9875184276
 10
87.0971647835
 20
155.0289203204
  0
LINE
  5
61F
100
AcDbEntity
  8
RACCORDO
100
AcDbLine
 62
7
  6
CONTINUOUS
 10
87.9155072823
 20
154.6127374345
 11
87.9077488537
 21
154.6173239066
  0
LINE
  5
620
100
AcDbEntity
  8
RACCORDO
100
AcDbLine
 62
7
  6
CONTINUOUS
 10
87.8145794959
 20
157.577276188
 11
87.8145794959
 21
157.5408874865
  0
LINE
  5
621
100
AcDbEntity
  8
DRAFT
100
AcDbLine
 62
7
  6
CONTINUOUS
 10
70.9703426777
 20
117.9851449482
 11
70.2447196538
 21
117.140849679
  0
LINE
  5
622
100
AcDbEntity
  8
0
100
AcDbLine
 62
7
  6
CONTINUOUS
 10
66.5929622996
 20
117.3260718029
 11
66.6191866463
 21
117.3459783342
  0
LINE
  5
623
100
AcDbEntity
  8
0
100
AcDbLine
 62
7
  6
CONTINUOUS
 10
68.932320902
 20
119.0482149402
 11
68.9534418008
 21
119.0640970239
  0
LINE
  5
624
100
AcDbEntity
  8
DRAFT
100
AcDbLine
 62
7
  6
CONTINUOUS
 10
93.2946363977
 20
135.7514322206
 11
94.2098131848
 21
136.3433608398
  0
LINE
  5
625
100
AcDbEntity
  8
0
100
AcDbLine
 62
7
  6
CONTINUOUS
 10
70.38614101
 20
121.1259993496
 11
69.9972322804
 21
120.90293883
  0
LINE
  5
626
100
AcDbEntity
  8
0
100
AcDbLine
 62
7
  6
CONTINUOUS
 10
70.38614101
 20
121.2176147755
 11
67.4860734535
 21
119.6343826534
  0
LINE
  5
627
100
AcDbEntity
  8
0
100
AcDbLine
 62
7
  6
CONTINUOUS
 10
68.1755960962
 20
119.9325237986
 11
67.5609250959
 21
119.5969568323
  0
LINE
  5
628
100
AcDbEntity
  8
0
100
AcDbLine
 62
7
  6
CONTINUOUS
 10
70.1032982975
 20
120.9497560515
 11
70.38614101
 21
121.0997673135
  0
LINE
  5
629
100
AcDbEntity
  8
0
100
AcDbLine
 62
7
  6
CONTINUOUS
 10
66.6018322211
 20
120.1041166843
 11
66.6014041294
 21
120.1038928754
  0
LINE
  5
62A
100
AcDbEntity
  8
0
100
AcDbLine
 62
253
  6
CONTINUOUS
 10
66.4886687995
 20
120.1105358949
 11
66.6249087722
 21
120.1813236169
  0
LINE
  5
62B
100
AcDbEntity
  8
0
100
AcDbLine
 62
253
  6
CONTINUOUS
 10
68.0628536357
 20
121.9000436821
 11
67.4482580862
 21
121.6011380343
  0
LINE
  5
62C
100
AcDbEntity
  8
0
100
AcDbLine
 62
253
  6
CONTINUOUS
 10
68.1007444538
 20
121.5370112035
 11
67.4860734535
 21
121.2384805995
  0
LINE
  5
62D
100
AcDbEntity
  8
0
100
AcDbLine
 62
253
  6
CONTINUOUS
 10
66.3212968325
 20
122.2723186509
 11
66.5491309078
 21
122.3799336985
  0
LINE
  5
62E
100
AcDbEntity
  8
0
100
AcDbLine
 62
7
  6
CONTINUOUS
 10
66.3212968325
 20
122.1468718233
 11
66.5491309078
 21
122.2544868709
  0
LWPOLYLINE
  5
62F
100
AcDbEntity
  8
0
100
AcDbPolyline
 62
253
  6
CONTINUOUS
 90
8
 70
0
 10
66.6014041294
 20
120.1038928754
 10
66.5922392543
 20
120.0997407392
 10
66.5767873291
 20
120.0951771088
 10
66.5603932944
 20
120.0931480887
 10
66.5431983773
 20
120.0936745977
 10
66.5253750481
 20
120.0967661438
 10
66.5071312879
 20
120.1024029404
 10
66.4886688399
 20
120.1105359166
  0
LWPOLYLINE
  5
630
100
AcDbEntity
  8
0
100
AcDbPolyline
 62
253
  6
CONTINUOUS
 90
13
 70
0
 10
67.4482578302
 20
121.6011393044
 10
67.4236579976
 20
121.5900410417
 10
67.3966693702
 20
121.579621666
 10
67.3677435403
 20
121.5700555213
 10
67.3373645149
 20
121.561502675
 10
67.3060406167
 20
121.5541062393
 10
67.274295979
 20
121.5479899764
 10
67.2426617748
 20
121.5432562277
 10
67.2116673295
 20
121.5399842017
 10
67.1818312636
 20
121.5382286481
 10
67.1536528146
 20
121.538018942
 10
67.1276034837
 20
121.5393585923
 10
67.1041191462
 20
121.5422251831
  0
LWPOLYLINE
  5
631
100
AcDbEntity
  8
0
100
AcDbPolyline
 62
253
  6
CONTINUOUS
 90
13
 70
0
 10
67.4860734535
 20
121.2384798116
 10
67.4614066908
 20
121.2280234271
 10
67.4342467937
 20
121.2192465673
 10
67.4050482203
 20
121.2122960925
 10
67.3742995413
 20
121.207288303
 10
67.3425152647
 20
121.2043069924
 10
67.3102272271
 20
121.2034020462
 10
67.277975694
 20
121.2045886066
 10
67.2463003205
 20
121.2078468191
 10
67.2157311206
 20
121.2131221651
 10
67.1867795993
 20
121.220326374
 10
67.1599301934
 20
121.2293388999
 10
67.1356321657
 20
121.2400089389
  0
LINE
  5
632
100
AcDbEntity
  8
0
100
AcDbLine
 62
7
  6
CONTINUOUS
 10
70.9703426777
 20
123.2141603029
 11
69.2976108034
 21
122.5251051565
  0
LWPOLYLINE
  5
633
100
AcDbEntity
  8
0
100
AcDbPolyline
 62
253
  6
CONTINUOUS
 90
9
 70
0
 10
55.4813426938
 20
161.9488963851
 10
55.5015854272
 20
161.9546358568
 10
55.5213450651
 20
161.9636009031
 10
55.540298775
 20
161.9756485261
 10
55.5581106625
 20
161.9905688437
 10
55.5744453838
 20
162.0080689043
 10
55.5890267802
 20
162.0278223911
 10
55.6016329115
 20
162.0494946952
 10
55.6120654297
 20
162.0727113023
  0
LINE
  5
634
100
AcDbEntity
  8
0
100
AcDbLine
 62
7
  6
CONTINUOUS
 10
73.7095428816
 20
166.2557643511
 11
75.3358884783
 21
166.5112167894
  0
LWPOLYLINE
  5
635
100
AcDbEntity
  8
0
100
AcDbPolyline
 62
253
  6
CONTINUOUS
 90
3
 70
0
 10
64.8598008769
 20
164.4710203437
 10
64.8262661603
 20
164.4673832142
 10
64.7919803462
 20
164.4600141289
  0
LWPOLYLINE
  5
636
100
AcDbEntity
  8
0
100
AcDbPolyline
 62
7
  6
CONTINUOUS
 90
4
 70
0
 10
64.8041156447
 20
164.4839598863
 10
64.7583512075
 20
164.4793133901
 10
64.7121406482
 20
164.4693983213
 10
64.6658445426
 20
164.4541973035
  0
LWPOLYLINE
  5
637
100
AcDbEntity
  8
0
100
AcDbPolyline
 62
7
  6
CONTINUOUS
 90
5
 70
0
 10
79.6047382444
 20
165.1067385122
 10
79.5702168573
 20
165.1066906086
 10
79.5347721463
 20
165.1030168972
 10
79.4985421811
 20
165.0955183257
 10
79.4619136019
 20
165.0840632424
  0
LINE
  5
638
100
AcDbEntity
  8
0
100
AcDbLine
 62
7
  6
CONTINUOUS
 10
64.8488347248
 20
164.4834007446
 11
64.8041156447
 21
164.4839598863
  0
LWPOLYLINE
  5
639
100
AcDbEntity
  8
0
100
AcDbPolyline
 62
7
  6
CONTINUOUS
 90
7
 70
0
 10
72.6248590424
 20
165.7134224315
 10
72.7090387134
 20
165.70005115
 10
72.789432365
 20
165.6834010796
 10
72.8660399973
 20
165.6634722203
 10
72.9388616104
 20
165.6402645721
 10
73.0078972041
 20
165.613778135
 10
73.0731467785
 20
165.584012909
  0
LWPOLYLINE
  5
63A
100
AcDbEntity
  8
RACCORDO
100
AcDbPolyline
 62
253
  6
CONTINUOUS
 90
17
 70
0
 10
73.0196167233
 20
165.0870788809
 10
73.0150637132
 20
165.0890867278
 10
73.0103085956
 20
165.0908141511
 10
73.0054196516
 20
165.0922316645
 10
73.0004051545
 20
165.0933368694
 10
72.99527359
 20
165.0941278954
 10
72.9900336421
 20
165.094603404
 10
72.9846941782
 20
165.0947625903
 10
72.9792642339
 20
165.0946051852
 10
72.973752998
 20
165.0941314548
 10
72.9681697971
 20
165.0933422009
 10
72.9625240793
 20
165.0922387592
 10
72.9568253986
 20
165.0908229968
 10
72.9510833986
 20
165.0890973096
 10
72.9453077962
 20
165.087064618
 10
72.9395083652
 20
165.0847283617
 10
72.9336949198
 20
165.0820924942
  0
LWPOLYLINE
  5
63B
100
AcDbEntity
  8
RACCORDO
100
AcDbPolyline
 62
7
  6
CONTINUOUS
 90
21
 70
0
 10
71.9401171559
 20
164.9555734846
 10
71.9282801114
 20
164.9610475159
 10
71.916509219
 20
164.9660655441
 10
71.9048170287
 20
164.9706218554
 10
71.8932168871
 20
164.9747113704
 10
71.881720477
 20
164.9783293762
 10
71.8703378178
 20
164.9814713814
 10
71.8590815675
 20
164.9841337856
 10
71.8479638334
 20
164.9863133748
 10
71.8369937517
 20
164.9880067755
 10
71.8261836769
 20
164.9892119342
 10
71.815545581
 20
164.9899271079
 10
71.8050879315
 20
164.9901499631
 10
71.7948231582
 20
164.9898800498
 10
71.7847625036
 20
164.9891172172
 10
71.7749125486
 20
164.9878600995
 10
71.7652844877
 20
164.9861096115
 10
71.7558900749
 20
164.983867117
 10
71.7467365008
 20
164.9811326963
 10
71.7378366433
 20
164.9779098823
 10
71.7295314741
 20
164.974355235
  0
LWPOLYLINE
  5
63C
100
AcDbEntity
  8
RACCORDO
100
AcDbPolyline
 62
253
  6
CONTINUOUS
 90
26
 70
0
 10
92.7418499932
 20
155.5245681469
 10
92.7345665029
 20
155.5281120953
 10
92.7193188013
 20
155.5349179194
 10
92.7037557282
 20
155.5410518511
 10
92.6878888409
 20
155.5465093354
 10
92.6717299221
 20
155.5512863195
 10
92.6552909716
 20
155.555379256
 10
92.638584197
 20
155.5587851054
 10
92.621622005
 20
155.5615013386
 10
92.6044169916
 20
155.5635259384
 10
92.5869819334
 20
155.5648574014
 10
92.5693297778
 20
155.5654947389
 10
92.5514736334
 20
155.5654374775
 10
92.5334267603
 20
155.5646856597
 10
92.5152025601
 20
155.5632398439
 10
92.4968145663
 20
155.5611011038
 10
92.4782764339
 20
155.5582710275
 10
92.4596019294
 20
155.5547517168
 10
92.4408049205
 20
155.550545785
 10
92.4218993661
 20
155.5456563555
 10
92.4028993056
 20
155.5400870592
 10
92.3838188484
 20
155.533842032
 10
92.3646721638
 20
155.5269259114
 10
92.3454734703
 20
155.5193438333
 10
92.3262370248
 20
155.5111014283
 10
92.3069771126
 20
155.5022048173
  0
LWPOLYLINE
  5
63D
100
AcDbEntity
  8
RACCORDO
100
AcDbPolyline
 62
7
  6
CONTINUOUS
 90
64
 70
0
 10
73.020673155
 20
165.0865633269
 10
73.0102319031
 20
165.0916588097
 10
72.9927258214
 20
165.0996660988
 10
72.9747484836
 20
165.1072417568
 10
72.9563313796
 20
165.1143795913
 10
72.9374835853
 20
165.1210853163
 10
72.9181926156
 20
165.1273722139
 10
72.8984811405
 20
165.1332416872
 10
72.878371622
 20
165.1386969488
 10
72.8578554541
 20
165.1437497243
 10
72.8369847331
 20
165.1483968779
 10
72.8157478975
 20
165.152650645
 10
72.7940427657
 20
165.1565359759
 10
72.7719178623
 20
165.1600457489
 10
72.749354444
 20
165.163184283
 10
72.7261486863
 20
165.1659738113
 10
72.7022242566
 20
165.1684088013
 10
72.6776810054
 20
165.1704644317
 10
72.6525813678
 20
165.1721243786
 10
72.6268225408
 20
165.1733822849
 10
72.6005351054
 20
165.1742181937
 10
72.5741348969
 20
165.1746177759
 10
72.5476589059
 20
165.1745888434
 10
72.5210974781
 20
165.1741384523
 10
72.4947956486
 20
165.1732855044
 10
72.4688435224
 20
165.17205398
 10
72.4431691617
 20
165.1704598921
 10
72.4178722351
 20
165.1685276742
 10
72.3929726404
 20
165.1662780874
 10
72.3684615665
 20
165.163728415
 10
72.344394693
 20
165.1609022752
 10
72.3207906685
 20
165.1578201082
 10
72.2976359255
 20
165.1544975541
 10
72.2749377498
 20
165.1509521474
 10
72.2527038174
 20
165.1472011792
 10
72.230928088
 20
165.1432591698
 10
72.2095983714
 20
165.1391386243
 10
72.1887142559
 20
165.1348535378
 10
72.1682761928
 20
165.1304177393
 10
72.1482749252
 20
165.1258425188
 10
72.1287081783
 20
165.1211402247
 10
72.1095774726
 20
165.1163238952
 10
72.0908809265
 20
165.1114055762
 10
72.0726088663
 20
165.1063949347
 10
72.0547700144
 20
165.1013064739
 10
72.0373910256
 20
165.0961604236
 10
72.0204839407
 20
165.0909735359
 10
72.0040340124
 20
165.0857543623
 10
71.988029115
 20
165.0805116546
 10
71.9724894341
 20
165.0752647009
 10
71.9573935467
 20
165.0700188779
 10
71.9426718062
 20
165.0647612271
 10
71.9283256616
 20
165.0595025482
 10
71.9143605071
 20
165.0542552448
 10
71.900720186
 20
165.0490080103
 10
71.887422001
 20
165.0437768673
 10
71.874465886
 20
165.0385714912
 10
71.8617796887
 20
165.0333718318
 10
71.8494008736
 20
165.0282019547
 10
71.837328679
 20
165.0230709025
 10
71.8254512204
 20
165.0179395354
 10
71.8138146987
 20
165.0128359626
 10
71.8024524185
 20
165.007784222
 10
71.7802586775
 20
164.9977442597
  0
LWPOLYLINE
  5
63E
100
AcDbEntity
  8
RACCORDO
100
AcDbPolyline
 62
253
  6
CONTINUOUS
 90
18
 70
0
 10
76.411866446
 20
163.3909666851
 10
76.410873907
 20
163.3914538433
 10
76.4062606612
 20
163.3934882538
 10
76.4015055418
 20
163.395215678
 10
76.3966165956
 20
163.3966331925
 10
76.3916020961
 20
163.3977383986
 10
76.3864705289
 20
163.398529426
 10
76.381230578
 20
163.399004936
 10
76.3758911108
 20
163.3991641241
 10
76.3704611628
 20
163.3990067207
 10
76.3649499231
 20
163.3985329923
 10
76.3593667179
 20
163.3977437406
 10
76.3537209955
 20
163.3966403011
 10
76.3480223099
 20
163.3952245411
 10
76.3422803046
 20
163.3934988566
 10
76.3365046967
 20
163.3914661677
 10
76.3307052599
 20
163.3891299144
 10
76.3248918082
 20
163.38649405
  0
LINE
  5
63F
100
AcDbEntity
  8
RACCORDO
100
AcDbLine
 62
7
  6
CONTINUOUS
 10
75.7471479279
 20
163.0520740353
 11
71.9417220807
 21
164.9547869589
  0
LINE
  5
640
100
AcDbEntity
  8
DRAFT
100
AcDbLine
 62
7
  6
CONTINUOUS
 10
87.8145794959
 20
157.5408874865
 11
91.0829341797
 21
155.9067101446
  0
LINE
  5
641
100
AcDbEntity
  8
RACCORDO
100
AcDbLine
 62
253
  6
CONTINUOUS
 10
72.9311356311
 20
165.0833585191
 11
76.3248918082
 21
163.38649405
  0
LINE
  5
642
100
AcDbEntity
  8
RACCORDO
100
AcDbLine
 62
7
  6
CONTINUOUS
 10
73.0206694962
 20
165.08656516
 11
76.4118664457
 21
163.3909666853
  0
LINE
  5
643
100
AcDbEntity
  8
RACCORDO
100
AcDbLine
 62
253
  6
CONTINUOUS
 10
86.5554237895
 20
158.3779814788
 11
86.9082151865
 21
158.2015857803
  0
LINE
  5
644
100
AcDbEntity
  8
RACCORDO
100
AcDbLine
 62
253
  6
CONTINUOUS
 10
91.2946969881
 20
156.0083448795
 11
92.3069771126
 21
155.5022048173
  0
LWPOLYLINE
  5
645
100
AcDbEntity
  8
RACCORDO
100
AcDbPolyline
 62
253
  6
CONTINUOUS
 90
58
 70
0
 10
92.3069771126
 20
155.5022048173
 10
92.3267847131
 20
155.4923003714
 10
92.3465691154
 20
155.4817411214
 10
92.3663153011
 20
155.4705349619
 10
92.3860086716
 20
155.4586900364
 10
92.4056338699
 20
155.4462154401
 10
92.4251748069
 20
155.4331213388
 10
92.4446162439
 20
155.4194179649
 10
92.4639438317
 20
155.4051154538
 10
92.4831429408
 20
155.3902246291
 10
92.5021990267
 20
155.3747567655
 10
92.5210975919
 20
155.3587236242
 10
92.539824241
 20
155.3421374162
 10
92.5583647406
 20
155.32501075
 10
92.5767050351
 20
155.307356611
 10
92.5948312088
 20
155.289188395
 10
92.6127295041
 20
155.2705198915
 10
92.6303863323
 20
155.2513652739
 10
92.6477882901
 20
155.2317390825
 10
92.6649221668
 20
155.2116562168
 10
92.6817749568
 20
155.1911319209
 10
92.6983338699
 20
155.1701817716
 10
92.7145863366
 20
155.1488216712
 10
92.7305200188
 20
155.1270678349
 10
92.7461228216
 20
155.1049367753
 10
92.7613829008
 20
155.0824452919
 10
92.776288672
 20
155.0596104582
 10
92.7908288201
 20
155.0364496079
 10
92.8049923076
 20
155.0129803223
 10
92.8187683826
 20
154.989220417
 10
92.832146587
 20
154.9651879288
 10
92.8451167654
 20
154.9409011006
 10
92.8576690717
 20
154.9163783688
 10
92.8697939769
 20
154.8916383491
 10
92.8814822769
 20
154.866699822
 10
92.8927250986
 20
154.8415817183
 10
92.9035139074
 20
154.8163031059
 10
92.913840513
 20
154.7908831742
 10
92.9236970765
 20
154.7653412193
 10
92.9330761152
 20
154.7396966311
 10
92.9419705094
 20
154.7139688765
 10
92.9503735072
 20
154.6881774856
 10
92.9582787296
 20
154.6623420375
 10
92.9656801754
 20
154.6364821439
 10
92.9725722263
 20
154.6106174355
 10
92.9789496501
 20
154.5847675466
 10
92.9848076057
 20
154.5589520999
 10
92.9901416462
 20
154.5331906925
 10
92.9949477224
 20
154.5075028804
 10
92.9992221857
 20
154.4819081637
 10
93.0029617916
 20
154.4564259715
 10
93.006163701
 20
154.4310756477
 10
93.0088254835
 20
154.4058764353
 10
93.0109451185
 20
154.3808474639
 10
93.0125209966
 20
154.3560077359
 10
93.0135519217
 20
154.3313761081
 10
93.0140371116
 20
154.3069712778
 10
93.013976198
 20
154.2828117706
  0
LINE
  5
646
100
AcDbEntity
  8
RACCORDO
100
AcDbLine
 62
7
  6
CONTINUOUS
 10
86.5554237895
 20
158.6177812487
 11
87.4312667968
 21
158.1798597451
  0
LINE
  5
647
100
AcDbEntity
  8
RACCORDO
100
AcDbLine
 62
7
  6
CONTINUOUS
 10
91.641391139
 20
156.074797574
 11
92.7418499932
 21
155.5245681469
  0
LINE
  5
648
100
AcDbEntity
  8
0
100
AcDbLine
 62
7
  6
CONTINUOUS
 10
73.0731467785
 20
165.584012909
 11
76.6086806844
 21
163.816245956
  0
LINE
  5
649
100
AcDbEntity
  8
0
100
AcDbLine
 62
7
  6
CONTINUOUS
 10
73.7095428816
 20
166.2557643511
 11
77.7180769607
 21
164.2514973115
  0
LWPOLYLINE
  5
64A
100
AcDbEntity
  8
RACCORDO
100
AcDbPolyline
 62
253
  6
CONTINUOUS
 90
24
 70
0
 10
76.3248918082
 20
163.38649405
 10
76.3274233806
 20
163.385214643
 10
76.3299309974
 20
163.3839193799
 10
76.3324146586
 20
163.3826082607
 10
76.3348743852
 20
163.3812813894
 10
76.3373101563
 20
163.3799386619
 10
76.3397219087
 20
163.3785797665
 10
76.3421096801
 20
163.3772047087
 10
76.3444734329
 20
163.3758134829
 10
76.3468129914
 20
163.3744057599
 10
76.3491283777
 20
163.3729815518
 10
76.3514195696
 20
163.3715408465
 10
76.3536863251
 20
163.3700832785
 10
76.3559286643
 20
163.3686088644
 10
76.3581465669
 20
163.3671175875
 10
76.3603397308
 20
163.3656090319
 10
76.3625081867
 20
163.3640832083
 10
76.3646519037
 20
163.362540106
 10
76.3667704872
 20
163.3609792767
 10
76.3688639782
 20
163.359400724
 10
76.3709323357
 20
163.3578044443
 10
76.3729750422
 20
163.356189978
 10
76.3749921453
 20
163.3545573215
 10
76.3765088573
 20
163.3533000213
  0
LWPOLYLINE
  5
64B
100
AcDbEntity
  8
RACCORDO
100
AcDbPolyline
 62
7
  6
CONTINUOUS
 90
42
 70
0
 10
92.7418499932
 20
155.5245681469
 10
92.7652987771
 20
155.5124543493
 10
92.7884533631
 20
155.4997068271
 10
92.8112924139
 20
155.4863340187
 10
92.8337977981
 20
155.4723434163
 10
92.8559459255
 20
155.4577469092
 10
92.8777082153
 20
155.4425615707
 10
92.8990385925
 20
155.426820306
 10
92.9199460714
 20
155.4105176674
 10
92.9404814659
 20
155.3936094541
 10
92.9606696271
 20
155.3760630277
 10
92.9804388812
 20
155.3579286678
 10
92.999696868
 20
155.3392881432
 10
93.0184103392
 20
155.3201781154
 10
93.036583389
 20
155.300599502
 10
93.0541879337
 20
155.2805880822
 10
93.0711244995
 20
155.2602728688
 10
93.0874765412
 20
155.2395706128
 10
93.1034674459
 20
155.218182056
 10
93.1192057583
 20
155.1959018324
 10
93.1344991306
 20
155.1729398043
 10
93.1491203477
 20
155.1496187506
 10
93.1630178911
 20
155.1260377011
 10
93.1762313977
 20
155.1021475829
 10
93.1887070786
 20
155.0780668622
 10
93.2003338072
 20
155.0540657162
 10
93.2112430855
 20
155.0299311252
 10
93.2217014859
 20
155.0050413723
 10
93.2318318685
 20
154.9789455558
 10
93.2413858582
 20
154.9521121639
 10
93.2500851083
 20
154.9252981366
 10
93.257845728
 20
154.898893232
 10
93.2648066427
 20
154.8725655742
 10
93.2710617897
 20
154.8459961243
 10
93.2766183811
 20
154.8191155158
 10
93.2814443512
 20
154.7920361776
 10
93.2855409857
 20
154.7647072873
 10
93.2889120039
 20
154.7369867262
 10
93.2915173202
 20
154.7090613344
 10
93.2933233807
 20
154.6813689747
 10
93.2943451159
 20
154.6542755459
 10
93.2946363972
 20
154.6301574656
  0
LWPOLYLINE
  5
64C
100
AcDbEntity
  8
RACCORDO
100
AcDbPolyline
 62
7
  6
CONTINUOUS
 90
3
 70
0
 10
76.4324742257
 20
163.3800862778
 10
76.4208679942
 20
163.3863697983
 10
76.4118774038
 20
163.3909612015
  0
LWPOLYLINE
  5
64D
100
AcDbEntity
  8
0
100
AcDbPolyline
 62
7
  6
CONTINUOUS
 90
6
 70
0
 10
76.6086806844
 20
163.816245956
 10
76.6682111364
 20
163.7836211688
 10
76.7211840106
 20
163.7491033719
 10
76.767599307
 20
163.7126925654
 10
76.8074570257
 20
163.6743887492
 10
76.8381818587
 20
163.6373005949
  0
LWPOLYLINE
  5
64E
100
AcDbEntity
  8
RACCORDO
100
AcDbPolyline
 62
7
  6
CONTINUOUS
 90
104
 70
0
 10
93.2946363977
 20
153.1827548685
 10
93.3073577426
 20
153.1735000431
 10
93.3521793544
 20
153.1396317216
 10
93.3966632014
 20
153.1047568094
 10
93.4408208613
 20
153.0688720219
 10
93.4846514385
 20
153.0319818307
 10
93.5281231909
 20
152.9941164971
 10
93.5712008114
 20
152.9553116604
 10
93.6138637321
 20
152.9155916385
 10
93.6561014389
 20
152.8749718348
 10
93.6978939403
 20
152.8334769054
 10
93.7392200663
 20
152.7911336353
 10
93.78007082
 20
152.7479568512
 10
93.8204439418
 20
152.7039534746
 10
93.8603347655
 20
152.6591317922
 10
93.899717238
 20
152.6135241155
 10
93.9385571633
 20
152.5671744934
 10
93.9768260616
 20
152.5201230287
 10
94.0145246881
 20
152.4723747871
 10
94.0516624254
 20
152.4239216255
 10
94.0882381277
 20
152.3747664861
 10
94.1242233233
 20
152.3249489117
 10
94.1595862746
 20
152.2745158717
 10
94.1943035622
 20
152.2235054296
 10
94.2283725852
 20
152.1719259549
 10
94.2617931571
 20
152.1197805901
 10
94.2945571288
 20
152.0670834809
 10
94.3266458264
 20
152.0138659249
 10
94.3580429633
 20
151.9601566817
 10
94.3887343074
 20
151.9059820851
 10
94.418709241
 20
151.8513627048
 10
94.4479572747
 20
151.7963190255
 10
94.4764658786
 20
151.7408757186
 10
94.5042238156
 20
151.6850555399
 10
94.5312224978
 20
151.6288760977
 10
94.5574511589
 20
151.5723595029
 10
94.5828976418
 20
151.5155314162
 10
94.6075513479
 20
151.4584147446
 10
94.6314018671
 20
151.4010324415
 10
94.6544380697
 20
151.3434098179
 10
94.6766487389
 20
151.2855733393
 10
94.6980212046
 20
151.2275546452
 10
94.7185485552
 20
151.1693707928
 10
94.7382278788
 20
151.1110261425
 10
94.7570546581
 20
151.0525270818
 10
94.7750128344
 20
150.9939158174
 10
94.7920832619
 20
150.9352502636
 10
94.8082511326
 20
150.8765808103
 10
94.8235165893
 20
150.8179059873
 10
94.8378828614
 20
150.7592056577
 10
94.8513470523
 20
150.700476042
 10
94.8638931228
 20
150.6417698389
 10
94.875504865
 20
150.5831511352
 10
94.8861717705
 20
150.5246670241
 10
94.8958923163
 20
150.4663186432
 10
94.9046647008
 20
150.4081005929
 10
94.9124838343
 20
150.3500203477
 10
94.9193400599
 20
150.2921189649
 10
94.925224729
 20
150.2344407943
 10
94.9301321476
 20
150.1770121854
 10
94.9340573323
 20
150.1198542371
 10
94.936994735
 20
150.0630021683
 10
94.9389398839
 20
150.0064891252
 10
94.9398893815
 20
149.9503281576
 10
94.9398392484
 20
149.8945236119
 10
94.9387839351
 20
149.8390651828
 10
94.9367187485
 20
149.7840101514
 10
94.9336447318
 20
149.7294617067
 10
94.9295663063
 20
149.6754875269
 10
94.924481836
 20
149.6220603212
 10
94.9183844684
 20
149.5691394631
 10
94.9112622426
 20
149.5166826193
 10
94.9031196867
 20
149.4647776006
 10
94.8939790527
 20
149.4135754833
 10
94.8838588284
 20
149.3631539041
 10
94.87275438
 20
149.3134674034
 10
94.8606578098
 20
149.2644789462
 10
94.8475582943
 20
149.216158869
 10
94.833470517
 20
149.1685752266
 10
94.8184274187
 20
149.1218351022
 10
94.8024457305
 20
149.0759736202
 10
94.7855279877
 20
149.0309827473
 10
94.7676932735
 20
148.9868989769
 10
94.7489572573
 20
148.9437443842
 10
94.7293274402
 20
148.9015207909
 10
94.7088121516
 20
148.8602333956
 10
94.6874032898
 20
148.8198583575
 10
94.6651309875
 20
148.7804455159
 10
94.6420681779
 20
148.7421044972
 10
94.6182752763
 20
148.704902124
 10
94.5937344502
 20
148.6687782987
 10
94.5684027489
 20
148.6336522793
 10
94.5422628245
 20
148.5994945702
 10
94.515359743
 20
148.5663587887
 10
94.4877420736
 20
148.534292651
 10
94.45944491
 20
148.5033201985
 10
94.4304727879
 20
148.4734300837
 10
94.4008315048
 20
148.4446150664
 10
94.3705434631
 20
148.4168849202
 10
94.3396262192
 20
148.3902438653
 10
94.3080770057
 20
148.3646797944
 10
94.2759077054
 20
148.3401949809
 10
94.2431462028
 20
148.3168032572
 10
94.2098131843
 20
148.2945114117
  0
LWPOLYLINE
  5
64F
100
AcDbEntity
  8
RACCORDO
100
AcDbPolyline
 62
253
  6
CONTINUOUS
 90
8
 70
0
 10
87.9456929209
 20
154.6046562517
 10
87.9702159113
 20
154.5841518733
 10
87.9945816729
 20
154.5628736088
 10
88.0187184231
 20
154.5408113316
 10
88.0424833081
 20
154.5180230112
 10
88.0658731239
 20
154.4944345479
 10
88.0889964297
 20
154.4698329607
 10
88.0890285337
 20
154.4697967933
  0
LWPOLYLINE
  5
650
100
AcDbEntity
  8
RACCORDO
100
AcDbPolyline
 62
253
  6
CONTINUOUS
 90
9
 70
0
 10
87.8520563218
 20
154.5983602432
 10
87.8749167512
 20
154.5787815098
 10
87.8974942895
 20
154.5584284632
 10
87.9197889367
 20
154.5373011036
 10
87.941834435
 20
154.5154712167
 10
87.9635970422
 20
154.4928670166
 10
87.9849755316
 20
154.4692731462
 10
88.0060152346
 20
154.444691397
 10
88.0145932652
 20
154.4340718761
  0
LWPOLYLINE
  5
651
100
AcDbEntity
  8
0
100
AcDbPolyline
 62
7
  6
CONTINUOUS
 90
5
 70
0
 10
82.19384678
 20
163.6814613911
 10
82.1686454196
 20
163.7306264234
 10
82.1396319361
 20
163.7773220942
 10
82.1070846346
 20
163.8211805263
 10
82.0714873354
 20
163.8616649895
  0
LINE
  5
652
100
AcDbEntity
  8
0
100
AcDbLine
 62
7
  6
CONTINUOUS
 10
82.2071365732
 20
163.6506425168
 11
82.19384678
 21
163.6814613911
  0
LWPOLYLINE
  5
653
100
AcDbEntity
  8
0
100
AcDbPolyline
 62
253
  6
CONTINUOUS
 90
19
 70
0
 10
82.1034366982
 20
163.6496112727
 10
82.1219745981
 20
163.6012250852
 10
82.1380148999
 20
163.5524756927
 10
82.1515576037
 20
163.5033630951
 10
82.162817699
 20
163.4533061525
 10
82.1715801962
 20
163.4028860049
 10
82.1772001267
 20
163.3538460721
 10
82.1794313371
 20
163.306275893
 10
82.1785199808
 20
163.2600859289
 10
82.1745595498
 20
163.2167509829
 10
82.1673943521
 20
163.1766048317
 10
82.1571800797
 20
163.1393136987
 10
82.1444773014
 20
163.1053510574
 10
82.1292946124
 20
163.0748956376
 10
82.1116234176
 20
163.0477687095
 10
82.0919984994
 20
163.0239075571
 10
82.0705981188
 20
163.0032912751
 10
82.047244015
 20
162.9859407688
 10
82.0219361878
 20
162.9718560382
  0
LINE
  5
654
100
AcDbEntity
  8
RACCORDO
100
AcDbLine
 62
7
  6
CONTINUOUS
 10
93.2956159882
 20
147.7214198049
 11
93.2956372651
 21
147.7214774766
  0
LINE
  5
655
100
AcDbEntity
  8
RACCORDO
100
AcDbLine
 62
253
  6
CONTINUOUS
 10
93.3029817855
 20
135.7667364282
 11
93.2946363977
 21
135.7591512648
  0
LWPOLYLINE
  5
656
100
AcDbEntity
  8
RACCORDO
100
AcDbPolyline
 62
253
  6
CONTINUOUS
 90
56
 70
0
 10
93.013976198
 20
136.0039370694
 10
93.019787714
 20
136.009135142
 10
93.0255785152
 20
136.0141157926
 10
93.0313473642
 20
136.0188791897
 10
93.0370880475
 20
136.0234280577
 10
93.0428043575
 20
136.0277599465
 10
93.0485096192
 20
136.0318674432
 10
93.054204161
 20
136.0357538671
 10
93.0598841299
 20
136.0394165682
 10
93.0655558586
 20
136.0428394661
 10
93.0712189786
 20
136.046024216
 10
93.076869646
 20
136.0489699885
 10
93.0825085757
 20
136.0516571074
 10
93.0881324616
 20
136.054085339
 10
93.0937400497
 20
136.0562557284
 10
93.0993347639
 20
136.0581506205
 10
93.1049032999
 20
136.0597706556
 10
93.1104539847
 20
136.0611159962
 10
93.1160209062
 20
136.062168868
 10
93.1215879651
 20
136.0629396157
 10
93.1271629128
 20
136.0634196597
 10
93.132810777
 20
136.0635644166
 10
93.1385334117
 20
136.0633875288
 10
93.1443124118
 20
136.0628793826
 10
93.1501767883
 20
136.061962186
 10
93.1561366696
 20
136.0606325426
 10
93.1621585427
 20
136.058899175
 10
93.1682048878
 20
136.0567025885
 10
93.1742690695
 20
136.0540292802
 10
93.1803356912
 20
136.050896679
 10
93.1863578498
 20
136.0472904103
 10
93.1923083518
 20
136.0432160678
 10
93.1981971435
 20
136.0386698356
 10
93.2040337096
 20
136.0336227986
 10
93.2097990039
 20
136.0280868789
 10
93.2154894949
 20
136.0220523277
 10
93.2211317676
 20
136.015458839
 10
93.2267134148
 20
136.0083056238
 10
93.2322128637
 20
136.0005967778
 10
93.2376351342
 20
135.9922805147
 10
93.242969
 20
135.9833357965
 10
93.2481812953
 20
135.9737869962
 10
93.2532414027
 20
135.9636504289
 10
93.2581158419
 20
135.9529463939
 10
93.2627946772
 20
135.94165548
 10
93.2672777646
 20
135.9297344646
 10
93.2715300275
 20
135.9172002637
 10
93.2755277252
 20
135.9040361128
 10
93.2792708475
 20
135.890149353
 10
93.2827144915
 20
135.8755443455
 10
93.2858163764
 20
135.8602155218
 10
93.2885540129
 20
135.8440562459
 10
93.2908702358
 20
135.8270068907
 10
93.2926918069
 20
135.8091219135
 10
93.2939523259
 20
135.7904648967
 10
93.294580916
 20
135.7709124024
  0
LWPOLYLINE
  5
657
100
AcDbEntity
  8
0
100
AcDbPolyline
 62
7
  6
CONTINUOUS
 90
8
 70
0
 10
70.109052406
 20
115.263776376
 10
70.1283699834
 20
115.2806667587
 10
70.1454155494
 20
115.2999554238
 10
70.1599093134
 20
115.3213875899
 10
70.1715761197
 20
115.3446559131
 10
70.1801560799
 20
115.3693651156
 10
70.1854514011
 20
115.3950789057
 10
70.1873365654
 20
115.4223767456
  0
LWPOLYLINE
  5
658
100
AcDbEntity
  8
RACCORDO
100
AcDbPolyline
 62
7
  6
CONTINUOUS
 90
136
 70
0
 10
93.1315262382
 20
136.1413007405
 10
93.1909230959
 20
136.1900288955
 10
93.2484403235
 20
136.2375399642
 10
93.304077921
 20
136.2838339467
 10
93.3577808032
 20
136.328876288
 10
93.4096040553
 20
136.372701543
 10
93.459712933
 20
136.4154133763
 10
93.5081146823
 20
136.4570167148
 10
93.5548020572
 20
136.4975066316
 10
93.5999185758
 20
136.5369720098
 10
93.6434684437
 20
136.5754153739
 10
93.6854474553
 20
136.6128341995
 10
93.7259865107
 20
136.6493097969
 10
93.7650895308
 20
136.6848445432
 10
93.8027525947
 20
136.7194360614
 10
93.8390948405
 20
136.75315853
 10
93.874119928
 20
136.7860142081
 10
93.9078241975
 20
136.8180008366
 10
93.9403158069
 20
136.849185817
 10
93.9715981005
 20
136.8795712442
 10
94.0016677342
 20
136.9091550233
 10
94.0306228332
 20
136.9379982709
 10
94.0584664761
 20
136.9661029718
 10
94.0851955844
 20
136.9934671413
 10
94.1108990482
 20
137.0201459416
 10
94.1355797133
 20
137.0461413003
 10
94.1592347339
 20
137.0714512898
 10
94.1819444623
 20
137.0961252898
 10
94.2037115084
 20
137.1201652024
 10
94.2245332622
 20
137.1435691255
 10
94.2444822459
 20
137.1663807318
 10
94.2635608234
 20
137.1886019437
 10
94.2817666308
 20
137.2102308389
 10
94.2991650984
 20
137.2313053233
 10
94.3157583041
 20
137.2518273797
 10
94.33154417
 20
137.2717950253
 10
94.3465818928
 20
137.2912402177
 10
94.360873177
 20
137.3101650139
 10
94.374416318
 20
137.3285673569
 10
94.3872653994
 20
137.3464730328
 10
94.3994216313
 20
137.3638841677
 10
94.4108838035
 20
137.3807986355
 10
94.4217023687
 20
137.3972358443
 10
94.4318777797
 20
137.4131977288
 10
94.4414095837
 20
137.4286823542
 10
94.4503468751
 20
137.4437033239
 10
94.4586893915
 20
137.4582625188
 10
94.4664373953
 20
137.4723580578
 10
94.4736407679
 20
137.4859979013
 10
94.4802980779
 20
137.4991827554
 10
94.4864107567
 20
137.5119119139
 10
94.4920329797
 20
137.5241912187
 10
94.497160117
 20
137.5360115282
 10
94.5017967985
 20
137.5473819839
 10
94.5060110898
 20
137.558335853
 10
94.5098010498
 20
137.5688597042
 10
94.5131686196
 20
137.5789669688
 10
94.516187688
 20
137.5887312076
 10
94.518863562
 20
137.5981501415
 10
94.5211909347
 20
137.6072260496
 10
94.5232277743
 20
137.6160393297
 10
94.5249814801
 20
137.6245949778
 10
94.5264446528
 20
137.632887998
 10
94.527653063
 20
137.6409838
 10
94.528612997
 20
137.6488866334
 10
94.5293181685
 20
137.6565922486
 10
94.52978549
 20
137.6641533065
 10
94.5300206219
 20
137.6715729792
 10
94.5300179036
 20
137.6788480946
 10
94.5297772658
 20
137.6860217977
 10
94.5293043584
 20
137.6930968203
 10
94.5285935315
 20
137.7000704306
 10
94.5276277649
 20
137.706977579
 10
94.5264133802
 20
137.7138203975
 10
94.5249440558
 20
137.7205967541
 10
94.5231838069
 20
137.7273352034
 10
94.5211402927
 20
137.7340380874
 10
94.518805854
 20
137.7407030641
 10
94.5161215279
 20
137.7473516625
 10
94.5130924941
 20
137.7539922753
 10
94.509713573
 20
137.7606165097
 10
94.5059102629
 20
137.7672207165
 10
94.5016801467
 20
137.7738166867
 10
94.4970256416
 20
137.7803926293
 10
94.491879497
 20
137.7869095217
 10
94.48623731
 20
137.7933711044
 10
94.4801034835
 20
137.7997736369
 10
94.4734239759
 20
137.806066875
 10
94.466197508
 20
137.8122485336
 10
94.458425359
 20
137.8183208979
 10
94.4500573244
 20
137.8242405793
 10
94.4410930008
 20
137.8300055529
 10
94.4315327916
 20
137.8356178437
 10
94.4213277023
 20
137.841040138
 10
94.4104782462
 20
137.8462709328
 10
94.3989839101
 20
137.8513117311
 10
94.3867941599
 20
137.856129728
 10
94.3739102004
 20
137.8607240618
 10
94.3603308268
 20
137.8650955943
 10
94.3460018902
 20
137.8692141055
 10
94.3309251056
 20
137.8730793066
 10
94.315098758
 20
137.8766914865
 10
94.2984635532
 20
137.8800212919
 10
94.2810215792
 20
137.8830688963
 10
94.262770748
 20
137.8858341261
 10
94.2436455014
 20
137.8882871076
 10
94.2236481937
 20
137.8904283717
 10
94.2027764707
 20
137.8922573875
 10
94.1809577118
 20
137.8937426885
 10
94.1581945945
 20
137.8948850789
 10
94.1344844413
 20
137.8956837545
 10
94.1097465996
 20
137.8961048357
 10
94.0839836907
 20
137.896149337
 10
94.0571930932
 20
137.895816244
 10
94.0292862906
 20
137.8950686332
 10
94.00026727
 20
137.8939077796
 10
93.9701320443
 20
137.8923324082
 10
93.9387801347
 20
137.8903017714
 10
93.9062128962
 20
137.8878170641
 10
93.8724289739
 20
137.8848770913
 10
93.8373238244
 20
137.8814375204
 10
93.8008925486
 20
137.8774983986
 10
93.7631400456
 20
137.8730596786
 10
93.723976469
 20
137.8680768856
 10
93.6834105732
 20
137.8625516925
 10
93.6414336037
 20
137.8564824263
 10
93.597929451
 20
137.8498195931
 10
93.552913019
 20
137.8425669058
 10
93.5063694037
 20
137.8347206515
 10
93.4581377845
 20
137.8262201978
 10
93.408218335
 20
137.8170671681
 10
93.3566108815
 20
137.8072599391
 10
93.3031540822
 20
137.7967330088
 10
93.2477941566
 20
137.7854645431
 10
93.1905848853
 20
137.7734763761
 10
93.1315262682
 20
137.7607685078
  0
LINE
  5
659
100
AcDbEntity
  8
0
100
AcDbLine
 62
7
  6
CONTINUOUS
 10
76.8268130641
 20
122.1877083489
 11
77.9681668375
 21
123.0148986427
  0
LINE
  5
65A
100
AcDbEntity
  8
RACCORDO
100
AcDbLine
 62
7
  6
CONTINUOUS
 10
83.6466192033
 20
126.2056122122
 11
84.7298144728
 21
126.9906524285
  0
LINE
  5
65B
100
AcDbEntity
  8
0
100
AcDbLine
 62
7
  6
CONTINUOUS
 10
76.8268130641
 20
122.1877083489
 11
76.8019944695
 21
122.1725566647
  0
LWPOLYLINE
  5
65C
100
AcDbEntity
  8
RACCORDO
100
AcDbPolyline
 62
253
  6
CONTINUOUS
 90
16
 70
0
 10
65.2803396843
 20
115.0126869726
 10
65.2416465315
 20
114.9895018366
 10
65.1997159525
 20
114.968484371
 10
65.1549923288
 20
114.9498573196
 10
65.1079496431
 20
114.9338180924
 10
65.0590864552
 20
114.9205366738
 10
65.0089206189
 20
114.9101538207
 10
64.9579837933
 20
114.9027795708
 10
64.9068158087
 20
114.8984920768
 10
64.8559589449
 20
114.8973367775
 10
64.8059521848
 20
114.8993259171
 10
64.7573255018
 20
114.9044384145
 10
64.7105942429
 20
114.9126200872
 10
64.6662536677
 20
114.9237842254
 10
64.6247736991
 20
114.9378125113
 10
64.5865939431
 20
114.9545562728
  0
LWPOLYLINE
  5
65D
100
AcDbEntity
  8
RACCORDO
100
AcDbPolyline
 62
7
  6
CONTINUOUS
 90
4
 70
0
 10
92.4566744858
 20
131.0735326798
 10
92.4425612728
 20
131.0654300438
 10
92.4283388567
 20
131.0575694158
 10
92.4192098997
 20
131.0526812955
  0
LWPOLYLINE
  5
65E
100
AcDbEntity
  8
RACCORDO
100
AcDbPolyline
 62
253
  6
CONTINUOUS
 90
4
 70
0
 10
92.4192154543
 20
131.0526842328
 10
92.4343634527
 20
131.0611555298
 10
92.4493938838
 20
131.0705209134
 10
92.4640033842
 20
131.0806189268
  0
LWPOLYLINE
  5
65F
100
AcDbEntity
  8
RACCORDO
100
AcDbPolyline
 62
253
  6
CONTINUOUS
 90
5
 70
0
 10
92.5998257224
 20
131.1790554698
 10
92.6186622378
 20
131.1894156777
 10
92.6371043545
 20
131.2004039148
 10
92.6551383775
 20
131.2120120213
 10
92.6743933164
 20
131.2254176026
  0
LWPOLYLINE
  5
660
100
AcDbEntity
  8
RACCORDO
100
AcDbPolyline
 62
253
  6
CONTINUOUS
 90
5
 70
0
 10
92.4640033842
 20
131.0806189268
 10
92.4828398995
 20
131.0909791346
 10
92.5012820162
 20
131.1019673717
 10
92.5193160391
 20
131.1135754782
 10
92.5385709783
 20
131.1269810596
  0
LWPOLYLINE
  5
661
100
AcDbEntity
  8
0
100
AcDbPolyline
 62
253
  6
CONTINUOUS
 90
13
 70
0
 10
67.2901756789
 20
118.9054469077
 10
67.3335247386
 20
118.929188258
 10
67.3709069716
 20
118.956280774
 10
67.4054166886
 20
118.9881281048
 10
67.4368594426
 20
119.024551799
 10
67.4650596016
 20
119.0653483698
 10
67.4898619116
 20
119.1102909517
 10
67.5111248256
 20
119.1591269548
 10
67.5287286036
 20
119.2115831677
 10
67.5425795966
 20
119.267369044
 10
67.5525998491
 20
119.3261728301
 10
67.5587276435
 20
119.3876632229
 10
67.5609250959
 20
119.4514949545
  0
LINE
  5
662
100
AcDbEntity
  8
0
100
AcDbLine
 62
7
  6
CONTINUOUS
 10
70.9703426777
 20
120.4163836314
 11
69.2976108034
 21
119.5180754995
  0
LWPOLYLINE
  5
663
100
AcDbEntity
  8
RACCORDO
100
AcDbPolyline
 62
253
  6
CONTINUOUS
 90
29
 70
0
 10
93.013976198
 20
132.1965385688
 10
93.0326373365
 20
132.2064679117
 10
93.0507504315
 20
132.2166478097
 10
93.068302032
 20
132.2270707029
 10
93.0852791042
 20
132.2377288514
 10
93.1016690407
 20
132.2486143404
 10
93.1174596704
 20
132.2597190861
 10
93.132639267
 20
132.2710348422
 10
93.147196558
 20
132.2825532055
 10
93.1611207332
 20
132.2942656225
 10
93.1744014524
 20
132.3061633953
 10
93.1870288531
 20
132.3182376887
 10
93.1989935584
 20
132.3304795363
 10
93.210286683
 20
132.3428798471
 10
93.2208998408
 20
132.3554294126
 10
93.2308251501
 20
132.3681189135
 10
93.2400552406
 20
132.3809389264
 10
93.2485832579
 20
132.3938799312
 10
93.2564028689
 20
132.4069323178
 10
93.2635082669
 20
132.4200863933
 10
93.2698941753
 20
132.4333323896
 10
93.275555852
 20
132.4466604701
 10
93.2804890924
 20
132.4600607372
 10
93.2846902333
 20
132.4735232398
 10
93.2881561547
 20
132.4870379807
 10
93.2908842828
 20
132.5005949237
 10
93.2928725918
 20
132.5141840014
 10
93.2941196052
 20
132.5277951223
 10
93.2946243968
 20
132.5414181789
  0
LINE
  5
664
100
AcDbEntity
  8
RACCORDO
100
AcDbLine
 62
253
  6
CONTINUOUS
 10
92.4640033842
 20
131.0806189268
 11
84.7298144728
 21
126.9906524285
  0
LINE
  5
665
100
AcDbEntity
  8
RACCORDO
100
AcDbLine
 62
7
  6
CONTINUOUS
 10
92.4192154543
 20
131.0526842328
 11
84.7081223706
 21
126.9749311887
  0
LINE
  5
666
100
AcDbEntity
  8
RACCORDO
100
AcDbLine
 62
253
  6
CONTINUOUS
 10
78.4118029765
 20
124.5044418784
 11
93.013976198
 21
132.1965385688
  0
LINE
  5
667
100
AcDbEntity
  8
RACCORDO
100
AcDbLine
 62
253
  6
CONTINUOUS
 10
78.3473933434
 20
123.6711943953
 11
92.5998257224
 21
131.1790554698
  0
LINE
  5
668
100
AcDbEntity
  8
DRAFT
100
AcDbLine
 62
7
  6
CONTINUOUS
 10
78.2509466373
 20
123.3712116131
 11
83.6466192033
 21
126.2056122122
  0
LINE
  5
669
100
AcDbEntity
  8
0
100
AcDbLine
 62
253
  6
CONTINUOUS
 10
76.8268130641
 20
122.1877083489
 11
70.9703426777
 21
119.1754043237
  0
LINE
  5
66A
100
AcDbEntity
  8
0
100
AcDbLine
 62
7
  6
CONTINUOUS
 10
76.8023551613
 20
122.1726627266
 11
70.9703426777
 21
119.1729387426
  0
LINE
  5
66B
100
AcDbEntity
  8
0
100
AcDbLine
 62
253
  6
CONTINUOUS
 10
71.0225371131
 20
120.2549203169
 11
78.3823646279
 21
124.0324979843
  0
LINE
  5
66C
100
AcDbEntity
  8
0
100
AcDbLine
 62
253
  6
CONTINUOUS
 10
70.9703426777
 20
119.423126388
 11
77.9681668375
 21
123.0148986427
  0
LINE
  5
66D
100
AcDbEntity
  8
0
100
AcDbLine
 62
253
  6
CONTINUOUS
 10
70.1032982975
 20
120.883550761
 11
70.069946973
 21
120.8665814837
  0
LINE
  5
66E
100
AcDbEntity
  8
0
100
AcDbLine
 62
253
  6
CONTINUOUS
 10
67.5609250959
 20
119.4514949545
 11
68.1755960962
 21
119.735370392
  0
LINE
  5
66F
100
AcDbEntity
  8
0
100
AcDbLine
 62
7
  6
CONTINUOUS
 10
67.2893490228
 20
118.9050639097
 11
68.2343092503
 21
119.3414778576
  0
LWPOLYLINE
  5
670
100
AcDbEntity
  8
0
100
AcDbPolyline
 62
7
  6
CONTINUOUS
 90
11
 70
0
 10
72.9457735657
 20
168.446329889
 10
72.9222300475
 20
168.4473221294
 10
72.8997443783
 20
168.4463335388
 10
72.8784190885
 20
168.443693749
 10
72.858945991
 20
168.4398814347
 10
72.8414880236
 20
168.4353856354
 10
72.8251909344
 20
168.4303482486
 10
72.8092659486
 20
168.4247404305
 10
72.7934917503
 20
168.4186178345
 10
72.7775505762
 20
168.4119498515
 10
72.7609298993
 20
168.4045696925
  0
LWPOLYLINE
  5
671
100
AcDbEntity
  8
RACCORDO
100
AcDbPolyline
 62
7
  6
CONTINUOUS
 90
9
 70
0
 10
71.9802769757
 20
168.1520426638
 10
71.9946913528
 20
168.1507667477
 10
72.0210571381
 20
168.1477267943
 10
72.0473953407
 20
168.1439784896
 10
72.0736862322
 20
168.1395195688
 10
72.0999171772
 20
168.134346798
 10
72.1260566182
 20
168.1284611889
 10
72.1520566907
 20
168.1218699609
 10
72.1566703555
 20
168.1205677213
  0
LWPOLYLINE
  5
672
100
AcDbEntity
  8
0
100
AcDbPolyline
 62
253
  6
CONTINUOUS
 90
7
 70
0
 10
79.7186158125
 20
165.0795609361
 10
79.6881457731
 20
165.089151259
 10
79.6557436517
 20
165.0937849382
 10
79.621756615
 20
165.093412327
 10
79.5865488104
 20
165.088037418
 10
79.5504974653
 20
165.0777177995
 10
79.5139888448
 20
165.0625640394
  0
LWPOLYLINE
  5
673
100
AcDbEntity
  8
0
100
AcDbPolyline
 62
253
  6
CONTINUOUS
 90
7
 70
0
 10
79.5139888448
 20
165.0625640394
 10
79.4955085383
 20
165.0703015095
 10
79.4773022045
 20
165.0749223385
 10
79.4596813586
 20
165.0763474626
 10
79.4429474982
 20
165.0745524977
 10
79.4273869444
 20
165.069568156
 10
79.4251765854
 20
165.0685527459
  0
LWPOLYLINE
  5
674
100
AcDbEntity
  8
0
100
AcDbPolyline
 62
7
  6
CONTINUOUS
 90
5
 70
0
 10
79.7314252851
 20
165.0737457042
 10
79.7020357911
 20
165.0866003792
 10
79.6709372524
 20
165.0965334903
 10
79.6383788399
 20
165.1033122655
 10
79.6047382444
 20
165.1067385122
  0
LWPOLYLINE
  5
675
100
AcDbEntity
  8
0
100
AcDbPolyline
 62
253
  6
CONTINUOUS
 90
10
 70
0
 10
73.0382887263
 20
168.4203138928
 10
73.0324888497
 20
168.4228843645
 10
73.0168943644
 20
168.4272801098
 10
72.9991451609
 20
168.4291501959
 10
72.97934922
 20
168.4285357009
 10
72.9577643622
 20
168.4254602963
 10
72.9346424163
 20
168.4200082375
 10
72.9101915625
 20
168.4122959591
 10
72.8845679393
 20
168.4024436753
 10
72.8579419163
 20
168.3905875036
  0
LWPOLYLINE
  5
676
100
AcDbEntity
  8
0
100
AcDbPolyline
 62
7
  6
CONTINUOUS
 90
5
 70
0
 10
73.0383746299
 20
168.4202723202
 10
73.0203824569
 20
168.4284088587
 10
72.9954434628
 20
168.4370681341
 10
72.9704166316
 20
168.4429933355
 10
72.9457735657
 20
168.446329889
  0
LINE
  5
677
100
AcDbEntity
  8
0
100
AcDbLine
 62
253
  6
CONTINUOUS
 10
79.731425285
 20
165.0737457042
 11
79.7186158125
 21
165.0795609361
  0
LWPOLYLINE
  5
678
100
AcDbEntity
  8
0
100
AcDbPolyline
 62
253
  6
CONTINUOUS
 90
9
 70
0
 10
72.8579419163
 20
168.3905875036
 10
72.8426580614
 20
168.3975254824
 10
72.8274670485
 20
168.4027514223
 10
72.8124844902
 20
168.4062255518
 10
72.7978244137
 20
168.4079214316
 10
72.7835983898
 20
168.407826157
 10
72.7699146839
 20
168.4059404541
 10
72.7568774366
 20
168.4022786736
 10
72.7484876244
 20
168.3988139121
  0
LINE
  5
679
100
AcDbEntity
  8
RACCORDO
100
AcDbLine
 62
253
  6
CONTINUOUS
 10
85.1547347196
 20
161.4034544984
 11
83.7783685147
 21
162.0916376008
  0
LINE
  5
67A
100
AcDbEntity
  8
RACCORDO
100
AcDbLine
 62
253
  6
CONTINUOUS
 10
82.7299917618
 20
162.6158259772
 11
82.3013811634
 21
162.8301312764
  0
LINE
  5
67B
100
AcDbEntity
  8
DRAFT
100
AcDbLine
 62
7
  6
CONTINUOUS
 10
71.5506411529
 20
168.3668605752
 11
72.0982037048
 21
168.0930792992
  0
LINE
  5
67C
100
AcDbEntity
  8
DRAFT
100
AcDbLine
 62
7
  6
CONTINUOUS
 10
82.8941675922
 20
162.6950973555
 11
83.6466192033
 21
162.31887155
  0
LINE
  5
67D
100
AcDbEntity
  8
RACCORDO
100
AcDbLine
 62
7
  6
CONTINUOUS
 10
85.5896076002
 20
161.425817828
 11
82.3013811634
 21
163.0699310463
  0
LINE
  5
67E
100
AcDbEntity
  8
0
100
AcDbLine
 62
7
  6
CONTINUOUS
 10
75.3944671221
 20
166.5748514012
 11
78.9050001771
 21
164.8195848737
  0
LINE
  5
67F
100
AcDbEntity
  8
0
100
AcDbLine
 62
253
  6
CONTINUOUS
 10
72.8579419163
 20
168.3905875036
 11
74.9885054452
 21
167.3253057392
  0
LINE
  5
680
100
AcDbEntity
  8
0
100
AcDbLine
 62
253
  6
CONTINUOUS
 10
79.5139888448
 20
165.0625640394
 11
81.6445523736
 21
163.9972822749
  0
LINE
  5
681
100
AcDbEntity
  8
0
100
AcDbLine
 62
7
  6
CONTINUOUS
 10
73.0377238558
 20
168.4205964188
 11
75.2059418855
 21
167.336487404
  0
LINE
  5
682
100
AcDbEntity
  8
0
100
AcDbLine
 62
7
  6
CONTINUOUS
 10
79.7314252851
 20
165.0737457042
 11
81.8996458584
 21
163.9896354175
  0
LWPOLYLINE
  5
683
100
AcDbEntity
  8
RACCORDO
100
AcDbPolyline
 62
7
  6
CONTINUOUS
 90
23
 70
0
 10
85.5896076002
 20
161.425817828
 10
85.6125961306
 20
161.4139493944
 10
85.6352897327
 20
161.4014790239
 10
85.6576688453
 20
161.3884156299
 10
85.6797201715
 20
161.3747651626
 10
85.7014188469
 20
161.3605415435
 10
85.7227293887
 20
161.3457682165
 10
85.7436177208
 20
161.3304713858
 10
85.7640852139
 20
161.3146530708
 10
85.7841492188
 20
161.2983001787
 10
85.8037828818
 20
161.2814338046
 10
85.8229793852
 20
161.264059416
 10
85.8417805645
 20
161.2461342553
 10
85.8602026778
 20
161.2276310471
 10
85.8781872089
 20
161.208596928
 10
85.8956646396
 20
161.1891013261
 10
85.9125829466
 20
161.1692064362
 10
85.928968584
 20
161.1488859253
 10
85.9448690602
 20
161.1280763041
 10
85.9602985495
 20
161.1067445763
 10
85.9752031324
 20
161.0849508928
 10
85.9895276218
 20
161.0627705715
 10
86.0032417719
 20
161.0402532133
  0
LWPOLYLINE
  5
684
100
AcDbEntity
  8
0
100
AcDbPolyline
 62
253
  6
CONTINUOUS
 90
10
 70
0
 10
81.6445523736
 20
163.9972822749
 10
81.660087076
 20
163.988811633
 10
81.6754785232
 20
163.9787460355
 10
81.6906095821
 20
163.9671624879
 10
81.705365006
 20
163.9541496505
 10
81.7196327378
 20
163.9398067874
 10
81.7333047109
 20
163.9242428812
 10
81.7462771062
 20
163.9075763674
 10
81.7584511935
 20
163.8899343522
 10
81.7697344722
 20
163.8714511862
  0
LWPOLYLINE
  5
685
100
AcDbEntity
  8
0
100
AcDbPolyline
 62
253
  6
CONTINUOUS
 90
13
 70
0
 10
74.9885054452
 20
167.3253057392
 10
75.0069435213
 20
167.3145840179
 10
75.0250238863
 20
167.3010614973
 10
75.0424371799
 20
167.2849695515
 10
75.058885456
 20
167.2665835179
 10
75.07408728
 20
167.2462179868
 10
75.0877825442
 20
167.2242214184
 10
75.0997369189
 20
167.2009701804
 10
75.1097458615
 20
167.1768621076
 10
75.1176381165
 20
167.1523096957
 10
75.1232786451
 20
167.127733043
 10
75.1265709365
 20
167.103552663
 10
75.1274586584
 20
167.0801822888
  0
LWPOLYLINE
  5
686
100
AcDbEntity
  8
0
100
AcDbPolyline
 62
7
  6
CONTINUOUS
 90
5
 70
0
 10
82.0215982413
 20
163.9085137802
 10
82.00448938
 20
163.9224560043
 10
81.9670265351
 20
163.949941055
 10
81.92859579
 20
163.9740401829
 10
81.8985013771
 20
163.9902105176
  0
LINE
  5
687
100
AcDbEntity
  8
0
100
AcDbLine
 62
7
  6
CONTINUOUS
 10
82.0215494417
 20
163.9085259886
 11
82.0215844144
 21
163.908496552
  0
LWPOLYLINE
  5
688
100
AcDbEntity
  8
0
100
AcDbPolyline
 62
253
  6
CONTINUOUS
 90
10
 70
0
 10
81.989000515
 20
163.8093133309
 10
82.0046500336
 20
163.7954319691
 10
82.0196322077
 20
163.7805285268
 10
82.0339470371
 20
163.7646030042
 10
82.0476828581
 20
163.7475803977
 10
82.0607513345
 20
163.7295357109
 10
82.0728874576
 20
163.710693954
 10
82.0840028911
 20
163.6911301303
 10
82.0941859713
 20
163.6707692366
 10
82.1034366982
 20
163.6496112727
  0
LWPOLYLINE
  5
689
100
AcDbEntity
  8
0
100
AcDbPolyline
 62
253
  6
CONTINUOUS
 90
9
 70
0
 10
82.0215844144
 20
163.908496552
 10
82.022133376
 20
163.9079949381
 10
82.025297716
 20
163.9020096096
 10
82.0257695932
 20
163.8929995547
 10
82.0235412877
 20
163.8811121789
 10
82.0186492561
 20
163.8665419598
 10
82.0111735344
 20
163.849527266
 10
82.0012364286
 20
163.8303464574
 10
81.9890005149
 20
163.8093133308
  0
LWPOLYLINE
  5
68A
100
AcDbEntity
  8
0
100
AcDbPolyline
 62
7
  6
CONTINUOUS
 90
3
 70
0
 10
82.0714873354
 20
163.8616649895
 10
82.0331703121
 20
163.8985137957
 10
82.0215494417
 20
163.9085259886
  0
LWPOLYLINE
  5
68B
100
AcDbEntity
  8
0
100
AcDbPolyline
 62
253
  6
CONTINUOUS
 90
9
 70
0
 10
82.207135001
 20
163.6506605486
 10
82.203860028
 20
163.6548853911
 10
82.1974717893
 20
163.6581312241
 10
82.188168804
 20
163.6600566045
 10
82.1760730491
 20
163.6606362903
 10
82.1613431197
 20
163.659862684
 10
82.1441721492
 20
163.6577459325
 10
82.1247852774
 20
163.6543137936
 10
82.1034366982
 20
163.6496112727
  0
LWPOLYLINE
  5
68C
100
AcDbEntity
  8
RACCORDO
100
AcDbPolyline
 62
253
  6
CONTINUOUS
 90
28
 70
0
 10
85.6546585672
 20
160.8998782391
 10
85.6400490667
 20
160.9248725582
 10
85.6250186357
 20
160.9495340593
 10
85.6095799871
 20
160.973841883
 10
85.5937461796
 20
160.997775469
 10
85.5775306058
 20
161.0213145736
 10
85.5609469812
 20
161.0444392869
 10
85.5440093328
 20
161.0671300492
 10
85.5267319869
 20
161.0893676681
 10
85.5091295572
 20
161.1111333344
 10
85.4912169322
 20
161.1324086381
 10
85.4730092631
 20
161.1531755839
 10
85.4545219503
 20
161.1734166065
 10
85.4357706309
 20
161.1931145856
 10
85.4167711653
 20
161.2122528601
 10
85.3975396239
 20
161.2308152422
 10
85.3780922731
 20
161.2487860313
 10
85.3584455621
 20
161.2661500273
 10
85.3386161087
 20
161.2828925433
 10
85.3186206851
 20
161.2989994178
 10
85.2984762041
 20
161.3144570273
 10
85.2781997043
 20
161.3292522974
 10
85.2578083363
 20
161.3433727136
 10
85.2373193476
 20
161.3568063327
 10
85.2167500684
 20
161.369541792
 10
85.1961178967
 20
161.3815683196
 10
85.1754402839
 20
161.3928757431
 10
85.1547347196
 20
161.4034544984
  0
LINE
  5
68D
100
AcDbEntity
  8
RACCORDO
100
AcDbLine
 62
7
  6
CONTINUOUS
 10
84.7298144728
 20
160.4506360641
 11
83.6466192033
 21
162.31887155
  0
LINE
  5
68E
100
AcDbEntity
  8
RACCORDO
100
AcDbLine
 62
253
  6
CONTINUOUS
 10
85.8606131142
 20
160.5446591903
 11
85.6546585672
 21
160.8998782391
  0
LINE
  5
68F
100
AcDbEntity
  8
RACCORDO
100
AcDbLine
 62
7
  6
CONTINUOUS
 10
86.213456363
 20
160.6777575478
 11
86.0032417719
 21
161.0402532133
  0
LWPOLYLINE
  5
690
100
AcDbEntity
  8
RACCORDO
100
AcDbPolyline
 62
253
  6
CONTINUOUS
 90
57
 70
0
 10
93.2946363977
 20
139.4124919243
 10
93.3029020973
 20
139.3861341687
 10
93.3150815967
 20
139.3439831986
 10
93.3265226875
 20
139.3008224635
 10
93.3372038896
 20
139.256680074
 10
93.3470485413
 20
139.2116396611
 10
93.3560406478
 20
139.1657222261
 10
93.3641728571
 20
139.118906253
 10
93.3713845297
 20
139.0712138521
 10
93.3776815357
 20
139.0223894068
 10
93.383031069
 20
138.9726885105
 10
93.3873336816
 20
138.9229107308
 10
93.3905627686
 20
138.8730905021
 10
93.3927591426
 20
138.8232151268
 10
93.3939589542
 20
138.7740301897
 10
93.3941575251
 20
138.725548117
 10
93.39340513
 20
138.6777881039
 10
93.3918502588
 20
138.6315180217
 10
93.3895243693
 20
138.5869487036
 10
93.3864696794
 20
138.5439050504
 10
93.3828654638
 20
138.502580904
 10
93.3787679678
 20
138.4631398419
 10
93.3741902096
 20
138.4254456967
 10
93.3692410802
 20
138.3892404671
 10
93.3639623549
 20
138.354545509
 10
93.3583622391
 20
138.3213564591
 10
93.3524876761
 20
138.2893731124
 10
93.3463603207
 20
138.2585613421
 10
93.3399935356
 20
138.2289655868
 10
93.3334134804
 20
138.2004011442
 10
93.3266237834
 20
138.1728138836
 10
93.3196471307
 20
138.1462645924
 10
93.3125344712
 20
138.1207399627
 10
93.3052989788
 20
138.0962508905
 10
93.2979502732
 20
138.0727914879
 10
93.29053212
 20
138.0503228875
 10
93.2830707869
 20
138.0288876336
 10
93.2755586834
 20
138.0084468861
 10
93.2679861337
 20
137.9888391905
 10
93.2603602215
 20
137.9700507118
 10
93.2526871151
 20
137.9520976604
 10
93.2449531408
 20
137.9348631386
 10
93.2371463199
 20
137.9183094295
 10
93.2292883827
 20
137.9024758703
 10
93.2214148897
 20
137.8873609454
 10
93.2135137905
 20
137.8729512239
 10
93.2056050871
 20
137.8592615536
 10
93.19777184
 20
137.8463328849
 10
93.1900352792
 20
137.834206396
 10
93.1823805009
 20
137.8228423232
 10
93.1748355448
 20
137.8121601833
 10
93.1674293063
 20
137.8021885289
 10
93.1601369545
 20
137.7928999477
 10
93.1529048888
 20
137.7841297957
 10
93.1457158483
 20
137.775823393
 10
93.1385893215
 20
137.7680361702
 10
93.1315262682
 20
137.7607685078
  0
LINE
  5
691
100
AcDbEntity
  8
RACCORDO
100
AcDbLine
 62
253
  6
CONTINUOUS
 10
93.294052036
 20
147.7395473482
 11
93.2946094061
 21
147.7197024017
  0
LINE
  5
692
100
AcDbEntity
  8
RACCORDO
100
AcDbLine
 62
253
  6
CONTINUOUS
 10
93.294580916
 20
135.7709124024
 11
93.2946360266
 21
135.7637347481
  0
LINE
  5
693
100
AcDbEntity
  8
RACCORDO
100
AcDbLine
 62
253
  6
CONTINUOUS
 10
93.2946094061
 20
147.7197024017
 11
93.2946359544
 21
147.7149481709
  0
LINE
  5
694
100
AcDbEntity
  8
RACCORDO
100
AcDbLine
 62
253
  6
CONTINUOUS
 10
93.013976198
 20
132.1965385688
 11
93.013976198
 21
136.0039368563
  0
LINE
  5
695
100
AcDbEntity
  8
RACCORDO
100
AcDbLine
 62
253
  6
CONTINUOUS
 10
93.013976198
 20
137.7764057551
 11
93.013976198
 21
147.9550874345
  0
LINE
  5
696
100
AcDbEntity
  8
RACCORDO
100
AcDbLine
 62
253
  6
CONTINUOUS
 10
93.013976198
 20
149.7275563216
 11
93.013976198
 21
154.2828117706
  0
LINE
  5
697
100
AcDbEntity
  8
RACCORDO
100
AcDbLine
 62
7
  6
CONTINUOUS
 10
93.2946363977
 20
132.543867754
 11
93.2946360266
 21
135.7637347481
  0
LINE
  5
698
100
AcDbEntity
  8
RACCORDO
100
AcDbLine
 62
7
  6
CONTINUOUS
 10
93.2946363977
 20
154.6301409559
 11
93.2946359534
 21
150.6614104473
  0
LINE
  5
699
100
AcDbEntity
  8
RACCORDO
100
AcDbLine
 62
7
  6
CONTINUOUS
 10
93.2946359544
 20
147.7149481709
 11
93.294636028
 21
138.7104072492
  0
LWPOLYLINE
  5
69A
100
AcDbEntity
  8
RACCORDO
100
AcDbPolyline
 62
253
  6
CONTINUOUS
 90
57
 70
0
 10
93.2946359534
 20
150.6614104473
 10
93.2946095641
 20
150.6502899719
 10
93.2940526832
 20
150.6036060856
 10
93.2928474924
 20
150.5591116006
 10
93.2910711319
 20
150.5164846983
 10
93.2887794459
 20
150.475513041
 10
93.2860285948
 20
150.436161966
 10
93.2828793557
 20
150.3984727539
 10
93.2793719546
 20
150.3623459989
 10
93.2755593893
 20
150.3278302874
 10
93.2714846025
 20
150.2948781027
 10
93.2671545785
 20
150.2632460369
 10
93.2626038689
 20
150.2329358519
 10
93.2578651862
 20
150.2039449178
 10
93.2529227038
 20
150.1760246483
 10
93.2477824322
 20
150.1490916907
 10
93.242480971
 20
150.1232287912
 10
93.2370384668
 20
150.0984372654
 10
93.2314742275
 20
150.0747189791
 10
93.2258093768
 20
150.0520696368
 10
93.2200660182
 20
150.0304809196
 10
93.2142736539
 20
150.0099914942
 10
93.208440946
 20
149.9905587093
 10
93.2025551893
 20
149.9720525739
 10
93.1966261296
 20
149.9544571935
 10
93.1906720651
 20
149.9377850826
 10
93.1846880495
 20
149.9219496809
 10
93.1786740627
 20
149.9069254008
 10
93.1726525423
 20
149.8927346563
 10
93.1666513779
 20
149.8793628124
 10
93.1606868725
 20
149.8668248333
 10
93.1547659585
 20
149.8551013356
 10
93.1489032248
 20
149.8441257069
 10
93.1431240567
 20
149.8339201141
 10
93.1374245425
 20
149.8244575079
 10
93.1317728537
 20
149.8155980053
 10
93.1261834224
 20
149.8073392871
 10
93.1206568008
 20
149.799680077
 10
93.1151350969
 20
149.7924836261
 10
93.1096110964
 20
149.7857252368
 10
93.1040998489
 20
149.7794279775
 10
93.0985726568
 20
149.7735281179
 10
93.0930230244
 20
149.7680129659
 10
93.0874624347
 20
149.7628943741
 10
93.0818876192
 20
149.7581459408
 10
93.0763003408
 20
149.7537668186
 10
93.0707033838
 20
149.7497570164
 10
93.0650946062
 20
149.7460915351
 10
93.0594777016
 20
149.7427704637
 10
93.0538530727
 20
149.7397929047
 10
93.0482131605
 20
149.737132544
 10
93.0425616686
 20
149.7347882374
 10
93.0368982472
 20
149.7327605072
 10
93.0312084823
 20
149.7310258511
 10
93.0254881399
 20
149.7295764428
 10
93.0197436656
 20
149.728419908
 10
93.013976198
 20
149.7275561146
  0
LWPOLYLINE
  5
69B
100
AcDbEntity
  8
RACCORDO
100
AcDbPolyline
 62
253
  6
CONTINUOUS
 90
57
 70
0
 10
93.294636028
 20
138.7104072492
 10
93.2945825232
 20
138.6938222318
 10
93.2939571594
 20
138.6477814325
 10
93.2926983376
 20
138.6037277755
 10
93.2908769059
 20
138.561419605
 10
93.2885596368
 20
138.5209061462
 10
93.285820154
 20
138.4823114298
 10
93.2827157162
 20
138.4455166112
 10
93.279268995
 20
138.4102056765
 10
93.2755225489
 20
138.3763642569
 10
93.2715213474
 20
138.3440079203
 10
93.2672651292
 20
138.3128664824
 10
93.2627776157
 20
138.28289747
 10
93.2580939679
 20
138.2541432107
 10
93.2532140411
 20
138.2264618242
 10
93.2481472228
 20
138.199790183
 10
93.2429274402
 20
138.1741905544
 10
93.2375866548
 20
138.1497091551
 10
93.2321587236
 20
138.1263996638
 10
93.2266545573
 20
138.1042050076
 10
93.2210691338
 20
138.0830052291
 10
93.2154243
 20
138.0628123241
 10
93.2097324394
 20
138.0436109382
 10
93.203966431
 20
138.0252412961
 10
93.1981297411
 20
138.0076738509
 10
93.1922415664
 20
137.9909359524
 10
93.1862921194
 20
137.9749543065
 10
93.1802713977
 20
137.95968639
 10
93.1742066765
 20
137.9451729365
 10
93.1681447234
 20
137.9314651195
 10
93.1621009813
 20
137.9185840526
 10
93.1560820403
 20
137.9065046904
 10
93.1501251126
 20
137.8952077003
 10
93.1442636227
 20
137.8847319475
 10
93.1384874886
 20
137.8750332484
 10
93.1327675718
 20
137.8659678234
 10
93.1271221893
 20
137.8575372695
 10
93.1215495326
 20
137.8497359719
 10
93.1159846511
 20
137.8424110076
 10
93.110419765
 20
137.8355348266
 10
93.1048709785
 20
137.8291332201
 10
93.099304345
 20
137.8231348508
 10
93.0937115731
 20
137.8175244723
 10
93.0881059246
 20
137.8123165293
 10
93.0824840066
 20
137.8074848154
 10
93.076847086
 20
137.8030282545
 10
93.0711984516
 20
137.7989471119
 10
93.0655373756
 20
137.795217296
 10
93.0598676965
 20
137.7918392402
 10
93.0541897828
 20
137.7888116863
 10
93.0484972982
 20
137.7861081369
 10
93.0427940903
 20
137.7837276648
 10
93.0370798313
 20
137.7816705289
 10
93.0313412012
 20
137.779912297
 10
93.0255744085
 20
137.7784448045
 10
93.0197856622
 20
137.7772759423
 10
93.013976198
 20
137.7764055424
  0
LWPOLYLINE
  5
69C
100
AcDbEntity
  8
RACCORDO
100
AcDbPolyline
 62
7
  6
CONTINUOUS
 90
6
 70
0
 10
93.2946369229
 20
147.7142657362
 10
93.2946890884
 20
147.7160409977
 10
93.2948892804
 20
147.7181119543
 10
93.2951632968
 20
147.7197140768
 10
93.29543438
 20
147.7208358587
 10
93.2956159882
 20
147.7214198049
  0
LWPOLYLINE
  5
69D
100
AcDbEntity
  8
RACCORDO
100
AcDbPolyline
 62
7
  6
CONTINUOUS
 90
6
 70
0
 10
93.2946369023
 20
135.7631167841
 10
93.2946890846
 20
135.7648916412
 10
93.2948894856
 20
135.7669626044
 10
93.2951634481
 20
135.7685644566
 10
93.2954345614
 20
135.7696860573
 10
93.2956162891
 20
135.7702699948
  0
LINE
  5
69E
100
AcDbEntity
  8
RACCORDO
100
AcDbLine
 62
7
  6
CONTINUOUS
 10
93.2956162891
 20
135.7702699948
 11
93.2956375295
 21
135.7703275531
  0
LWPOLYLINE
  5
69F
100
AcDbEntity
  8
RACCORDO
100
AcDbPolyline
 62
7
  6
CONTINUOUS
 90
16
 70
0
 10
93.013976198
 20
136.0039368563
 10
93.020524278
 20
136.0143535928
 10
93.0272657793
 20
136.0246286206
 10
93.034200702
 20
136.0347619397
 10
93.0413300277
 20
136.0447686008
 10
93.0486527748
 20
136.0546335532
 10
93.0561659979
 20
136.0643116447
 10
93.0638753643
 20
136.0738030671
 10
93.0717752068
 20
136.0831076285
 10
93.0798455786
 20
136.0921796013
 10
93.0880903045
 20
136.1010161457
 10
93.0965055596
 20
136.1096201014
 10
93.1050599227
 20
136.1179542596
 10
93.11374292
 20
136.1260062174
 10
93.1225650251
 20
136.1337883777
 10
93.1315262382
 20
136.1413007405
  0
LWPOLYLINE
  5
6A0
100
AcDbEntity
  8
RACCORDO
100
AcDbPolyline
 62
253
  6
CONTINUOUS
 90
34
 70
0
 10
92.6633820116
 20
131.2303014423
 10
92.6835565928
 20
131.2489810742
 10
92.7032095254
 20
131.2684450004
 10
92.7223316446
 20
131.2886841043
 10
92.7409138734
 20
131.3096888069
 10
92.7589472702
 20
131.3314490387
 10
92.7764232594
 20
131.3539544092
 10
92.7933334852
 20
131.3771941615
 10
92.8096698967
 20
131.4011572501
 10
92.8254247873
 20
131.425832325
 10
92.8405906512
 20
131.4512076402
 10
92.855160248
 20
131.4772711083
 10
92.8691266896
 20
131.5040103751
 10
92.8824833372
 20
131.531412739
 10
92.8952238075
 20
131.5594651366
 10
92.9073420352
 20
131.5881542009
 10
92.918832262
 20
131.6174662859
 10
92.9296890135
 20
131.647387441
 10
92.9399071061
 20
131.6779033972
 10
92.9494816898
 20
131.7089996201
 10
92.9584082197
 20
131.7406613349
 10
92.9666824333
 20
131.7728735012
 10
92.974300418
 20
131.8056208056
 10
92.9812585594
 20
131.8388876741
 10
92.9875535102
 20
131.8726582995
 10
92.9931823147
 20
131.9069166866
 10
92.9981422999
 20
131.9416464969
 10
93.0024310268
 20
131.9768310598
 10
93.0060464898
 20
132.0124535501
 10
93.0089870148
 20
132.0484971337
 10
93.0112511399
 20
132.0849448183
 10
93.0128377858
 20
132.121779336
 10
93.0137462692
 20
132.1589831436
 10
93.013976198
 20
132.1965385688
  0
LWPOLYLINE
  5
6A1
100
AcDbEntity
  8
RACCORDO
100
AcDbPolyline
 62
253
  6
CONTINUOUS
 90
4
 70
0
 10
92.5998257224
 20
131.1790554698
 10
92.6215065359
 20
131.1953302593
 10
92.6426953403
 20
131.2124149713
 10
92.6633820116
 20
131.2303014423
  0
LWPOLYLINE
  5
6A2
100
AcDbEntity
  8
RACCORDO
100
AcDbPolyline
 62
7
  6
CONTINUOUS
 90
40
 70
0
 10
92.6744044287
 20
131.2254256716
 10
92.6940381141
 20
131.2399210005
 10
92.7221333105
 20
131.2616160384
 10
92.7497363555
 20
131.2840802654
 10
92.7768191972
 20
131.3072960946
 10
92.803368792
 20
131.3312574275
 10
92.8293864483
 20
131.3559718384
 10
92.8548522415
 20
131.3814279825
 10
92.8797468428
 20
131.4076140867
 10
92.9040710172
 20
131.4345400551
 10
92.9278055376
 20
131.4621949607
 10
92.9509305823
 20
131.4905659524
 10
92.9734443424
 20
131.5196628195
 10
92.9953282608
 20
131.549475478
 10
93.0165623829
 20
131.5799901865
 10
93.0371413589
 20
131.6112142873
 10
93.0570463048
 20
131.6431362528
 10
93.0762588188
 20
131.6757437767
 10
93.0947731591
 20
131.7090460089
 10
93.1125697567
 20
131.7430291481
 10
93.1296319265
 20
131.7776836133
 10
93.1459565277
 20
131.8130284063
 10
93.161527267
 20
131.8490583202
 10
93.1763232254
 20
131.8857569748
 10
93.1903329418
 20
131.9231301596
 10
93.2035441064
 20
131.9611848042
 10
93.2159322372
 20
131.9998936519
 10
93.2274707182
 20
132.0392130955
 10
93.2381455067
 20
132.0791333888
 10
93.2479420114
 20
132.1196430604
 10
93.256839272
 20
132.1606968473
 10
93.2648266383
 20
132.2022864118
 10
93.271892427
 20
132.2443997585
 10
93.2780204957
 20
132.2869869716
 10
93.2832026971
 20
132.3300386893
 10
93.2874303732
 20
132.3735448878
 10
93.2906925361
 20
132.4174560597
 10
93.2929823873
 20
132.4617505813
 10
93.2942945847
 20
132.5064316561
 10
93.2946363881
 20
132.5438666304
  0
LINE
  5
6A3
100
AcDbEntity
  8
RACCORDO
100
AcDbLine
 62
253
  6
CONTINUOUS
 10
92.4640033842
 20
131.0806189268
 11
92.5998257224
 21
131.1790554698
  0
LINE
  5
6A4
100
AcDbEntity
  8
RACCORDO
100
AcDbLine
 62
7
  6
CONTINUOUS
 10
92.5385709783
 20
131.1269810596
 11
92.6743933164
 21
131.2254176026
  0
LWPOLYLINE
  5
6A5
100
AcDbEntity
  8
RACCORDO
100
AcDbPolyline
 62
7
  6
CONTINUOUS
 90
7
 70
0
 10
92.5385709783
 20
131.1269810596
 10
92.5253059747
 20
131.1175311172
 10
92.5118801842
 20
131.1082926228
 10
92.4982987039
 20
131.0992696384
 10
92.4845609271
 20
131.0904623847
 10
92.470678329
 20
131.0818786954
 10
92.4566744858
 20
131.0735326798
  0
LWPOLYLINE
  5
6A6
100
AcDbEntity
  8
0
100
AcDbPolyline
 62
7
  6
CONTINUOUS
 90
5
 70
0
 10
69.5230718371
 20
114.9447417532
 10
69.5315557763
 20
114.9500750742
 10
69.5437497885
 20
114.9610085293
 10
69.5540243231
 20
114.9747061558
 10
69.5622064553
 20
114.9909345918
  0
LWPOLYLINE
  5
6A7
100
AcDbEntity
  8
0
100
AcDbPolyline
 62
253
  6
CONTINUOUS
 90
7
 70
0
 10
70.1312046222
 20
115.7605048744
 10
70.1479348373
 20
115.7703715795
 10
70.161977813
 20
115.7812355383
 10
70.1730985727
 20
115.7929149677
 10
70.1811110359
 20
115.8052144393
 10
70.1858811328
 20
115.8179281499
 10
70.1873366621
 20
115.8299707114
  0
LWPOLYLINE
  5
6A8
100
AcDbEntity
  8
0
100
AcDbPolyline
 62
253
  6
CONTINUOUS
 90
8
 70
0
 10
67.8606474903
 20
114.1768197931
 10
67.8732713444
 20
114.1842243699
 10
67.8854963704
 20
114.1951718103
 10
67.8958621504
 20
114.2089109
 10
67.9041913917
 20
114.2252066506
 10
67.9103416339
 20
114.2437803452
 10
67.9142076853
 20
114.2643143057
 10
67.9157234223
 20
114.2864573266
  0
LWPOLYLINE
  5
6A9
100
AcDbEntity
  8
0
100
AcDbPolyline
 62
7
  6
CONTINUOUS
 90
3
 70
0
 10
70.0821818727
 20
115.2463945397
 10
70.0877885281
 20
115.2495317324
 10
70.109052406
 20
115.263776376
  0
LINE
  5
6AA
100
AcDbEntity
  8
0
100
AcDbLine
 62
253
  6
CONTINUOUS
 10
70.2447196538
 20
116.7943735675
 11
70.9394838402
 21
117.1692147852
  0
LINE
  5
6AB
100
AcDbEntity
  8
0
100
AcDbLine
 62
7
  6
CONTINUOUS
 10
70.1189795658
 20
116.5261190529
 11
70.8148214114
 21
116.9015416923
  0
LINE
  5
6AC
100
AcDbEntity
  8
0
100
AcDbLine
 62
253
  6
CONTINUOUS
 10
69.5729682116
 20
115.0518278895
 11
70.1312046222
 21
115.3530092398
  0
LINE
  5
6AD
100
AcDbEntity
  8
0
100
AcDbLine
 62
7
  6
CONTINUOUS
 10
69.5231152714
 20
114.9447651435
 11
70.0823014262
 21
115.2464589027
  0
LINE
  5
6AE
100
AcDbEntity
  8
0
100
AcDbLine
 62
7
  6
CONTINUOUS
 10
69.5189054005
 20
114.9426582488
 11
69.5230718371
 21
114.9447417532
  0
LINE
  5
6AF
100
AcDbEntity
  8
0
100
AcDbLine
 62
7
  6
CONTINUOUS
 10
70.1189444638
 20
116.5261001413
 11
70.101203647
 21
116.5176814192
  0
LWPOLYLINE
  5
6B0
100
AcDbEntity
  8
0
100
AcDbPolyline
 62
253
  6
CONTINUOUS
 90
12
 70
0
 10
69.1513075546
 20
116.1263882554
 10
69.1669952076
 20
116.133770434
 10
69.1899127863
 20
116.1480080919
 10
69.2109901297
 20
116.1655521248
 10
69.2300658778
 20
116.1862692154
 10
69.2470024712
 20
116.2100057777
 10
69.2616648802
 20
116.236579613
 10
69.2739380289
 20
116.2657878283
 10
69.2837390047
 20
116.2974133082
 10
69.2909923046
 20
116.3312158263
 10
69.2956304572
 20
116.3669338819
 10
69.2976108034
 20
116.4042933757
  0
LINE
  5
6B1
100
AcDbEntity
  8
0
100
AcDbLine
 62
253
  6
CONTINUOUS
 10
65.6295818695
 20
114.8102250636
 11
66.3212968325
 21
115.1168136036
  0
LINE
  5
6B2
100
AcDbEntity
  8
RACCORDO
100
AcDbLine
 62
7
  6
CONTINUOUS
 10
66.1834891445
 20
114.8427139606
 11
65.4877572139
 21
114.534345207
  0
LINE
  5
6B3
100
AcDbEntity
  8
0
100
AcDbLine
 62
253
  6
CONTINUOUS
 10
69.2976108034
 20
116.4042933757
 11
70.2447196538
 21
116.7944397211
  0
LINE
  5
6B4
100
AcDbEntity
  8
0
100
AcDbLine
 62
7
  6
CONTINUOUS
 10
69.1506050461
 20
116.1260976757
 11
70.1011559018
 21
116.5176619002
  0
LWPOLYLINE
  5
6B5
100
AcDbEntity
  8
RACCORDO
100
AcDbPolyline
 62
253
  6
CONTINUOUS
 90
57
 70
0
 10
93.2946363977
 20
151.3636240569
 10
93.3009255703
 20
151.3438034202
 10
93.3130913974
 20
151.3022635861
 10
93.3245322193
 20
151.2597669049
 10
93.3352320179
 20
151.216321946
 10
93.3451257689
 20
151.1719657538
 10
93.3542026451
 20
151.1266921775
 10
93.3624490698
 20
151.0805055352
 10
93.3697985961
 20
151.0334605881
 10
93.3762463027
 20
150.9854846981
 10
93.3817736704
 20
150.9366518042
 10
93.3863021219
 20
150.8872412618
 10
93.3898184242
 20
150.8369404406
 10
93.3923216699
 20
150.786069772
 10
93.3937865524
 20
150.7358750153
 10
93.3941909363
 20
150.6864916184
 10
93.393605445
 20
150.6378180518
 10
93.3921892556
 20
150.590763711
 10
93.3899844271
 20
150.5456616241
 10
93.387030923
 20
150.5022183433
 10
93.3834982128
 20
150.460408047
 10
93.3794345219
 20
150.420291147
 10
93.3748580176
 20
150.3818341161
 10
93.3698849456
 20
150.3448670479
 10
93.3645526285
 20
150.3094047242
 10
93.3588751085
 20
150.2754500142
 10
93.3529247585
 20
150.2428122484
 10
93.346736447
 20
150.2115194555
 10
93.3403144896
 20
150.1815551268
 10
93.3336772564
 20
150.1526594905
 10
93.3268340439
 20
150.1247822044
 10
93.3198030872
 20
150.0979805937
 10
93.312610507
 20
150.0721549376
 10
93.3052564414
 20
150.0472682405
 10
93.2977628045
 20
150.0233623084
 10
93.2901862355
 20
150.0004551494
 10
93.2825454506
 20
149.9785797049
 10
93.2748410199
 20
149.9577068232
 10
93.2671007169
 20
149.9377611079
 10
93.2593409339
 20
149.9187597718
 10
93.2515601051
 20
149.900688322
 10
93.2437567637
 20
149.8834234154
 10
93.2359253754
 20
149.8669395966
 10
93.2280821037
 20
149.8512641846
 10
93.2202562785
 20
149.8363527412
 10
93.212443348
 20
149.8221980127
 10
93.2046559607
 20
149.8088087715
 10
93.1969481869
 20
149.7961645465
 10
93.189336899
 20
149.7842920058
 10
93.1818112067
 20
149.7731658342
 10
93.1743825018
 20
149.7626874803
 10
93.1670716464
 20
149.7528736969
 10
93.1598615771
 20
149.7437087879
 10
93.1527057914
 20
149.7350453149
 10
93.1455893811
 20
149.7268343285
 10
93.1385293961
 20
149.7191254978
 10
93.1315267595
 20
149.7119191873
  0
LINE
  5
6B6
100
AcDbEntity
  8
0
100
AcDbLine
 62
253
  6
CONTINUOUS
 10
67.9157234223
 20
114.2864573266
 11
69.5729682116
 21
115.0518278895
  0
LINE
  5
6B7
100
AcDbEntity
  8
0
100
AcDbLine
 62
7
  6
CONTINUOUS
 10
67.8606474903
 20
114.1768197931
 11
69.5188495947
 21
114.9426324758
  0
LWPOLYLINE
  5
6B8
100
AcDbEntity
  8
0
100
AcDbPolyline
 62
253
  6
CONTINUOUS
 90
13
 70
0
 10
67.9157234223
 20
114.2864573266
 10
67.8964415661
 20
114.2782602872
 10
67.8750919297
 20
114.2713036003
 10
67.8519849716
 20
114.2657279655
 10
67.8274165468
 20
114.2616479221
 10
67.8018270319
 20
114.2591778567
 10
67.7758101148
 20
114.2583925111
 10
67.7498606392
 20
114.2593020597
 10
67.7243645546
 20
114.2618882116
 10
67.6997639587
 20
114.2661054468
 10
67.6764769461
 20
114.2718798327
 10
67.6548916289
 20
114.2791127456
 10
67.635370392
 20
114.2876806285
  0
LWPOLYLINE
  5
6B9
100
AcDbEntity
  8
0
100
AcDbPolyline
 62
7
  6
CONTINUOUS
 90
9
 70
0
 10
67.8606474903
 20
114.1768197931
 10
67.8381844323
 20
114.1680477218
 10
67.8144982241
 20
114.1619783379
 10
67.7899799141
 20
114.1588265996
 10
67.7649639912
 20
114.1587413982
 10
67.7400249247
 20
114.1617998558
 10
67.7158322258
 20
114.1679078779
 10
67.6925077667
 20
114.177018275
 10
67.6872246395
 20
114.1795682075
  0
ELLIPSE
  5
6BA
100
AcDbEntity
  8
0
100
AcDbEllipse
 62
7
  6
CONTINUOUS
 10
73.1626195955
 20
136.7763196236
 30
0.0
 11
0.4019199058
 21
2.4803655312
 31
0.0
 40
0.1222033258
 41
-1.598395567
 42
-0.6466379933
  0
ELLIPSE
  5
6BB
100
AcDbEntity
  8
0
100
AcDbEllipse
 62
7
  6
CONTINUOUS
 10
73.4362779144
 20
136.6661214133
 30
0.0
 11
0.0251199941
 21
0.1550228457
 31
0.0
 40
0.1222033258
 41
-2.5910524174
 42
-1.598395567
  0
ELLIPSE
  5
6BC
100
AcDbEntity
  8
0
100
AcDbEllipse
 62
7
  6
CONTINUOUS
 10
51.0458719256
 20
160.1866419825
 30
0.0
 11
-0.2238185272
 21
0.4474870472
 31
0.0
 40
0.6119614214
 41
-0.6845271385
 42
0.0280440319
  0
ELLIPSE
  5
6BD
100
AcDbEntity
  8
0
100
AcDbEllipse
 62
7
  6
CONTINUOUS
 10
65.9676222465
 20
115.2939477128
 30
0.0
 11
-0.2238185272
 21
0.4474870472
 31
0.0
 40
0.6119614214
 41
-3.1704490493
 42
-2.2560086979
  0
ELLIPSE
  5
6BE
100
AcDbEntity
  8
0
100
AcDbEllipse
 62
7
  6
CONTINUOUS
 10
65.9676222465
 20
152.7257668221
 30
0.0
 11
-0.2235482059
 21
0.4472467618
 31
0.0
 40
0.6127837007
 41
-2.2550219623
 42
-0.6849108682
  0
ELLIPSE
  5
6BF
100
AcDbEntity
  8
0
100
AcDbEllipse
 62
7
  6
CONTINUOUS
 10
85.5314289546
 20
155.3962718081
 30
0.0
 11
3.1085359176
 21
-0.0435832775
 31
0.0
 40
0.4892378494
 41
-1.2282586572
 42
-0.7772130249
  0
ELLIPSE
  5
6C0
100
AcDbEntity
  8
DRAFT
100
AcDbEllipse
 62
7
  6
CONTINUOUS
 10
86.2253329086
 20
154.3570526947
 30
0.0
 11
2.7583876426
 21
-0.0130411979
 31
0.0
 40
0.4964289597
 41
0.8884696282
 42
1.4531813309
  0
ELLIPSE
  5
6C1
100
AcDbEntity
  8
DRAFT
100
AcDbEllipse
 62
7
  6
CONTINUOUS
 10
86.2253329086
 20
154.3570526947
 30
0.0
 11
2.7583876426
 21
-0.0130411979
 31
0.0
 40
0.4964289597
 41
0.3532220781
 42
0.6870207571
  0
ELLIPSE
  5
6C2
100
AcDbEntity
  8
RACCORDO
100
AcDbEllipse
 62
7
  6
CONTINUOUS
 10
90.874046922
 20
155.3404356937
 30
0.0
 11
0.79574694
 21
0.7129684349
 31
0.0
 40
0.2882345029
 41
0.1134953111
 42
0.7807533904
  0
ELLIPSE
  5
6C3
100
AcDbEntity
  8
RACCORDO
100
AcDbEllipse
 62
7
  6
CONTINUOUS
 10
87.1136435421
 20
157.2206373837
 30
0.0
 11
0.4410298232
 21
0.8975092442
 31
0.0
 40
0.607010042
 41
-0.8902711325
 42
-0.4047054934
  0
ELLIPSE
  5
6C4
100
AcDbEntity
  8
RACCORDO
100
AcDbEllipse
 62
7
  6
CONTINUOUS
 10
87.3041838227
 20
157.1253672434
 30
0.0
 11
-0.3106730325
 21
1.1082908718
 31
0.0
 40
0.6760995073
 41
5.3323367446
 42
6.4001141399
  0
ELLIPSE
  5
6C5
100
AcDbEntity
  8
RACCORDO
100
AcDbEllipse
 62
7
  6
CONTINUOUS
 10
70.7591244885
 20
163.9754419458
 30
0.0
 11
1.2141619185
 21
0.9541526469
 31
0.0
 40
0.2329077568
 41
0.1095198182
 42
0.114024621
  0
ELLIPSE
  5
6C6
100
AcDbEntity
  8
DRAFT
100
AcDbEllipse
 62
7
  6
CONTINUOUS
 10
86.2253329086
 20
156.3375408074
 30
0.0
 11
2.7583515655
 21
-1.4175703156
 31
0.0
 40
0.0109499087
 41
-0.7017315251
 42
-0.679046417
  0
ELLIPSE
  5
6C7
100
AcDbEntity
  8
DRAFT
100
AcDbEllipse
 62
7
  6
CONTINUOUS
 10
86.2253329086
 20
154.7900653966
 30
0.0
 11
2.7583876426
 21
-0.0130411979
 31
0.0
 40
0.4964289597
 41
0.0858786529
 42
1.4531818029
  0
ELLIPSE
  5
6C8
100
AcDbEntity
  8
DRAFT
100
AcDbEllipse
 62
7
  6
CONTINUOUS
 10
86.2253329086
 20
156.3375408074
 30
0.0
 11
2.7583515655
 21
-1.4175703156
 31
0.0
 40
0.0109499087
 41
-0.8804952881
 42
-0.85781018
  0
ELLIPSE
  5
6C9
100
AcDbEntity
  8
RACCORDO
100
AcDbEllipse
 62
7
  6
CONTINUOUS
 10
76.9973739897
 20
155.8197184247
 30
0.0
 11
-0.894612936
 21
1.7887945813
 31
0.0
 40
0.6124635976
 41
-2.2555607096
 42
-2.0515150711
  0
ELLIPSE
  5
6CA
100
AcDbEntity
  8
RACCORDO
100
AcDbEllipse
 62
7
  6
CONTINUOUS
 10
76.9973739897
 20
125.2118749273
 30
0.0
 11
-0.894811907
 21
1.788971565
 31
0.0
 40
0.6123121697
 41
-2.4597879754
 42
-2.2557423369
  0
ELLIPSE
  5
6CB
100
AcDbEntity
  8
0
100
AcDbEllipse
 62
7
  6
CONTINUOUS
 10
64.4783133018
 20
164.8824882744
 30
0.0
 11
-0.2236051685
 21
0.4472372818
 31
0.0
 40
0.6123496457
 41
-0.6846763751
 42
-0.0081450945
  0
ELLIPSE
  5
6CC
100
AcDbEntity
  8
0
100
AcDbEllipse
 62
7
  6
CONTINUOUS
 10
72.9851577837
 20
137.0771825639
 30
0.0
 11
0.132308947
 21
0.2692527733
 31
0.0
 40
0.607010042
 41
1.509556589
 42
2.9930864532
  0
ELLIPSE
  5
6CD
100
AcDbEntity
  8
0
100
AcDbEllipse
 62
7
  6
CONTINUOUS
 10
76.9680972146
 20
124.7396863278
 30
0.0
 11
-0.8945233702
 21
1.7888836716
 31
0.0
 40
0.6123573717
 41
-3.0409388568
 42
-2.2555722372
  0
ELLIPSE
  5
6CE
100
AcDbEntity
  8
0
100
AcDbEllipse
 62
7
  6
CONTINUOUS
 10
76.9680972146
 20
156.3211837994
 30
0.0
 11
-0.8944736152
 21
1.7888394374
 31
0.0
 40
0.6123952257
 41
-2.2555268178
 42
-1.4701601983
  0
ELLIPSE
  5
6CF
100
AcDbEntity
  8
0
100
AcDbEllipse
 62
7
  6
CONTINUOUS
 10
76.5768114307
 20
158.83323921
 30
0.0
 11
-0.223592727
 21
0.4472262246
 31
0.0
 40
0.6123874982
 41
-1.470060655
 42
-0.6846940354
  0
ELLIPSE
  5
6D0
100
AcDbEntity
  8
RACCORDO
100
AcDbEllipse
 62
7
  6
CONTINUOUS
 10
69.6082696997
 20
152.6093465767
 30
0.0
 11
-0.8944736152
 21
1.7888394374
 31
0.0
 40
0.6123952257
 41
-2.2555268178
 42
-1.9834196684
  0
ELLIPSE
  5
6D1
100
AcDbEntity
  8
RACCORDO
100
AcDbEllipse
 62
7
  6
CONTINUOUS
 10
69.6082696997
 20
120.9621086604
 30
0.0
 11
-0.8945233702
 21
1.7888836716
 31
0.0
 40
0.6123573717
 41
-2.5276793866
 42
-2.2555722372
  0
ELLIPSE
  5
6D2
100
AcDbEntity
  8
0
100
AcDbEllipse
 62
7
  6
CONTINUOUS
 10
70.5858765935
 20
155.2476980249
 30
0.0
 11
-0.2235807756
 21
0.4472283268
 31
0.0
 40
0.6125552124
 41
-2.255296188
 42
-0.6848044477
  0
ELLIPSE
  5
6D3
100
AcDbEntity
  8
0
100
AcDbEllipse
 62
7
  6
CONTINUOUS
 10
70.5858765935
 20
117.3461503184
 30
0.0
 11
-0.2237009107
 21
0.4473351135
 31
0.0
 40
0.6121897086
 41
-3.1230684064
 42
-2.2557347926
  0
ELLIPSE
  5
6D4
100
AcDbEntity
  8
0
100
AcDbEllipse
 62
7
  6
CONTINUOUS
 10
81.5013811634
 20
162.1680416521
 30
0.0
 11
0.7040475903
 21
0.5731754601
 31
0.0
 40
0.6627826692
 41
-0.5568348416
 42
-0.4945023228
  0
ELLIPSE
  5
6D5
100
AcDbEntity
  8
0
100
AcDbEllipse
 62
7
  6
CONTINUOUS
 10
75.9015739033
 20
163.8179759558
 30
0.0
 11
0.9999763657
 21
-0.0140528498
 31
0.0
 40
0.4892375088
 41
-0.778522928
 42
0.0067447499
  0
ELLIPSE
  5
6D6
100
AcDbEntity
  8
0
100
AcDbEllipse
 62
7
  6
CONTINUOUS
 10
68.4769527008
 20
130.6009576507
 30
0.0
 11
0.1499964548
 21
-0.0021079275
 31
0.0
 40
0.4892375088
 41
-2.3493192548
 42
-0.778522928
  0
ELLIPSE
  5
6D7
100
AcDbEntity
  8
0
100
AcDbEllipse
 62
7
  6
CONTINUOUS
 10
68.4769527008
 20
139.2612116885
 30
0.0
 11
0.1499964548
 21
-0.0021079275
 31
0.0
 40
0.4892375088
 41
-2.3493192548
 42
-0.778522928
  0
ELLIPSE
  5
6D8
100
AcDbEntity
  8
0
100
AcDbEllipse
 62
7
  6
CONTINUOUS
 10
67.3872605032
 20
151.3677766665
 30
0.0
 11
0.2499539643
 21
-0.0102665627
 31
0.0
 40
0.4672909446
 41
3.9461818821
 42
5.4995249163
  0
ELLIPSE
  5
6D9
100
AcDbEntity
  8
0
100
AcDbEllipse
 62
7
  6
CONTINUOUS
 10
69.1599398883
 20
151.1762433026
 30
0.0
 11
0.1999631714
 21
-0.0082132501
 31
0.0
 40
0.4672909446
 41
-2.3370034251
 42
-0.7923870371
  0
ELLIPSE
  5
6DA
100
AcDbEntity
  8
0
100
AcDbEllipse
 62
7
  6
CONTINUOUS
 10
69.1599398883
 20
122.5974049777
 30
0.0
 11
0.1999631714
 21
-0.0082132501
 31
0.0
 40
0.4672909446
 41
-2.3370034251
 42
-0.7923870371
  0
ELLIPSE
  5
6DB
100
AcDbEntity
  8
0
100
AcDbEllipse
 62
7
  6
CONTINUOUS
 10
66.6991309078
 20
126.1025865893
 30
0.0
 11
0.1499964548
 21
-0.0021079275
 31
0.0
 40
0.4892375088
 41
-3.1346725645
 42
-2.3493192548
  0
ELLIPSE
  5
6DC
100
AcDbEntity
  8
0
100
AcDbEllipse
 62
7
  6
CONTINUOUS
 10
66.6991309078
 20
147.7532216839
 30
0.0
 11
0.1499964548
 21
-0.0021079275
 31
0.0
 40
0.4892375088
 41
-3.1346725645
 42
-2.3493192548
  0
ELLIPSE
  5
6DD
100
AcDbEntity
  8
0
100
AcDbEllipse
 62
7
  6
CONTINUOUS
 10
62.1030960519
 20
159.7837689073
 30
0.0
 11
0.1999952731
 21
-0.00281057
 31
0.0
 40
0.4892375088
 41
-0.7610696355
 42
0.0070800438
  0
ELLIPSE
  5
6DE
100
AcDbEntity
  8
0
100
AcDbEllipse
 62
7
  6
CONTINUOUS
 10
58.8603004767
 20
159.8733332694
 30
0.0
 11
0.199943508
 21
0.008945986
 31
0.0
 40
0.5313301283
 41
-0.8615266382
 42
-0.8091667606
  0
ELLIPSE
  5
6DF
100
AcDbEntity
  8
0
100
AcDbEllipse
 62
7
  6
CONTINUOUS
 10
64.4657324714
 20
157.070617272
 30
0.0
 11
0.199943508
 21
0.008945986
 31
0.0
 40
0.5313301283
 41
-0.8615266382
 42
-0.8266200532
  0
ELLIPSE
  5
6E0
100
AcDbEntity
  8
0
100
AcDbEllipse
 62
7
  6
CONTINUOUS
 10
56.1925831316
 20
161.207191942
 30
0.0
 11
0.199943508
 21
0.008945986
 31
0.0
 40
0.5313301283
 41
-0.8615266382
 42
-0.8266200532
  0
ELLIPSE
  5
6E1
100
AcDbEntity
  8
0
100
AcDbEllipse
 62
7
  6
CONTINUOUS
 10
72.3660399973
 20
165.5857429088
 30
0.0
 11
0.9999763657
 21
-0.0140528498
 31
0.0
 40
0.4892375088
 41
1.5676708954
 42
2.3630697256
  0
ELLIPSE
  5
6E2
100
AcDbEntity
  8
0
100
AcDbEllipse
 62
7
  6
CONTINUOUS
 10
66.6991309078
 20
123.8483355549
 30
0.0
 11
0.1499959118
 21
0.0021688664
 31
0.0
 40
0.5106100819
 41
8.6354874218
 42
10.2027930901
  0
ELLIPSE
  5
6E3
100
AcDbEntity
  8
0
100
AcDbEllipse
 62
7
  6
CONTINUOUS
 10
66.6991309078
 20
145.4989706495
 30
0.0
 11
0.1499959118
 21
0.0021688664
 31
0.0
 40
0.5106100819
 41
8.6354874218
 42
10.2027930901
  0
ELLIPSE
  5
6E4
100
AcDbEntity
  8
0
100
AcDbEllipse
 62
7
  6
CONTINUOUS
 10
56.2441130985
 20
158.782037188
 30
0.0
 11
-0.4474018214
 21
0.8946702271
 31
0.0
 40
0.6121897086
 41
-0.6846338794
 42
0.0188911052
  0
ELLIPSE
  5
6E5
100
AcDbEntity
  8
0
100
AcDbEllipse
 62
7
  6
CONTINUOUS
 10
75.1944671221
 20
166.5819274675
 30
0.0
 11
0.1996300686
 21
-0.0382240167
 31
0.0
 40
0.3180924274
 41
-0.7245668018
 42
0.0611565625
  0
ELLIPSE
  5
6E6
100
AcDbEntity
  8
0
100
AcDbEllipse
 62
7
  6
CONTINUOUS
 10
70.5275623662
 20
160.2710382878
 30
0.0
 11
0.4087060306
 21
-0.0057436202
 31
0.0
 40
0.4892375088
 41
-0.7610696355
 42
0.0067698966
  0
ELLIPSE
  5
6E7
100
AcDbEntity
  8
0
100
AcDbEllipse
 62
7
  6
CONTINUOUS
 10
64.9998036255
 20
163.0349176581
 30
0.0
 11
0.4087060306
 21
-0.0057436202
 31
0.0
 40
0.4892375088
 41
-0.778522928
 42
0.0069124482
  0
ELLIPSE
  5
6E8
100
AcDbEntity
  8
0
100
AcDbEllipse
 62
7
  6
CONTINUOUS
 10
68.3194859714
 20
148.1210124923
 30
0.0
 11
0.0919907694
 21
0.1776025845
 31
0.0
 40
0.6229838795
 41
-4.0187835583
 42
-3.1335798163
  0
ELLIPSE
  5
6E9
100
AcDbEntity
  8
0
100
AcDbEllipse
 62
7
  6
CONTINUOUS
 10
67.3124088609
 20
119.7244981543
 30
0.0
 11
0.249929385
 21
0.0111824824
 31
0.0
 40
0.5313301283
 41
-2.3799630874
 42
-0.8266200532
  0
ELLIPSE
  5
6EA
100
AcDbEntity
  8
0
100
AcDbEllipse
 62
7
  6
CONTINUOUS
 10
68.4769527008
 20
131.4110518947
 30
0.0
 11
0.1499959118
 21
0.0021688664
 31
0.0
 40
0.5106100819
 41
-2.3635775243
 42
-0.7927811975
  0
ELLIPSE
  5
6EB
100
AcDbEntity
  8
0
100
AcDbEllipse
 62
7
  6
CONTINUOUS
 10
68.4769527008
 20
140.0713059326
 30
0.0
 11
0.1499959118
 21
0.0021688664
 31
0.0
 40
0.5106100819
 41
-2.3635775243
 42
-0.7927811975
  0
ELLIPSE
  5
6EC
100
AcDbEntity
  8
0
100
AcDbEllipse
 62
7
  6
CONTINUOUS
 10
68.4962411242
 20
155.0553629457
 30
0.0
 11
0.199943508
 21
0.008945986
 31
0.0
 40
0.5313301283
 41
-0.8615266382
 42
-0.8266200532
  0
ELLIPSE
  5
6ED
100
AcDbEntity
  8
0
100
AcDbEllipse
 62
7
  6
CONTINUOUS
 10
81.6246546725
 20
166.5301155518
 30
0.0
 11
18.2927339069
 21
9.4748417608
 31
0.0
 40
0.0170707209
 41
-2.6536573066
 42
-2.2398334116
  0
ELLIPSE
  5
6EE
100
AcDbEntity
  8
0
100
AcDbEllipse
 62
7
  6
CONTINUOUS
 10
81.6246546725
 20
166.5301155518
 30
0.0
 11
18.2927339069
 21
9.4748417608
 31
0.0
 40
0.0170707209
 41
2.2221500882
 42
2.6359739833
  0
ELLIPSE
  5
6EF
100
AcDbEntity
  8
0
100
AcDbEllipse
 62
7
  6
CONTINUOUS
 10
63.0359548065
 20
158.5379993539
 30
0.0
 11
0.199943508
 21
0.008945986
 31
0.0
 40
0.5313301283
 41
3.1180383302
 42
3.9032222197
  0
ELLIPSE
  5
6F0
100
AcDbEntity
  8
0
100
AcDbEllipse
 62
7
  6
CONTINUOUS
 10
61.3314498899
 20
159.3902518122
 30
0.0
 11
0.199943508
 21
0.008945986
 31
0.0
 40
0.5313301283
 41
-2.3799630874
 42
-0.8266200532
  0
ELLIPSE
  5
6F1
100
AcDbEntity
  8
0
100
AcDbEllipse
 62
7
  6
CONTINUOUS
 10
69.1599398883
 20
148.1696888773
 30
0.0
 11
0.199943508
 21
0.008945986
 31
0.0
 40
0.5313301283
 41
-2.3799630874
 42
-0.8353466994
  0
ELLIPSE
  5
6F2
100
AcDbEntity
  8
0
100
AcDbEllipse
 62
7
  6
CONTINUOUS
 10
67.3872605032
 20
119.6870723331
 30
0.0
 11
0.249929385
 21
0.0111824824
 31
0.0
 40
0.5313301283
 41
-2.3799630874
 42
-0.8266200532
  0
ELLIPSE
  5
6F3
100
AcDbEntity
  8
0
100
AcDbEllipse
 62
7
  6
CONTINUOUS
 10
69.1599398883
 20
119.5908505524
 30
0.0
 11
0.199943508
 21
0.008945986
 31
0.0
 40
0.5313301283
 41
-2.3799630874
 42
-0.8353466994
  0
ELLIPSE
  5
6F4
100
AcDbEntity
  8
0
100
AcDbEllipse
 62
7
  6
CONTINUOUS
 10
54.0011391619
 20
159.2442248819
 30
0.0
 11
0.1132659266
 21
0.1659910225
 31
0.0
 40
0.6918255544
 41
0.7785114436
 42
0.9181377837
  0
ELLIPSE
  5
6F5
100
AcDbEntity
  8
0
100
AcDbEllipse
 62
7
  6
CONTINUOUS
 10
68.065085083
 20
154.098820175
 30
0.0
 11
0.4999863728
 21
0.0072295547
 31
0.0
 40
0.5106100819
 41
3.1341403728
 42
3.9196077829
  0
ELLIPSE
  5
6F6
100
AcDbEntity
  8
0
100
AcDbEllipse
 62
7
  6
CONTINUOUS
 10
57.4336904634
 20
159.4145174847
 30
0.0
 11
0.4999863728
 21
0.0072295547
 31
0.0
 40
0.5106100819
 41
-2.3635775243
 42
-0.8261435483
  0
ELLIPSE
  5
6F7
100
AcDbEntity
  8
0
100
AcDbEllipse
 62
7
  6
CONTINUOUS
 10
68.065085083
 20
119.0247913217
 30
0.0
 11
0.4999863728
 21
0.0072295547
 31
0.0
 40
0.5106100819
 41
3.1341403728
 42
3.9196077829
  0
ELLIPSE
  5
6F8
100
AcDbEntity
  8
0
100
AcDbEllipse
 62
7
  6
CONTINUOUS
 10
69.0948631571
 20
140.1595735254
 30
0.0
 11
0.1999945491
 21
0.0028918219
 31
0.0
 40
0.5106100819
 41
3.1349463158
 42
3.9196077829
  0
ELLIPSE
  5
6F9
100
AcDbEntity
  8
0
100
AcDbEllipse
 62
7
  6
CONTINUOUS
 10
69.0948631571
 20
131.4993194876
 30
0.0
 11
0.1999945491
 21
0.0028918219
 31
0.0
 40
0.5106100819
 41
3.1349463158
 42
3.9196077829
  0
ELLIPSE
  5
6FA
100
AcDbEntity
  8
0
100
AcDbEllipse
 62
7
  6
CONTINUOUS
 10
68.3194859714
 20
123.4865352797
 30
0.0
 11
0.0919907694
 21
0.1776025845
 31
0.0
 40
0.6229838795
 41
0.7110587146
 42
2.2644017489
  0
ELLIPSE
  5
6FB
100
AcDbEntity
  8
0
100
AcDbEllipse
 62
7
  6
CONTINUOUS
 10
58.1170638252
 20
157.7728288443
 30
0.0
 11
0.1999945491
 21
0.0028918219
 31
0.0
 40
0.5106100819
 41
3.1344144279
 42
3.9196077829
  0
ELLIPSE
  5
6FC
100
AcDbEntity
  8
0
100
AcDbEllipse
 62
7
  6
CONTINUOUS
 10
58.4721662783
 20
157.5952776178
 30
0.0
 11
0.1999945491
 21
0.0028918219
 31
0.0
 40
0.5106100819
 41
-2.3635775243
 42
-0.81023449
  0
ELLIPSE
  5
6FD
100
AcDbEntity
  8
0
100
AcDbEllipse
 62
7
  6
CONTINUOUS
 10
64.4810248559
 20
154.590848329
 30
0.0
 11
0.1999945491
 21
0.0028918219
 31
0.0
 40
0.5106100819
 41
3.1344144279
 42
3.9196077829
  0
ELLIPSE
  5
6FE
100
AcDbEntity
  8
0
100
AcDbEllipse
 62
7
  6
CONTINUOUS
 10
64.8361273089
 20
154.4132971025
 30
0.0
 11
0.1999945491
 21
0.0028918219
 31
0.0
 40
0.5106100819
 41
-2.3635775243
 42
-0.81023449
  0
ELLIPSE
  5
6FF
100
AcDbEntity
  8
0
100
AcDbEllipse
 62
7
  6
CONTINUOUS
 10
67.4683816028
 20
152.0865679696
 30
0.0
 11
-0.4471615512
 21
0.8944566536
 31
0.0
 40
0.6125552124
 41
-2.255296188
 42
-1.923229731
  0
ELLIPSE
  5
700
100
AcDbEntity
  8
0
100
AcDbEllipse
 62
7
  6
CONTINUOUS
 10
89.1624477784
 20
163.0172454788
 30
0.0
 11
41.2284585065
 21
19.8998050351
 31
0.0
 40
0.0136720444
 41
-2.1103317029
 42
-2.0913000683
  0
ELLIPSE
  5
701
100
AcDbEntity
  8
0
100
AcDbEllipse
 62
7
  6
CONTINUOUS
 10
68.5475556667
 20
152.6303159039
 30
0.0
 11
-0.4471615512
 21
0.8944566536
 31
0.0
 40
0.6125552124
 41
-1.1981783835
 42
-0.6848044477
  0
ELLIPSE
  5
702
100
AcDbEntity
  8
0
100
AcDbEllipse
 62
7
  6
CONTINUOUS
 10
67.4683816028
 20
120.0892414585
 30
0.0
 11
-0.4474018214
 21
0.8946702271
 31
0.0
 40
0.6121897086
 41
-2.5878012497
 42
-2.2557347926
  0
ENDSEC
  0
SECTION
  2
OBJECTS
  0
DICTIONARY
  5
C
100
AcDbDictionary
280
0
281
1
  3
ACAD_GROUP
350
D
  3
ACAD_MLINESTYLE
350
17
  3
ACAD_LAYOUT
350
1A
  3
ACAD_PLOTSETTINGS
350
19
  3
ACAD_PLOTSTYLENAME
350
E
  0
DICTIONARY
  5
D
102
{ACAD_REACTORS
330
C
102
}
100
AcDbDictionary
280
0
281
1
  0
ACDBDICTIONARYWDFLT
  5
E
102
{ACAD_REACTORS
330
C
102
}
100
AcDbDictionary
281
1
  3
Normal
350
F
100
AcDbDictionaryWithDefault
340
F
  0
DICTIONARY
  5
17
102
{ACAD_REACTORS
330
C
102
}
100
AcDbDictionary
280
0
281
1
  3
Standard
350
18
  0
DICTIONARY
  5
19
102
{ACAD_REACTORS
330
C
102
}
100
AcDbDictionary
281
1
  0
DICTIONARY
  5
1A
102
{ACAD_REACTORS
330
C
102
}
100
AcDbDictionary
281
1
  3
Model
350
703
  3
Layout1
350
704
  0
ACDBPLACEHOLDER
  5
F
102
{ACAD_REACTORS
330
E
102
}
  0
MLINESTYLE
  5
18
102
{ACAD_REACTORS
330
17
102
}
100
AcDbMlineStyle
  2
STANDARD
 70
0
  3

 62
256
 51
90.0
 52
90.0
 71
2
 49
0.5
 62
256
  6
BYLAYER
 49
-0.5
 62
256
  6
BYLAYER
  0
LAYOUT
  5
703
102
{ACAD_REACTORS
330
1A
102
}
100
AcDbPlotSettings
  1

  2
none_device
  4
ISO_A4_(297.00_x_210.00_MM)
  6

 40
0.0
 41
0.0
 42
0.0
 43
0.0
 44
297.0
 45
210.0
 46
0.0
 47
0.0
 48
0.0
 49
0.0
140
0.0
141
0.0
142
1.0
143
1.0
 70
1024
 72
1
 73
0
 74
0
  7

 75
0
147
1.0
148
0.0
149
0.0
100
AcDbLayout
  1
Model
 70
0
 71
0
 10
0.0
 20
0.0
 11
297.0
 21
210.0
 12
0.0
 22
0.0
 32
0.0
 14
0.0
 24
0.0
 34
0.0
 15
0.0
 25
0.0
 35
0.0
146
0.0
 13
0.0
 23
0.0
 33
0.0
 16
1.0
 26
0.0
 36
0.0
 17
0.0
 27
1.0
 37
0.0
 76
0
330
220
345
0
346
0
  0
LAYOUT
  5
704
102
{ACAD_REACTORS
330
1A
102
}
100
AcDbPlotSettings
  1

  2
none_device
  4
ISO_A4_(297.00_x_210.00_MM)
  6

 40
0.0
 41
0.0
 42
0.0
 43
0.0
 44
297.0
 45
210.0
 46
0.0
 47
0.0
 48
0.0
 49
0.0
140
0.0
141
0.0
142
1.0
143
1.0
 70
0
 72
1
 73
0
 74
0
  7

 75
0
147
1.0
148
0.0
149
0.0
100
AcDbLayout
  1
Layout1
 70
0
 71
1
 10
0.0
 20
0.0
 11
297.0
 21
210.0
 12
0.0
 22
0.0
 32
0.0
 14
0.0
 24
0.0
 34
0.0
 15
0.0
 25
0.0
 35
0.0
146
0.0
 13
0.0
 23
0.0
 33
0.0
 16
1.0
 26
0.0
 36
0.0
 17
0.0
 27
1.0
 37
0.0
 76
0
330
221
345
0
346
0
  0
ENDSEC
  0
EOF
