  0
SECTION
  2
HEADER
  9
$ACADVER
  1
AC1015
  9
$DWGCODEPAGE
  3
ANSI_1252
  9
$EXTMAX
 10
297.0
 20
210.0
 30
0.0
  9
$EXTMIN
 10
0.0
 20
0.0
 30
0.0
  9
$LIMMIN
 10
0.0
 20
0.0
  9
$LIMMAX
 10
297.0
 20
210.0
  9
$VIEWCTR
 10
148.5
 20
105.0
  9
$VIEWSIZE
 40
210.0
  9
$CLAYER
  8
0
  9
$LTSCALE
 40
16.335
  9
$CELTYPE
  6
BYLAYER
  9
$DIMSCALE
 40
1.0
  9
$DIMASZ
 40
3.0
  9
$DIMEXO
 40
0.5
  9
$DIMDLI
 40
11.286
  9
$DIMEXE
 40
1.5
  9
$DIMCEN
 40
2.673
  9
$DIMLFAC
 40
1.0
  9
$DIMBLK
  1
_FILLED
  9
$DIMTXT
 40
3.0
  9
$DIMTOL
 70
1
  9
$DIMLIM
 70
0
  9
$DIMTFAC
 40
1.0
  9
$DIMTP
 40
0.01
  9
$DIMTM
 40
0.01
  9
$DIMGAP
 40
0.625
  9
$DIMDSEP
 70
44
  9
$PDMODE
 70
3
  9
$PDSIZE
 40
3.0
  9
$HANDSEED
  5
587
  9
$TILEMODE
 70
1
  9
$MEASUREMENT
 70
1
  9
$INSUNITS
 70
4
  0
ENDSEC
  0
SECTION
  2
CLASSES
  0
CLASS
  1
ACDBDICTIONARYWDFLT
  2
AcDbDictionaryWithDefault
  3
AutoCAD 2000
 90
0
280
0
281
0
  0
CLASS
  1
ACDBPLACEHOLDER
  2
AcDbPlaceHolder
  3
AutoCAD 2000
 90
0
280
0
281
0
  0
CLASS
  1
LAYOUT
  2
AcDbLayout
  3
AutoCAD 2000
 90
0
280
0
281
0
  0
ENDSEC
  0
SECTION
  2
TABLES
  0
TABLE
  2
VPORT
  5
8
100
AcDbSymbolTable
 70
2
  0
VPORT
  5
1F4
100
AcDbSymbolTableRecord
100
AcDbViewportTableRecord
  2
*ACTIVE
 70
0
 10
0.0
 20
0.0
 11
1.0
 21
1.0
 12
148.5
 22
105.0
 13
0.0
 23
0.0
 14
1.0
 24
1.0
 15
0.0
 25
0.0
 16
0.0
 26
0.0
 36
1.0
 17
0.0
 27
0.0
 37
0.0
 40
210.0
 41
1.4142857143
 42
50.0
 43
0.0
 44
0.0
 50
0.0
 51
0.0
 71
0
 72
100
 73
1
 74
1
 75
0
 76
0
 77
0
 78
0
  0
ENDTAB
  0
TABLE
  2
LTYPE
  5
5
100
AcDbSymbolTable
 70
6
  0
LTYPE
  5
14
100
AcDbSymbolTableRecord
100
AcDbLinetypeTableRecord
  2
BYBLOCK
 70
0
  3

 72
65
 73
0
 40
0.0
  0
LTYPE
  5
15
100
AcDbSymbolTableRecord
100
AcDbLinetypeTableRecord
  2
BYLAYER
 70
0
  3

 72
65
 73
0
 40
0.0
  0
LTYPE
  5
16
100
AcDbSymbolTableRecord
100
AcDbLinetypeTableRecord
  2
CONTINUOUS
 70
64
  3
Solid line
 72
65
 73
0
 40
0.0
  0
LTYPE
  5
1F5
100
AcDbSymbolTableRecord
100
AcDbLinetypeTableRecord
  2
CENTER
 70
64
  3
____ _ ____ _ ____ _ ____ _ ____ _ ____ _ ____
 72
65
 73
4
 40
0.6
 49
0.375
 74
0
 49
-0.075
 74
0
 49
0.075
 74
0
 49
-0.075
 74
0
  0
LTYPE
  5
1F6
100
AcDbSymbolTableRecord
100
AcDbLinetypeTableRecord
  2
HIDDEN
 70
64
  3
- - - - - - - - - - - - - - - - - - - -
 72
65
 73
2
 40
0.2
 49
0.1
 74
0
 49
-0.1
 74
0
  0
LTYPE
  5
1F7
100
AcDbSymbolTableRecord
100
AcDbLinetypeTableRecord
  2
PHANTOM
 70
64
  3
_____ _ _ _____ _ _ _____ _ _ _____
 72
65
 73
6
 40
0.8
 49
0.45
 74
0
 49
-0.05
 74
0
 49
0.1
 74
0
 49
-0.05
 74
0
 49
0.1
 74
0
 49
-0.05
 74
0
  0
LTYPE
  5
1F8
100
AcDbSymbolTableRecord
100
AcDbLinetypeTableRecord
  2
DOT
 70
64
  3
. . . . . . . . . . . . . . . . . . . .
 72
65
 73
2
 40
0.2
 49
0.1
 74
0
 49
-0.1
 74
0
  0
LTYPE
  5
1F9
100
AcDbSymbolTableRecord
100
AcDbLinetypeTableRecord
  2
DASHED
 70
64
  3
- - - - - - - - - - - - - - - - - - - -
 72
65
 73
2
 40
0.2
 49
0.1
 74
0
 49
-0.1
 74
0
  0
ENDTAB
  0
TABLE
  2
LAYER
  5
2
100
AcDbSymbolTable
 70
36
  0
LAYER
  5
10
100
AcDbSymbolTableRecord
100
AcDbLayerTableRecord
  2
0
 70
0
 62
7
  6
CONTINUOUS
370
-3
390
F
  0
LAYER
  5
1FA
100
AcDbSymbolTableRecord
100
AcDbLayerTableRecord
  2
DEFAULT_1
 70
0
 62
7
  6
CENTER
370
-3
390
F
  0
LAYER
  5
1FB
100
AcDbSymbolTableRecord
100
AcDbLayerTableRecord
  2
DEFAULT_2
 70
0
 62
7
  6
HIDDEN
370
-3
390
F
  0
LAYER
  5
1FC
100
AcDbSymbolTableRecord
100
AcDbLayerTableRecord
  2
DEFAULT_3
 70
0
 62
7
  6
PHANTOM
370
-3
390
F
  0
LAYER
  5
1FD
100
AcDbSymbolTableRecord
100
AcDbLayerTableRecord
  2
ASSI
 70
0
 62
7
  6
CONTINUOUS
370
-3
390
F
  0
LAYER
  5
1FE
100
AcDbSymbolTableRecord
100
AcDbLayerTableRecord
  2
CONTATTI
 70
0
 62
7
  6
CONTINUOUS
370
-3
390
F
  0
LAYER
  5
1FF
100
AcDbSymbolTableRecord
100
AcDbLayerTableRecord
  2
COORDINATE
 70
0
 62
7
  6
CONTINUOUS
370
-3
390
F
  0
LAYER
  5
200
100
AcDbSymbolTableRecord
100
AcDbLayerTableRecord
  2
COORD_ORIGINE
 70
0
 62
7
  6
CONTINUOUS
370
-3
390
F
  0
LAYER
  5
201
100
AcDbSymbolTableRecord
100
AcDbLayerTableRecord
  2
COPY-PUBBLISH
 70
0
 62
7
  6
CONTINUOUS
370
-3
390
F
  0
LAYER
  5
202
100
AcDbSymbolTableRecord
100
AcDbLayerTableRecord
  2
COPY_PUBLISH
 70
0
 62
7
  6
CONTINUOUS
370
-3
390
F
  0
LAYER
  5
203
100
AcDbSymbolTableRecord
100
AcDbLayerTableRecord
  2
COSMETICHE
 70
0
 62
7
  6
CONTINUOUS
370
-3
390
F
  0
LAYER
  5
204
100
AcDbSymbolTableRecord
100
AcDbLayerTableRecord
  2
COSMETICI
 70
0
 62
7
  6
CONTINUOUS
370
-3
390
F
  0
LAYER
  5
205
100
AcDbSymbolTableRecord
100
AcDbLayerTableRecord
  2
CURVE
 70
0
 62
7
  6
CONTINUOUS
370
-3
390
F
  0
LAYER
  5
206
100
AcDbSymbolTableRecord
100
AcDbLayerTableRecord
  2
DRAFT
 70
0
 62
7
  6
CONTINUOUS
370
-3
390
F
  0
LAYER
  5
207
100
AcDbSymbolTableRecord
100
AcDbLayerTableRecord
  2
IMPORT
 70
0
 62
7
  6
CONTINUOUS
370
-3
390
F
  0
LAYER
  5
208
100
AcDbSymbolTableRecord
100
AcDbLayerTableRecord
  2
IMPORT_IGES
 70
0
 62
7
  6
CONTINUOUS
370
-3
390
F
  0
LAYER
  5
209
100
AcDbSymbolTableRecord
100
AcDbLayerTableRecord
  2
NOTE
 70
0
 62
7
  6
CONTINUOUS
370
-3
390
F
  0
LAYER
  5
20A
100
AcDbSymbolTableRecord
100
AcDbLayerTableRecord
  2
PIANI
 70
0
 62
7
  6
CONTINUOUS
370
-3
390
F
  0
LAYER
  5
20B
100
AcDbSymbolTableRecord
100
AcDbLayerTableRecord
  2
PIANI-RIFERIMENTO
 70
0
 62
7
  6
CONTINUOUS
370
-3
390
F
  0
LAYER
  5
20C
100
AcDbSymbolTableRecord
100
AcDbLayerTableRecord
  2
PIANISFORMI
 70
0
 62
7
  6
CONTINUOUS
370
-3
390
F
  0
LAYER
  5
20D
100
AcDbSymbolTableRecord
100
AcDbLayerTableRecord
  2
PIANI_ORIGINE
 70
0
 62
7
  6
CONTINUOUS
370
-3
390
F
  0
LAYER
  5
20E
100
AcDbSymbolTableRecord
100
AcDbLayerTableRecord
  2
PIANI_RIFERIMENTO
 70
0
 62
7
  6
CONTINUOUS
370
-3
390
F
  0
LAYER
  5
20F
100
AcDbSymbolTableRecord
100
AcDbLayerTableRecord
  2
PUNTI
 70
0
 62
7
  6
CONTINUOUS
370
-3
390
F
  0
LAYER
  5
210
100
AcDbSymbolTableRecord
100
AcDbLayerTableRecord
  2
RACCORDO
 70
0
 62
7
  6
CONTINUOUS
370
-3
390
F
  0
LAYER
  5
211
100
AcDbSymbolTableRecord
100
AcDbLayerTableRecord
  2
SIMBOLI
 70
0
 62
7
  6
CONTINUOUS
370
-3
390
F
  0
LAYER
  5
212
100
AcDbSymbolTableRecord
100
AcDbLayerTableRecord
  2
SMUSSO
 70
0
 62
7
  6
CONTINUOUS
370
-3
390
F
  0
LAYER
  5
213
100
AcDbSymbolTableRecord
100
AcDbLayerTableRecord
  2
SNAPLINE
 70
0
 62
7
  6
CONTINUOUS
370
-3
390
F
  0
LAYER
  5
214
100
AcDbSymbolTableRecord
100
AcDbLayerTableRecord
  2
SUPERFICI
 70
0
 62
7
  6
CONTINUOUS
370
-3
390
F
  0
LAYER
  5
215
100
AcDbSymbolTableRecord
100
AcDbLayerTableRecord
  2
SUP_ROSSA
 70
0
 62
7
  6
CONTINUOUS
370
-3
390
F
  0
LAYER
  5
216
100
AcDbSymbolTableRecord
100
AcDbLayerTableRecord
  2
TRACCIABILITA
 70
0
 62
7
  6
CONTINUOUS
370
-3
390
F
  0
LAYER
  5
217
100
AcDbSymbolTableRecord
100
AcDbLayerTableRecord
  2
TRASCH
 70
0
 62
7
  6
CONTINUOUS
370
-3
390
F
  0
LAYER
  5
218
100
AcDbSymbolTableRecord
100
AcDbLayerTableRecord
  2
TRASH
 70
0
 62
7
  6
CONTINUOUS
370
-3
390
F
  0
LAYER
  5
219
100
AcDbSymbolTableRecord
100
AcDbLayerTableRecord
  2
XSEC_DATUMS
 70
0
 62
7
  6
CONTINUOUS
370
-3
390
F
  0
ENDTAB
  0
TABLE
  2
STYLE
  5
3
100
AcDbSymbolTable
 70
1
  0
STYLE
  5
11
100
AcDbSymbolTableRecord
100
AcDbTextStyleTableRecord
  2
STANDARD
 70
0
 40
0.0
 41
0.8
 50
0.0
 71
0
 42
0.2
  3
txt
  4

  0
STYLE
  5
21A
100
AcDbSymbolTableRecord
100
AcDbTextStyleTableRecord
  2
TEXTSTYLE_1
 70
0
 40
0.0
 41
0.8
 50
0.0
 71
0
 42
0.2
  3
gdt
  4

  0
ENDTAB
  0
TABLE
  2
VIEW
  5
6
100
AcDbSymbolTable
 70
0
  0
ENDTAB
  0
TABLE
  2
UCS
  5
7
100
AcDbSymbolTable
 70
0
  0
ENDTAB
  0
TABLE
  2
APPID
  5
9
100
AcDbSymbolTable
 70
1
  0
APPID
  5
21B
100
AcDbSymbolTableRecord
100
AcDbRegAppTableRecord
  2
ACAD
 70
0
  0
ENDTAB
  0
TABLE
  2
BLOCK_RECORD
  5
1
100
AcDbSymbolTable
 70
0
  0
BLOCK_RECORD
  5
21C
100
AcDbSymbolTableRecord
100
AcDbBlockTableRecord
  2
*Model_Space
  0
BLOCK_RECORD
  5
21D
100
AcDbSymbolTableRecord
100
AcDbBlockTableRecord
  2
*Paper_Space
  0
ENDTAB
  0
TABLE
  2
DIMSTYLE
  5
A
100
AcDbSymbolTable
 70
1
100
AcDbDimStyleTable
 71
0
  0
DIMSTYLE
105
21E
100
AcDbSymbolTableRecord
100
AcDbDimStyleTableRecord
  2
STANDARD
 70
0
  3

  4

 40
1.0
 41
3.0
 42
0.5
 43
0.38
 44
1.5
 45
0.0
 46
0.0
 47
0.01
 48
0.01
140
3.0
141
0.09
142
0.0
143
25.4
144
1.0
145
0.0
146
1.0
147
0.625
 71
1.0
 72
0.0
 73
0
 74
0
 75
0
 76
0
 77
1
 78
8
170
0
171
2
172
0
173
0
174
0
175
0
176
0
177
0
178
0
270
2
271
2
272
2
273
2
274
2
275
0
280
0
281
0
282
0
283
1
284
8
285
0
286
0
287
3
288
0
340
11
278
44
  0
ENDTAB
  0
ENDSEC
  0
SECTION
  2
BLOCKS
  0
BLOCK
  5
20
100
AcDbEntity
  8
0
100
AcDbBlockBegin
  2
*Model_Space
 70
0
 10
0.0
 20
0.0
 30
0.0
  3
*Model_Space
  1

  0
ENDBLK
  5
21
100
AcDbEntity
  8
0
100
AcDbBlockEnd
  0
BLOCK
  5
1C
100
AcDbEntity
  8
0
100
AcDbBlockBegin
  2
*Paper_Space
 70
0
 10
0.0
 20
0.0
 30
0.0
  3
*Paper_Space
  1

  0
ENDBLK
  5
1D
100
AcDbEntity
  8
0
100
AcDbBlockEnd
  0
ENDSEC
  0
SECTION
  2
ENTITIES
  0
LWPOLYLINE
  5
21F
100
AcDbEntity
  8
0
100
AcDbPolyline
 62
7
  6
CONTINUOUS
 90
14
 70
0
 10
123.7983717901
 20
125.609605749
 10
123.7567548049
 20
125.5653280667
 10
123.7106121577
 20
125.5088551114
 10
123.6668309359
 20
125.4469213742
 10
123.6257990173
 20
125.3800612878
 10
123.5888933497
 20
125.3110123609
 10
123.5562632716
 20
125.2411116847
 10
123.5271687252
 20
125.1696550983
 10
123.5015932538
 20
125.0971556989
 10
123.4796284212
 20
125.024452898
 10
123.4610611288
 20
124.951293077
 10
123.4456866916
 20
124.8766672441
 10
123.4336856079
 20
124.800298465
 10
123.4253491367
 20
124.7212304702
  0
LWPOLYLINE
  5
220
100
AcDbEntity
  8
0
100
AcDbPolyline
 62
7
  6
CONTINUOUS
 90
8
 70
0
 10
126.6508478563
 20
129.4187802562
 10
126.6295111468
 20
129.3973909612
 10
126.6106297792
 20
129.3731787941
 10
126.5946848669
 20
129.3464991715
 10
126.5820804195
 20
129.3177900693
 10
126.573153471
 20
129.2876628486
 10
126.5680864647
 20
129.2567584137
 10
126.5668427396
 20
129.2314764217
  0
LINE
  5
221
100
AcDbEntity
  8
0
100
AcDbLine
 62
7
  6
CONTINUOUS
 10
123.7980813733
 20
125.6093172614
 11
126.8299100792
 21
128.6278869139
  0
LINE
  5
222
100
AcDbEntity
  8
0
100
AcDbLine
 62
253
  6
CONTINUOUS
 10
124.1377943101
 20
125.6760972263
 11
127.0412679547
 21
128.5668731507
  0
LWPOLYLINE
  5
223
100
AcDbEntity
  8
0
100
AcDbPolyline
 62
253
  6
CONTINUOUS
 90
24
 70
0
 10
123.7983716837
 20
125.6096058586
 10
123.8039884779
 20
125.6150201631
 10
123.8149991093
 20
125.6247728276
 10
123.8265539153
 20
125.6339264412
 10
123.8386341797
 20
125.6424661782
 10
123.8512203206
 20
125.6503781927
 10
123.8642919442
 20
125.6576496635
 10
123.8778278778
 20
125.664268815
 10
123.8918061929
 20
125.6702249246
 10
123.9062042449
 20
125.6755083446
 10
123.9209987079
 20
125.6801105159
 10
123.9361656125
 20
125.6840239818
 10
123.9516803895
 20
125.6872424049
 10
123.9675179029
 20
125.6897605711
 10
123.9836524899
 20
125.6915743961
 10
124.0000580122
 20
125.6926809431
 10
124.0167078922
 20
125.6930784206
 10
124.0335751502
 20
125.6927661799
 10
124.050632461
 20
125.6917447284
 10
124.0678521912
 20
125.6900157226
 10
124.0852064377
 20
125.6875819586
 10
124.1026670841
 20
125.6844473789
 10
124.1202058459
 20
125.6806170657
 10
124.1377943101
 20
125.6760972263
  0
LINE
  5
224
100
AcDbEntity
  8
0
100
AcDbLine
 62
7
  6
CONTINUOUS
 10
126.6508478563
 20
129.4187802562
 11
127.7655255618
 21
130.4085681994
  0
LINE
  5
225
100
AcDbEntity
  8
0
100
AcDbLine
 62
253
  6
CONTINUOUS
 10
126.8161144562
 20
129.447714521
 11
127.9304979707
 21
130.4372412348
  0
LWPOLYLINE
  5
226
100
AcDbEntity
  8
0
100
AcDbPolyline
 62
253
  6
CONTINUOUS
 90
20
 70
0
 10
126.6508478563
 20
129.4187802562
 10
126.6521966748
 20
129.4199626364
 10
126.659125783
 20
129.4255844836
 10
126.666412153
 20
129.4307674597
 10
126.6740392796
 20
129.4354998243
 10
126.6819898856
 20
129.4397708575
 10
126.6902459611
 20
129.4435708843
 10
126.6987888043
 20
129.4468912969
 10
126.7075990636
 20
129.4497245739
 10
126.716656782
 20
129.4520642971
 10
126.7259414415
 20
129.4539051666
 10
126.7354320105
 20
129.4552430125
 10
126.7451069906
 20
129.4560748042
 10
126.7549444658
 20
129.4563986574
 10
126.764922152
 20
129.4562138387
 10
126.7750174476
 20
129.4555207667
 10
126.7852074844
 20
129.4543210112
 10
126.7954691798
 20
129.4526172901
 10
126.8057792886
 20
129.4504134627
 10
126.8161144562
 20
129.447714521
  0
LINE
  5
227
100
AcDbEntity
  8
0
100
AcDbLine
 62
7
  6
CONTINUOUS
 10
127.7655262036
 20
130.4085687693
 11
127.7681638386
 21
130.41085299
  0
LINE
  5
228
100
AcDbEntity
  8
0
100
AcDbLine
 62
7
  6
CONTINUOUS
 10
127.7681644643
 20
130.4108535184
 11
128.1479793941
 21
130.73161846
  0
LINE
  5
229
100
AcDbEntity
  8
0
100
AcDbLine
 62
253
  6
CONTINUOUS
 10
127.9304979707
 20
130.4372412348
 11
128.3100113064
 21
130.7577514713
  0
LWPOLYLINE
  5
22A
100
AcDbEntity
  8
0
100
AcDbPolyline
 62
7
  6
CONTINUOUS
 90
19
 70
0
 10
127.7681638386
 20
130.41085299
 10
127.7738071634
 20
130.4153756928
 10
127.7810935845
 20
130.4205587053
 10
127.7887184505
 20
130.4252890441
 10
127.7966645101
 20
130.4295560118
 10
127.8049137578
 20
130.4333499388
 10
127.8134474709
 20
130.4366622028
 10
127.8222463543
 20
130.4394853328
 10
127.8312904868
 20
130.4418129441
 10
127.8405593138
 20
130.4436397115
 10
127.8500318898
 20
130.4449615421
 10
127.8596867834
 20
130.4457754661
 10
127.8695020277
 20
130.4460795633
 10
127.8794554532
 20
130.4458732023
 10
127.889524555
 20
130.4451568883
 10
127.8996864017
 20
130.4439321446
 10
127.909917978
 20
130.442201752
 10
127.9201962374
 20
130.439969742
 10
127.9304979707
 20
130.4372412348
  0
LWPOLYLINE
  5
22B
100
AcDbEntity
  8
0
100
AcDbPolyline
 62
253
  6
CONTINUOUS
 90
3
 70
0
 10
128.1479793976
 20
130.7316184629
 10
128.1536402911
 20
130.7361546629
 10
128.160667032
 20
130.7411514258
  0
LWPOLYLINE
  5
22C
100
AcDbEntity
  8
0
100
AcDbPolyline
 62
253
  6
CONTINUOUS
 90
17
 70
0
 10
128.1609283972
 20
130.7413372843
 10
128.1685526212
 20
130.7460650993
 10
128.1764956619
 20
130.7503273893
 10
128.1847395397
 20
130.7541145159
 10
128.193265629
 20
130.7574179236
 10
128.2020546971
 20
130.7602301474
 10
128.2110867536
 20
130.762544778
 10
128.2203411352
 20
130.7643565333
 10
128.2297967345
 20
130.7656613223
 10
128.2394322404
 20
130.7664562447
 10
128.249225998
 20
130.7667395285
 10
128.2591573108
 20
130.7665104593
 10
128.2692022218
 20
130.7657694757
 10
128.2793336016
 20
130.7645189026
 10
128.2895269448
 20
130.7627625136
 10
128.299760569
 20
130.760504788
 10
128.3100113064
 20
130.7577514713
  0
LWPOLYLINE
  5
22D
100
AcDbEntity
  8
0
100
AcDbPolyline
 62
7
  6
CONTINUOUS
 90
3
 70
0
 10
128.1974123854
 20
130.7641916283
 10
128.1706664481
 20
130.748669806
 10
128.1479081632
 20
130.731558263
  0
LWPOLYLINE
  5
22E
100
AcDbEntity
  8
0
100
AcDbPolyline
 62
7
  6
CONTINUOUS
 90
8
 70
0
 10
136.4972074691
 20
131.8764747752
 10
136.5068056712
 20
131.8792515159
 10
136.5168426111
 20
131.8814560777
 10
136.5273062569
 20
131.8830806657
 10
136.5381947554
 20
131.8841155975
 10
136.5495357445
 20
131.8845403541
 10
136.5613129068
 20
131.8843497771
 10
136.5735303356
 20
131.8835281467
  0
LWPOLYLINE
  5
22F
100
AcDbEntity
  8
0
100
AcDbPolyline
 62
7
  6
CONTINUOUS
 90
3
 70
0
 10
128.2560579936
 20
130.7848872204
 10
128.2259395908
 20
130.776317307
 10
128.1974123854
 20
130.7641916283
  0
LWPOLYLINE
  5
230
100
AcDbEntity
  8
RACCORDO
100
AcDbPolyline
 62
253
  6
CONTINUOUS
 90
16
 70
0
 10
126.9260230537
 20
128.1350218897
 10
126.9046776296
 20
128.1112901572
 10
126.8881134366
 20
128.0872129032
 10
126.8763304748
 20
128.0627901278
 10
126.8693353858
 20
128.037768201
 10
126.867121528
 20
128.0124007528
 10
126.8696689766
 20
127.9874486728
 10
126.8770776922
 20
127.9629373758
 10
126.8892477144
 20
127.938841447
 10
126.9058592368
 20
127.9158455322
 10
126.9270324495
 20
127.8939498103
 10
126.9526471626
 20
127.8731541024
 10
126.9820229998
 20
127.8541425171
 10
127.014933169
 20
127.8371430907
 10
127.0516044624
 20
127.8219277871
 10
127.0920368798
 20
127.8084966061
  0
LWPOLYLINE
  5
231
100
AcDbEntity
  8
RACCORDO
100
AcDbPolyline
 62
253
  6
CONTINUOUS
 90
10
 70
0
 10
127.0920368798
 20
127.8084966061
 10
127.1087311466
 20
127.8269323104
 10
127.1248027203
 20
127.8496276051
 10
127.1397952106
 20
127.875938004
 10
127.1532828708
 20
127.9051163615
 10
127.1648826869
 20
127.9363340896
 10
127.174265255
 20
127.9687046876
 10
127.1811641349
 20
128.0013089162
 10
127.1853834168
 20
128.0332209019
 10
127.1868032842
 20
128.0635344289
  0
LINE
  5
232
100
AcDbEntity
  8
RACCORDO
100
AcDbLine
 62
253
  6
CONTINUOUS
 10
127.0618032842
 20
128.266657626
 11
126.9260230537
 21
128.1350218897
  0
LINE
  5
233
100
AcDbEntity
  8
RACCORDO
100
AcDbLine
 62
7
  6
CONTINUOUS
 10
127.0599058568
 20
128.1597678846
 11
127.0600023281
 21
128.1598612919
  0
LINE
  5
234
100
AcDbEntity
  8
0
100
AcDbLine
 62
253
  6
CONTINUOUS
 10
130.0089662677
 20
129.8372391194
 11
130.3809073648
 21
130.1599352729
  0
LINE
  5
235
100
AcDbEntity
  8
0
100
AcDbLine
 62
253
  6
CONTINUOUS
 10
130.2254689547
 20
129.5582374901
 11
130.5974100518
 21
129.8809336436
  0
LINE
  5
236
100
AcDbEntity
  8
0
100
AcDbLine
 62
253
  6
CONTINUOUS
 10
128.8718953494
 20
128.854261695
 11
130.0089662677
 21
129.8372391194
  0
LINE
  5
237
100
AcDbEntity
  8
0
100
AcDbLine
 62
253
  6
CONTINUOUS
 10
129.0883980364
 20
128.5752600657
 11
130.2254689547
 21
129.5582374901
  0
LINE
  5
238
100
AcDbEntity
  8
DRAFT
100
AcDbLine
 62
7
  6
CONTINUOUS
 10
135.7798702826
 20
132.6514295236
 11
130.7204305663
 21
128.3855156001
  0
LINE
  5
239
100
AcDbEntity
  8
DRAFT
100
AcDbLine
 62
7
  6
CONTINUOUS
 10
135.2726621238
 20
132.3241646744
 11
130.6217758782
 21
128.4139947555
  0
LINE
  5
23A
100
AcDbEntity
  8
DRAFT
100
AcDbLine
 62
7
  6
CONTINUOUS
 10
134.0697545296
 20
131.4101171823
 11
133.0113631326
 21
130.5402413122
  0
LINE
  5
23B
100
AcDbEntity
  8
DRAFT
100
AcDbLine
 62
7
  6
CONTINUOUS
 10
133.8236333867
 20
131.105913296
 11
130.5674246361
 21
128.4296846076
  0
LINE
  5
23C
100
AcDbEntity
  8
DRAFT
100
AcDbLine
 62
7
  6
CONTINUOUS
 10
133.8229595459
 20
131.2721937565
 11
130.4140744645
 21
128.473952989
  0
LINE
  5
23D
100
AcDbEntity
  8
DRAFT
100
AcDbLine
 62
253
  6
CONTINUOUS
 10
133.8435778204
 20
131.2859641665
 11
130.4171011937
 21
128.4730792476
  0
LINE
  5
23E
100
AcDbEntity
  8
DRAFT
100
AcDbLine
 62
7
  6
CONTINUOUS
 10
133.0113631326
 20
130.5402413122
 11
133.9172574527
 21
131.1846264675
  0
LWPOLYLINE
  5
23F
100
AcDbEntity
  8
0
100
AcDbPolyline
 62
7
  6
CONTINUOUS
 90
5
 70
0
 10
136.4631743525
 20
131.8598861011
 10
136.4710149516
 20
131.8648396256
 10
136.479305333
 20
131.8692607121
 10
136.4880398615
 20
131.8731411002
 10
136.4972074691
 20
131.8764747752
  0
LINE
  5
240
100
AcDbEntity
  8
DRAFT
100
AcDbLine
 62
7
  6
CONTINUOUS
 10
133.8435778204
 20
131.2859641665
 11
134.0697545296
 21
131.4101171823
  0
LINE
  5
241
100
AcDbEntity
  8
0
100
AcDbLine
 62
253
  6
CONTINUOUS
 10
145.6662520777
 20
83.8837979875
 11
145.2943109806
 21
83.9330429311
  0
LWPOLYLINE
  5
242
100
AcDbEntity
  8
0
100
AcDbPolyline
 62
7
  6
CONTINUOUS
 90
7
 70
0
 10
144.6622784506
 20
83.5172402367
 10
144.6581575404
 20
83.5178089059
 10
144.6538114693
 20
83.5184508268
 10
144.6492402902
 20
83.5191622034
 10
144.6444423134
 20
83.5199350237
 10
144.6394201506
 20
83.5207692551
 10
144.6341806429
 20
83.5216728636
  0
LINE
  5
243
100
AcDbEntity
  8
0
100
AcDbLine
 62
7
  6
CONTINUOUS
 10
144.6341806429
 20
83.5216728636
 11
144.6230540857
 21
83.5236701652
  0
LWPOLYLINE
  5
244
100
AcDbEntity
  8
0
100
AcDbPolyline
 62
7
  6
CONTINUOUS
 90
3
 70
0
 10
144.6230540857
 20
83.5236701652
 10
144.6110929138
 20
83.5259289458
 10
144.6048065243
 20
83.5271491139
  0
LINE
  5
245
100
AcDbEntity
  8
0
100
AcDbLine
 62
7
  6
CONTINUOUS
 10
144.6048065243
 20
83.5271491139
 11
144.5916527004
 21
83.5297858923
  0
LINE
  5
246
100
AcDbEntity
  8
0
100
AcDbLine
 62
7
  6
CONTINUOUS
 10
144.5916527004
 20
83.5297858923
 11
144.5777497971
 21
83.5326632628
  0
LINE
  5
247
100
AcDbEntity
  8
0
100
AcDbLine
 62
7
  6
CONTINUOUS
 10
144.5777497971
 20
83.5326632628
 11
144.5631434968
 21
83.5357786454
  0
LWPOLYLINE
  5
248
100
AcDbEntity
  8
0
100
AcDbPolyline
 62
7
  6
CONTINUOUS
 90
3
 70
0
 10
144.5631434968
 20
83.5357786454
 10
144.5478840602
 20
83.5391290148
 10
144.5400231015
 20
83.540882707
  0
LWPOLYLINE
  5
249
100
AcDbEntity
  8
0
100
AcDbPolyline
 62
7
  6
CONTINUOUS
 90
9
 70
0
 10
143.8721270671
 20
82.0686445576
 10
143.9021908186
 20
82.0619411904
 10
143.9329178784
 20
82.0589830913
 10
143.963844739
 20
82.0598405453
 10
143.994690688
 20
82.0645685643
 10
144.0248090908
 20
82.0731384777
 10
144.0533362963
 20
82.0852641565
 10
144.0800822335
 20
82.1007859787
 10
144.1028405184
 20
82.1178975218
  0
LWPOLYLINE
  5
24A
100
AcDbEntity
  8
0
100
AcDbPolyline
 62
7
  6
CONTINUOUS
 90
10
 70
0
 10
142.1317329936
 20
82.1264818544
 10
142.1986781232
 20
82.1111771633
 10
142.2608090244
 20
82.1039623691
 10
142.3234070387
 20
82.1031901367
 10
142.3869676408
 20
82.1089695171
 10
142.4510372129
 20
82.1215521249
 10
142.5147750569
 20
82.1410389029
 10
142.5782645818
 20
82.1677760101
 10
142.6412642003
 20
82.2021496583
 10
142.6976238954
 20
82.240206035
  0
LWPOLYLINE
  5
24B
100
AcDbEntity
  8
0
100
AcDbPolyline
 62
253
  6
CONTINUOUS
 90
34
 70
0
 10
143.8164645917
 20
82.2005836128
 10
143.8268518979
 20
82.197746813
 10
143.8375006083
 20
82.1951579752
 10
143.8483871432
 20
82.1928232238
 10
143.8594889023
 20
82.1907478532
 10
143.8707796749
 20
82.1889372027
 10
143.8822294539
 20
82.1873962695
 10
143.8938107902
 20
82.1861286842
 10
143.9054992927
 20
82.1851370538
 10
143.9172688809
 20
82.1844235981
 10
143.9290932381
 20
82.1839899325
 10
143.940945625
 20
82.1838370576
 10
143.9527991448
 20
82.1839653265
 10
143.9646270322
 20
82.1843744432
 10
143.976402791
 20
82.1850634852
 10
143.9881000121
 20
82.1860309074
 10
143.9996924175
 20
82.1872745406
 10
144.0111539016
 20
82.1887915884
 10
144.0224586651
 20
82.1905786384
 10
144.0335812762
 20
82.1926316718
 10
144.0444967223
 20
82.1949460731
 10
144.0551804483
 20
82.1975166374
 10
144.065608425
 20
82.2003375848
 10
144.0757571953
 20
82.2034025711
 10
144.0856039239
 20
82.2067047011
 10
144.0951264616
 20
82.2102365478
 10
144.1043033911
 20
82.2139901682
 10
144.1131140683
 20
82.217957119
 10
144.1215386799
 20
82.2221284802
 10
144.1295582721
 20
82.2264948679
 10
144.1371547931
 20
82.231046453
 10
144.1443111545
 20
82.2357729944
 10
144.1510112668
 20
82.2406638631
 10
144.1572400622
 20
82.2457080581
  0
LWPOLYLINE
  5
24C
100
AcDbEntity
  8
0
100
AcDbPolyline
 62
253
  6
CONTINUOUS
 90
34
 70
0
 10
143.8164645917
 20
82.5405575469
 10
143.8268695436
 20
82.5377161963
 10
143.837532208
 20
82.5351246859
 10
143.8484286058
 20
82.5327888437
 10
143.8595342189
 20
82.5307139252
 10
143.8708240847
 20
82.5289045937
 10
143.8822728537
 20
82.5273649134
 10
143.8938548075
 20
82.5260983469
 10
143.9055438738
 20
82.5251077495
 10
143.917313724
 20
82.524395354
 10
143.9291378745
 20
82.5239627628
 10
143.9409897472
 20
82.5238109479
 10
143.9528426873
 20
82.5239402506
 10
143.964670038
 20
82.5243503801
 10
143.9764452006
 20
82.525040414
 10
143.9881416936
 20
82.5260088005
 10
143.999733221
 20
82.5272533627
 10
144.0111937053
 20
82.5287713011
 10
144.0224973481
 20
82.5305591977
 10
144.0336187133
 20
82.5326130268
 10
144.0445328078
 20
82.5349281702
 10
144.055215111
 20
82.5374994254
 10
144.0656416758
 20
82.5403210319
 10
144.0757889733
 20
82.5433866259
 10
144.0856339878
 20
82.5466892442
 10
144.0951544727
 20
82.5502213968
 10
144.1043291736
 20
82.5539751701
 10
144.1131376554
 20
82.5579421921
 10
144.121560778
 20
82.5621138891
 10
144.1295788684
 20
82.5664805656
 10
144.1371722481
 20
82.5710313659
 10
144.1443236204
 20
82.5757555815
 10
144.1510177994
 20
82.5806428173
 10
144.1572400622
 20
82.5856819922
  0
LINE
  5
24D
100
AcDbEntity
  8
0
100
AcDbLine
 62
7
  6
CONTINUOUS
 10
142.1323007748
 20
82.1263167522
 11
123.8904041804
 21
87.3922987069
  0
LINE
  5
24E
100
AcDbEntity
  8
0
100
AcDbLine
 62
253
  6
CONTINUOUS
 10
141.9119550521
 20
82.5307221117
 11
123.6766308545
 21
87.7948067788
  0
LINE
  5
24F
100
AcDbEntity
  8
0
100
AcDbLine
 62
7
  6
CONTINUOUS
 10
142.8598126112
 20
82.3608745694
 11
143.8721270671
 21
82.0686445576
  0
LINE
  5
250
100
AcDbEntity
  8
0
100
AcDbLine
 62
253
  6
CONTINUOUS
 10
142.9720136742
 20
82.4443555951
 11
143.8164645917
 21
82.2005836128
  0
LINE
  5
251
100
AcDbEntity
  8
0
100
AcDbLine
 62
253
  6
CONTINUOUS
 10
143.8164645917
 20
82.5405575469
 11
143.301220648
 21
82.6892956617
  0
LINE
  5
252
100
AcDbEntity
  8
0
100
AcDbLine
 62
253
  6
CONTINUOUS
 10
143.8789645917
 20
82.7821841347
 11
143.5526657322
 21
82.8763785019
  0
LWPOLYLINE
  5
253
100
AcDbEntity
  8
0
100
AcDbPolyline
 62
253
  6
CONTINUOUS
 90
27
 70
0
 10
123.8904091581
 20
87.3922972699
 10
123.8829218729
 20
87.3946346089
 10
123.8698858756
 20
87.3995739319
 10
123.8571618013
 20
87.4055271307
 10
123.8447633666
 20
87.4124878171
 10
123.8327033227
 20
87.4204487154
 10
123.8209946556
 20
87.4294013146
 10
123.8096500053
 20
87.439336043
 10
123.7986810381
 20
87.4502424634
 10
123.7880995494
 20
87.4621089606
 10
123.7779169808
 20
87.4749228635
 10
123.7681438394
 20
87.4886706206
 10
123.7587906508
 20
87.503337564
 10
123.7498675033
 20
87.5189080766
 10
123.7413835678
 20
87.53536572
 10
123.733347973
 20
87.552692965
 10
123.7257693963
 20
87.5708713743
 10
123.718655613
 20
87.589881779
 10
123.7120142461
 20
87.6097040546
 10
123.705852513
 20
87.6303170377
 10
123.7001768078
 20
87.6516986996
 10
123.6949932532
 20
87.6738261199
 10
123.6903074049
 20
87.696675919
 10
123.6861240194
 20
87.7202242063
 10
123.6824475259
 20
87.7444461105
 10
123.6792819962
 20
87.769315772
 10
123.6766308545
 20
87.7948067788
  0
LWPOLYLINE
  5
254
100
AcDbEntity
  8
RACCORDO
100
AcDbPolyline
 62
253
  6
CONTINUOUS
 90
10
 70
0
 10
129.1578945498
 20
127.2121348651
 10
129.1745887712
 20
127.2305705125
 10
129.1906603159
 20
127.2532657468
 10
129.2056527945
 20
127.2795760951
 10
129.2191404595
 20
127.3087544248
 10
129.2307402923
 20
127.3399721528
 10
129.2401228816
 20
127.3723427736
 10
129.2470217823
 20
127.4049470443
 10
129.2512410803
 20
127.4368590899
 10
129.2526609542
 20
127.4671726879
  0
LINE
  5
255
100
AcDbEntity
  8
RACCORDO
100
AcDbLine
 62
253
  6
CONTINUOUS
 10
129.5934364248
 20
127.5326022231
 11
130.2254689547
 21
128.129476798
  0
LINE
  5
256
100
AcDbEntity
  8
RACCORDO
100
AcDbLine
 62
253
  6
CONTINUOUS
 10
129.7712903968
 20
127.3136639565
 11
130.3986242289
 21
127.9061012071
  0
LINE
  5
257
100
AcDbEntity
  8
0
100
AcDbLine
 62
7
  6
CONTINUOUS
 10
132.6503400853
 20
128.6417274752
 11
131.9078976679
 21
127.9824691536
  0
LINE
  5
258
100
AcDbEntity
  8
0
100
AcDbLine
 62
7
  6
CONTINUOUS
 10
132.7230642189
 20
127.7471508398
 11
133.3224824458
 21
128.2723024554
  0
LINE
  5
259
100
AcDbEntity
  8
0
100
AcDbLine
 62
7
  6
CONTINUOUS
 10
137.2245186517
 20
131.6152797461
 11
133.9730642189
 21
128.8322017887
  0
LINE
  5
25A
100
AcDbEntity
  8
0
100
AcDbLine
 62
7
  6
CONTINUOUS
 10
136.4395970872
 20
131.8418670844
 11
132.6503400853
 21
128.6417274752
  0
LWPOLYLINE
  5
25B
100
AcDbEntity
  8
0
100
AcDbPolyline
 62
7
  6
CONTINUOUS
 90
7
 70
0
 10
137.2245186517
 20
131.6152797461
 10
137.228205174
 20
131.6183876184
 10
137.2318853682
 20
131.6213968119
 10
137.2355592343
 20
131.6243073265
 10
137.2392267722
 20
131.6271191623
 10
137.2428879821
 20
131.6298323192
 10
137.2465428639
 20
131.6324467972
  0
LINE
  5
25C
100
AcDbEntity
  8
0
100
AcDbLine
 62
7
  6
CONTINUOUS
 10
137.2964861169
 20
131.66847316
 11
137.2887011904
 21
131.662680707
  0
LINE
  5
25D
100
AcDbEntity
  8
0
100
AcDbLine
 62
7
  6
CONTINUOUS
 10
137.2887011904
 20
131.662680707
 11
137.2789642148
 21
131.6555653788
  0
LINE
  5
25E
100
AcDbEntity
  8
0
100
AcDbLine
 62
7
  6
CONTINUOUS
 10
137.2789642148
 20
131.6555653788
 11
137.267348202
 21
131.6471958217
  0
LWPOLYLINE
  5
25F
100
AcDbEntity
  8
0
100
AcDbPolyline
 62
7
  6
CONTINUOUS
 90
3
 70
0
 10
137.267348202
 20
131.6471958217
 10
137.2539128951
 20
131.637647166
 10
137.2465428639
 20
131.6324467972
  0
LWPOLYLINE
  5
260
100
AcDbEntity
  8
RACCORDO
100
AcDbPolyline
 62
7
  6
CONTINUOUS
 90
3
 70
0
 10
137.1617884909
 20
129.0462373074
 10
137.1781556302
 20
129.0557311908
 10
137.1964756752
 20
129.062450009
  0
LWPOLYLINE
  5
261
100
AcDbEntity
  8
RACCORDO
100
AcDbPolyline
 62
7
  6
CONTINUOUS
 90
3
 70
0
 10
137.3585757972
 20
129.1500829245
 10
137.288189288
 20
129.1195410475
 10
137.2219556074
 20
129.0846650754
  0
LWPOLYLINE
  5
262
100
AcDbEntity
  8
0
100
AcDbPolyline
 62
7
  6
CONTINUOUS
 90
8
 70
0
 10
143.3426444449
 20
129.8994781855
 10
143.3522259089
 20
129.902354396
 10
143.3622493781
 20
129.904654136
 10
143.3727029563
 20
129.9063694364
 10
143.3835841813
 20
129.907490735
 10
143.3949186857
 20
129.9079982974
 10
143.4066885562
 20
129.9078870223
 10
143.4188986766
 20
129.90714136
  0
LINE
  5
263
100
AcDbEntity
  8
0
100
AcDbLine
 62
253
  6
CONTINUOUS
 10
145.5115221743
 20
84.1872937297
 11
145.3443281537
 21
84.2094301921
  0
LINE
  5
264
100
AcDbEntity
  8
0
100
AcDbLine
 62
7
  6
CONTINUOUS
 10
144.5400231015
 20
83.540882707
 11
144.5238819491
 21
83.544560137
  0
LINE
  5
265
100
AcDbEntity
  8
0
100
AcDbLine
 62
7
  6
CONTINUOUS
 10
144.5238819491
 20
83.544560137
 11
144.5072256117
 21
83.5484365364
  0
LINE
  5
266
100
AcDbEntity
  8
0
100
AcDbLine
 62
7
  6
CONTINUOUS
 10
144.5072256117
 20
83.5484365364
 11
144.4901216703
 21
83.5525037993
  0
LINE
  5
267
100
AcDbEntity
  8
0
100
AcDbLine
 62
7
  6
CONTINUOUS
 10
144.4901216703
 20
83.5525037993
 11
144.4684848332
 21
83.5577759492
  0
LWPOLYLINE
  5
268
100
AcDbEntity
  8
0
100
AcDbPolyline
 62
253
  6
CONTINUOUS
 90
3
 70
0
 10
145.5183596988
 20
84.1858593726
 10
145.5161846253
 20
84.1864311351
 10
145.5115221743
 20
84.1872937297
  0
LINE
  5
269
100
AcDbEntity
  8
0
100
AcDbLine
 62
253
  6
CONTINUOUS
 10
145.3696289657
 20
84.2282547707
 11
145.5115221743
 21
84.1872937297
  0
LINE
  5
26A
100
AcDbEntity
  8
0
100
AcDbLine
 62
7
  6
CONTINUOUS
 10
145.3701513471
 20
84.2286434385
 11
145.5183596988
 21
84.1858593726
  0
LINE
  5
26B
100
AcDbEntity
  8
0
100
AcDbLine
 62
253
  6
CONTINUOUS
 10
145.5217573155
 20
84.1840502396
 11
145.5115221743
 21
84.1872937297
  0
LWPOLYLINE
  5
26C
100
AcDbEntity
  8
0
100
AcDbPolyline
 62
7
  6
CONTINUOUS
 90
15
 70
0
 10
123.4259308506
 20
88.0277397321
 10
123.4270410419
 20
88.0162859179
 10
123.4381567094
 20
87.9375601868
 10
123.4547863266
 20
87.8635851802
 10
123.4768319482
 20
87.794108389
 10
123.504263662
 20
87.7289590477
 10
123.5369294121
 20
87.6683507167
 10
123.5745336447
 20
87.6126334948
 10
123.6168606613
 20
87.5619424968
 10
123.6635353066
 20
87.5165929549
 10
123.7138875037
 20
87.4770452209
 10
123.7674431835
 20
87.4434598135
 10
123.8239394576
 20
87.4158843218
 10
123.8828482142
 20
87.3945358168
 10
123.8909908872
 20
87.3921306559
  0
LINE
  5
26D
100
AcDbEntity
  8
0
100
AcDbLine
 62
7
  6
CONTINUOUS
 10
123.4259110197
 20
88.0279541355
 11
123.4259307429
 21
88.0277397222
  0
LWPOLYLINE
  5
26E
100
AcDbEntity
  8
0
100
AcDbPolyline
 62
253
  6
CONTINUOUS
 90
16
 70
0
 10
123.6766308545
 20
87.7948067788
 10
123.6215681017
 20
88.4170046992
 10
123.5697848279
 20
89.0429913702
 10
123.5212850833
 20
89.6727192458
 10
123.4760727612
 20
90.3061404455
 10
123.4341512971
 20
90.9432069165
 10
123.3955236692
 20
91.5838704384
 10
123.3601928739
 20
92.2280824134
 10
123.3281617011
 20
92.8757938737
 10
123.299432433
 20
93.5269556436
 10
123.2740072945
 20
94.1815182434
 10
123.2518882943
 20
94.8394320157
 10
123.2330770038
 20
95.5006471343
 10
123.2175748418
 20
96.1651134447
 10
123.2053830738
 20
96.8327804663
 10
123.1965026532
 20
97.5035975187
  0
LWPOLYLINE
  5
26F
100
AcDbEntity
  8
0
100
AcDbPolyline
 62
253
  6
CONTINUOUS
 90
25
 70
0
 10
122.9465130411
 20
97.7213297639
 10
122.9472309731
 20
97.7102462631
 10
122.9488782177
 20
97.6991963545
 10
122.9514517085
 20
97.6882006076
 10
122.9549466549
 20
97.6772794912
 10
122.959356551
 20
97.6664533348
 10
122.9646731879
 20
97.6557422914
 10
122.9708866686
 20
97.6451662997
 10
122.9779854267
 20
97.6347450469
 10
122.9859562477
 20
97.6244979322
 10
122.994784294
 20
97.6144440308
 10
123.0044531321
 20
97.6046020579
 10
123.0149447635
 20
97.5949903345
 10
123.0262396579
 20
97.5856267528
 10
123.0383167898
 20
97.5765287432
 10
123.0511536775
 20
97.5677132417
 10
123.0647264252
 20
97.5591966583
 10
123.0790097672
 20
97.5509948467
 10
123.0939771148
 20
97.5431230746
 10
123.1096006064
 20
97.5355959954
 10
123.1258511587
 20
97.5284276208
 10
123.1426985212
 20
97.5216312947
 10
123.1601113326
 20
97.5152196686
 10
123.1780571787
 20
97.5092046776
 10
123.1965026533
 20
97.5035975187
  0
LWPOLYLINE
  5
270
100
AcDbEntity
  8
0
100
AcDbPolyline
 62
7
  6
CONTINUOUS
 90
10
 70
0
 10
123.4253675772
 20
124.7214719634
 10
123.3399553139
 20
123.5832834175
 10
123.2577292143
 20
122.3726928761
 10
123.1848850134
 20
121.1684463515
 10
123.1214395337
 20
119.9708002333
 10
123.0674076445
 20
118.7800072828
 10
123.0228026095
 20
117.5963220669
 10
122.9876357807
 20
116.4199943574
 10
122.9619167904
 20
115.2512752864
 10
122.9464852872
 20
114.1715891333
  0
LWPOLYLINE
  5
271
100
AcDbEntity
  8
0
100
AcDbPolyline
 62
253
  6
CONTINUOUS
 90
43
 70
0
 10
123.6766308545
 20
124.5328471384
 10
123.6792819455
 20
124.5630237564
 10
123.6824474347
 20
124.5934881671
 10
123.6861239106
 20
124.624208035
 10
123.6903073356
 20
124.6551507827
 10
123.6949932759
 20
124.6862835443
 10
123.7001769059
 20
124.7175732
 10
123.7058526099
 20
124.7489865375
 10
123.7120142957
 20
124.7804902336
 10
123.7186556281
 20
124.812050808
 10
123.7257694295
 20
124.843634801
 10
123.7333480512
 20
124.8752086811
 10
123.7413836882
 20
124.9067388265
 10
123.7498676512
 20
124.9381917827
 10
123.7587908193
 20
124.9695341963
 10
123.7681440151
 20
125.0007327232
 10
123.7779171391
 20
125.0317542929
 10
123.7880996724
 20
125.0625659883
 10
123.7986811303
 20
125.0931349799
 10
123.8096500835
 20
125.1234288528
 10
123.8209947271
 20
125.1534154863
 10
123.8327033862
 20
125.1830629327
 10
123.8447634205
 20
125.2123397669
 10
123.8571618443
 20
125.2412149458
 10
123.8698858967
 20
125.2696576861
 10
123.8829218456
 20
125.2976378472
 10
123.8962556494
 20
125.325125766
 10
123.9098735781
 20
125.3520921134
 10
123.9237609334
 20
125.3785083133
 10
123.9379027565
 20
125.4043463753
 10
123.9522844914
 20
125.4295787271
 10
123.9668906224
 20
125.4541786439
 10
123.9817054093
 20
125.4781200596
 10
123.9967135962
 20
125.5013773986
 10
124.0118989916
 20
125.5239260326
 10
124.0272452298
 20
125.5457420813
 10
124.0427365066
 20
125.5668022216
 10
124.0583561016
 20
125.5870841578
 10
124.0740871882
 20
125.6065664236
 10
124.0899135951
 20
125.6252281795
 10
124.1058185208
 20
125.6430496047
 10
124.1217845511
 20
125.6600119188
 10
124.1377944698
 20
125.6760971803
  0
LWPOLYLINE
  5
272
100
AcDbEntity
  8
0
100
AcDbPolyline
 62
7
  6
CONTINUOUS
 90
4
 70
0
 10
130.6011032981
 20
129.4782543512
 10
130.6137501329
 20
129.5061366273
 10
130.6228507015
 20
129.5351800495
 10
130.628341054
 20
129.5650030649
  0
LINE
  5
273
100
AcDbEntity
  8
0
100
AcDbLine
 62
253
  6
CONTINUOUS
 10
130.2254689547
 20
128.8311926377
 11
130.5974100518
 21
129.5334021269
  0
LINE
  5
274
100
AcDbEntity
  8
0
100
AcDbLine
 62
7
  6
CONTINUOUS
 10
130.229162201
 20
128.776044862
 11
130.6011032981
 21
129.4782543512
  0
LWPOLYLINE
  5
275
100
AcDbEntity
  8
0
100
AcDbPolyline
 62
7
  6
CONTINUOUS
 90
7
 70
0
 10
137.30723504
 20
131.6770876979
 10
137.3068568223
 20
131.6766532787
 10
137.3058825379
 20
131.6757837019
 10
137.3043353541
 20
131.6745189004
 10
137.3022416203
 20
131.6728743489
 10
137.2996239233
 20
131.6708524231
 10
137.2964861169
 20
131.66847316
  0
LINE
  5
276
100
AcDbEntity
  8
0
100
AcDbLine
 62
7
  6
CONTINUOUS
 10
132.7230642189
 20
126.300988074
 11
133.2230642189
 21
126.7793872441
  0
LINE
  5
277
100
AcDbEntity
  8
0
100
AcDbLine
 62
253
  6
CONTINUOUS
 10
135.3143408745
 20
127.6973024554
 11
135.4649226476
 21
127.8292274752
  0
LINE
  5
278
100
AcDbEntity
  8
0
100
AcDbLine
 62
253
  6
CONTINUOUS
 10
135.4881277284
 20
127.4746041361
 11
135.6381277284
 21
127.6060194632
  0
LWPOLYLINE
  5
279
100
AcDbEntity
  8
RACCORDO
100
AcDbPolyline
 62
7
  6
CONTINUOUS
 90
5
 70
0
 10
137.0571697207
 20
128.9610689401
 10
137.0530835407
 20
128.9575203276
 10
137.0474270453
 20
128.9518880036
 10
137.0424106905
 20
128.9460280113
 10
137.0390772676
 20
128.9415693909
  0
LINE
  5
27A
100
AcDbEntity
  8
0
100
AcDbLine
 62
7
  6
CONTINUOUS
 10
138.6264108118
 20
130.4252981105
 11
137.8303579778
 21
129.7358961335
  0
LINE
  5
27B
100
AcDbEntity
  8
0
100
AcDbLine
 62
7
  6
CONTINUOUS
 10
137.0230642189
 20
130.0572044549
 11
137.2465428639
 21
130.2484906942
  0
LINE
  5
27C
100
AcDbEntity
  8
0
100
AcDbLine
 62
7
  6
CONTINUOUS
 10
139.3656845163
 20
131.616294117
 11
137.8303579778
 21
130.3021334745
  0
LINE
  5
27D
100
AcDbEntity
  8
0
100
AcDbLine
 62
253
  6
CONTINUOUS
 10
135.4649226476
 20
127.8292274752
 11
135.9649226476
 21
128.2572017887
  0
LINE
  5
27E
100
AcDbEntity
  8
0
100
AcDbLine
 62
253
  6
CONTINUOUS
 10
135.6381277284
 20
127.6060194632
 11
136.1381277284
 21
128.0339937767
  0
LINE
  5
27F
100
AcDbEntity
  8
RACCORDO
100
AcDbLine
 62
7
  6
CONTINUOUS
 10
137.1556543557
 20
129.0415780481
 11
137.0573721948
 21
128.9612355328
  0
LINE
  5
280
100
AcDbEntity
  8
RACCORDO
100
AcDbLine
 62
253
  6
CONTINUOUS
 10
137.2804439169
 20
129.0585085713
 11
137.182871841
 21
128.9787465278
  0
LWPOLYLINE
  5
281
100
AcDbEntity
  8
RACCORDO
100
AcDbPolyline
 62
253
  6
CONTINUOUS
 90
7
 70
0
 10
137.8475216606
 20
129.2211876819
 10
137.8539510007
 20
129.2262998747
 10
137.8603564505
 20
129.230674605
 10
137.8667113049
 20
129.2342914818
 10
137.8729912528
 20
129.2371340868
 10
137.8791674518
 20
129.2391867455
 10
137.8852070974
 20
129.2404375719
  0
LINE
  5
282
100
AcDbEntity
  8
RACCORDO
100
AcDbLine
 62
7
  6
CONTINUOUS
 10
137.155678165
 20
129.0415975114
 11
137.1617884909
 21
129.0462373074
  0
LINE
  5
283
100
AcDbEntity
  8
RACCORDO
100
AcDbLine
 62
7
  6
CONTINUOUS
 10
137.2219556074
 20
129.0846650754
 11
137.1617883989
 21
129.0462372325
  0
LINE
  5
284
100
AcDbEntity
  8
0
100
AcDbLine
 62
7
  6
CONTINUOUS
 10
145.5183596988
 20
84.1858593726
 11
145.5466693883
 21
84.1758079389
  0
LINE
  5
285
100
AcDbEntity
  8
0
100
AcDbLine
 62
7
  6
CONTINUOUS
 10
145.5466693883
 20
84.1758079389
 11
145.5737000572
 21
84.1623587913
  0
LWPOLYLINE
  5
286
100
AcDbEntity
  8
0
100
AcDbPolyline
 62
253
  6
CONTINUOUS
 90
24
 70
0
 10
123.4259307429
 20
88.0277397222
 10
123.4277752221
 20
88.0137034742
 10
123.4304439766
 20
88.0008197364
 10
123.4340314092
 20
87.9880712577
 10
123.43853084
 20
87.9754817751
 10
123.4439338914
 20
87.9630747299
 10
123.4502305029
 20
87.9508732236
 10
123.4574089506
 20
87.9388999749
 10
123.4654558685
 20
87.9271772776
 10
123.4743562734
 20
87.9157269589
 10
123.4840935931
 20
87.904570339
 10
123.494649697
 20
87.8937281911
 10
123.5060049302
 20
87.8832207028
 10
123.5181381494
 20
87.8730674388
 10
123.5310267632
 20
87.8632873041
 10
123.5446467733
 20
87.8538985089
 10
123.5589728198
 20
87.8449185348
 10
123.5739782281
 20
87.8363641022
 10
123.5896350586
 20
87.8282511393
 10
123.6059141589
 20
87.820594752
 10
123.6227852179
 20
87.8134091962
 10
123.6402168222
 20
87.8067078513
 10
123.6581765148
 20
87.8005031948
 10
123.6766308553
 20
87.7948067797
  0
LWPOLYLINE
  5
287
100
AcDbEntity
  8
0
100
AcDbPolyline
 62
7
  6
CONTINUOUS
 90
10
 70
0
 10
122.9464863733
 20
97.7229210707
 10
122.9620396212
 20
96.6644888648
 10
122.9878177086
 20
95.541913087
 10
123.0230525841
 20
94.4285315459
 10
123.0677392967
 20
93.3245821903
 10
123.121871225
 20
92.2302975427
 10
123.1854400147
 20
91.1459095764
 10
123.258435727
 20
90.0716466917
 10
123.3408463882
 20
89.0077394887
 10
123.4259110197
 20
88.0279541355
  0
LWPOLYLINE
  5
288
100
AcDbEntity
  8
0
100
AcDbPolyline
 62
253
  6
CONTINUOUS
 90
13
 70
0
 10
123.1965026532
 20
97.5035975187
 10
123.1831293595
 20
98.8626847216
 10
123.1721877225
 20
100.2240064622
 10
123.1636777042
 20
101.5875489516
 10
123.1575992733
 20
102.953289233
 10
123.1539522763
 20
104.3212225938
 10
123.1527366055
 20
105.6913627121
 10
123.1539522772
 20
107.0636958404
 10
123.1575992748
 20
108.4382082238
 10
123.163677706
 20
109.8149137586
 10
123.1721877242
 20
111.1938080083
 10
123.1831293607
 20
112.5748680601
 10
123.1965026532
 20
113.9580801906
  0
LWPOLYLINE
  5
289
100
AcDbEntity
  8
0
100
AcDbPolyline
 62
253
  6
CONTINUOUS
 90
26
 70
0
 10
122.9464852872
 20
114.1715891333
 10
122.9465130419
 20
114.1675034079
 10
122.9472309739
 20
114.1570291488
 10
122.9488782185
 20
114.1465721851
 10
122.9514517093
 20
114.1361519825
 10
122.9549466558
 20
114.1257879382
 10
122.9593565519
 20
114.1154993449
 10
122.9646731889
 20
114.1053053549
 10
122.9708866696
 20
114.0952249444
 10
122.9779854276
 20
114.085276878
 10
122.9859562487
 20
114.0754796742
 10
122.994784295
 20
114.0658515705
 10
123.0044531331
 20
114.0564104896
 10
123.0149447645
 20
114.0471740062
 10
123.0262396589
 20
114.038159314
 10
123.0383167907
 20
114.029383194
 10
123.0511536785
 20
114.0208619829
 10
123.0647264262
 20
114.0126115429
 10
123.0790097681
 20
114.0046472324
 10
123.0939771158
 20
113.9969838768
 10
123.1096006073
 20
113.9896357417
 10
123.1258511596
 20
113.9826165055
 10
123.1426985221
 20
113.9759392347
 10
123.1601113334
 20
113.9696163589
 10
123.1780571795
 20
113.9636596483
 10
123.196502654
 20
113.9580801912
  0
LWPOLYLINE
  5
28A
100
AcDbEntity
  8
0
100
AcDbPolyline
 62
7
  6
CONTINUOUS
 90
10
 70
0
 10
122.9464852884
 20
114.1715893192
 10
122.9296731704
 20
112.385632844
 10
122.9164742992
 20
110.529031555
 10
122.9076775007
 20
108.6763080326
 10
122.9032829803
 20
106.8274970219
 10
122.9032908573
 20
104.9826309299
 10
122.9077011873
 20
103.1417414995
 10
122.9165139626
 20
101.3048610221
 10
122.9297290884
 20
99.4720239954
 10
122.9464863749
 20
97.7229208171
  0
LWPOLYLINE
  5
28B
100
AcDbEntity
  8
0
100
AcDbPolyline
 62
253
  6
CONTINUOUS
 90
16
 70
0
 10
123.1965026532
 20
113.9580801906
 10
123.2053830738
 20
114.6449144283
 10
123.2175748418
 20
115.3345709313
 10
123.2330770038
 20
116.0269973674
 10
123.2518882943
 20
116.7221411844
 10
123.2740072945
 20
117.4199496502
 10
123.299432433
 20
118.1203698572
 10
123.3281617011
 20
118.8233487223
 10
123.3601928739
 20
119.5288328585
 10
123.3955236692
 20
120.2367686151
 10
123.4341512971
 20
120.9471022455
 10
123.4760727613
 20
121.6597799088
 10
123.5212850833
 20
122.3747475432
 10
123.5697848279
 20
123.0919509179
 10
123.6215681017
 20
123.8113356366
 10
123.6766308545
 20
124.5328471384
  0
LWPOLYLINE
  5
28C
100
AcDbEntity
  8
0
100
AcDbPolyline
 62
253
  6
CONTINUOUS
 90
26
 70
0
 10
123.4253491367
 20
124.7212304702
 10
123.4252120174
 20
124.7126155539
 10
123.4260302378
 20
124.7043154154
 10
123.4277753543
 20
124.6959744012
 10
123.4304441176
 20
124.6876080422
 10
123.4340315584
 20
124.679231916
 10
123.438530997
 20
124.6708616189
 10
123.4439340555
 20
124.6625127358
 10
123.4502306737
 20
124.6542008123
 10
123.4574091272
 20
124.6459413248
 10
123.4654560502
 20
124.6377496522
 10
123.4743564594
 20
124.6296410469
 10
123.4840937826
 20
124.6216306071
 10
123.4946498891
 20
124.6137332477
 10
123.5060051239
 20
124.6059636734
 10
123.5181383439
 20
124.5983363509
 10
123.5310269575
 20
124.5908654819
 10
123.5446469665
 20
124.5835649768
 10
123.5589730109
 20
124.576448429
 10
123.5739784162
 20
124.5695290891
 10
123.5896352429
 20
124.5628198407
 10
123.6059143385
 20
124.5563331762
 10
123.622785392
 20
124.5500811735
 10
123.6402169902
 20
124.5440754735
 10
123.658176676
 20
124.5383272587
 10
123.6766310092
 20
124.5328472319
  0
LWPOLYLINE
  5
28D
100
AcDbEntity
  8
0
100
AcDbPolyline
 62
253
  6
CONTINUOUS
 90
32
 70
0
 10
129.0883980364
 20
128.2352861316
 10
129.0851563506
 20
128.2238902622
 10
129.0814349886
 20
128.2126625904
 10
129.0772423494
 20
128.2016284564
 10
129.0725878953
 20
128.1908127637
 10
129.0674821314
 20
128.1802399225
 10
129.0619365809
 20
128.1699337951
 10
129.0559637598
 20
128.159917642
 10
129.0495771485
 20
128.1502140689
 10
129.0427911612
 20
128.1408449762
 10
129.0356211134
 20
128.1318315094
 10
129.0280831875
 20
128.1231940115
 10
129.0201943961
 20
128.1149519766
 10
129.0119725439
 20
128.1071240066
 10
129.003436187
 20
128.0997277688
 10
128.9946045914
 20
128.0927799561
 10
128.9854976897
 20
128.0862962491
 10
128.9761360354
 20
128.0802912814
 10
128.9665407574
 20
128.0747786057
 10
128.9567335115
 20
128.0697706638
 10
128.9467364322
 20
128.0652787583
 10
128.9365720823
 20
128.0613130273
 10
128.9262634022
 20
128.0578824211
 10
128.9158336578
 20
128.0549946824
 10
128.9053063885
 20
128.0526563287
 10
128.8947053538
 20
128.0508726375
 10
128.8840544795
 20
128.0496476345
 10
128.8733778041
 20
128.0489840844
 10
128.8626994241
 20
128.0488834848
 10
128.8520434401
 20
128.0493460628
 10
128.841433902
 20
128.0503707744
 10
128.8390499637
 20
128.0506793569
  0
LWPOLYLINE
  5
28E
100
AcDbEntity
  8
RACCORDO
100
AcDbPolyline
 62
253
  6
CONTINUOUS
 90
16
 70
0
 10
137.4258532168
 20
128.2241493534
 10
137.4570800456
 20
128.2584616821
 10
137.4915150387
 20
128.290181934
 10
137.5291581959
 20
128.319310109
 10
137.570516344
 20
128.3460725074
 10
137.6150826563
 20
128.3702428289
 10
137.6613366528
 20
128.3911421733
 10
137.7092978649
 20
128.4086423849
 10
137.7589467611
 20
128.4228716192
 10
137.8087042668
 20
128.4335354433
 10
137.8584582258
 20
128.4405317805
 10
137.9083207942
 20
128.4439627075
 10
137.9570493665
 20
128.443840021
 10
138.0042297407
 20
128.4401676533
 10
138.0502761188
 20
128.4329416721
 10
138.0951885007
 20
128.4221620775
  0
LINE
  5
28F
100
AcDbEntity
  8
0
100
AcDbLine
 62
7
  6
CONTINUOUS
 10
135.6381277284
 20
126.3935868292
 11
135.4881277284
 21
126.2500670781
  0
LINE
  5
290
100
AcDbEntity
  8
0
100
AcDbLine
 62
253
  6
CONTINUOUS
 10
137.3875874126
 20
127.0924983624
 11
137.3928018435
 21
127.0973024554
  0
LINE
  5
291
100
AcDbEntity
  8
0
100
AcDbLine
 62
7
  6
CONTINUOUS
 10
137.4119669872
 20
127.2067839228
 11
137.2615888138
 21
127.0750372772
  0
LINE
  5
292
100
AcDbEntity
  8
0
100
AcDbLine
 62
253
  6
CONTINUOUS
 10
137.5433836167
 20
127.2292274752
 11
137.3928018435
 21
127.0973024554
  0
LINE
  5
293
100
AcDbEntity
  8
0
100
AcDbLine
 62
253
  6
CONTINUOUS
 10
137.2616750846
 20
127.075112781
 11
137.261588811
 21
127.0750372748
  0
LINE
  5
294
100
AcDbEntity
  8
0
100
AcDbLine
 62
7
  6
CONTINUOUS
 10
136.1381277284
 20
126.8265995311
 11
135.6381277284
 21
126.3935868292
  0
LINE
  5
295
100
AcDbEntity
  8
0
100
AcDbLine
 62
7
  6
CONTINUOUS
 10
137.4129471984
 20
127.2076327695
 11
137.4119677714
 21
127.2067846099
  0
LINE
  5
296
100
AcDbEntity
  8
0
100
AcDbLine
 62
7
  6
CONTINUOUS
 10
137.9129483522
 20
127.6356080706
 11
137.4129480262
 21
127.2076334781
  0
LINE
  5
297
100
AcDbEntity
  8
0
100
AcDbLine
 62
253
  6
CONTINUOUS
 10
138.0433836167
 20
127.6572017887
 11
137.5433836167
 21
127.2292274752
  0
LINE
  5
298
100
AcDbEntity
  8
RACCORDO
100
AcDbLine
 62
7
  6
CONTINUOUS
 10
137.1933836167
 20
126.8339108783
 11
136.906234223
 21
126.6048662853
  0
LWPOLYLINE
  5
299
100
AcDbEntity
  8
0
100
AcDbPolyline
 62
7
  6
CONTINUOUS
 90
5
 70
0
 10
143.3087206904
 20
129.8824467972
 10
143.3165272166
 20
129.8875175708
 10
143.3247881201
 20
129.8920515889
 10
143.3334975661
 20
129.8960405177
 10
143.3426444449
 20
129.8994781855
  0
LWPOLYLINE
  5
29A
100
AcDbEntity
  8
RACCORDO
100
AcDbPolyline
 62
253
  6
CONTINUOUS
 90
10
 70
0
 10
147.6723341166
 20
132.5624500709
 10
147.7279772832
 20
132.5973658789
 10
147.7877605655
 20
132.6259330204
 10
147.8512291528
 20
132.6479341664
 10
147.917900198
 20
132.6632019399
 10
147.9872664909
 20
132.6716201888
 10
148.0588003164
 20
132.6731248701
 10
148.1319574698
 20
132.6677045367
 10
148.2061813969
 20
132.6554004247
 10
148.2809074276
 20
132.6363061397
  0
LINE
  5
29B
100
AcDbEntity
  8
DRAFT
100
AcDbLine
 62
7
  6
CONTINUOUS
 10
148.6670324109
 20
129.2428885086
 11
148.5794809684
 21
129.2020474892
  0
LINE
  5
29C
100
AcDbEntity
  8
0
100
AcDbLine
 62
7
  6
CONTINUOUS
 10
146.1595805579
 20
87.9358660027
 11
146.1607142688
 21
87.9355387285
  0
LWPOLYLINE
  5
29D
100
AcDbEntity
  8
RACCORDO
100
AcDbPolyline
 62
253
  6
CONTINUOUS
 90
37
 70
0
 10
132.3458199597
 20
92.5565495368
 10
132.2857687507
 20
92.5745237127
 10
132.224917881
 20
92.594398325
 10
132.1632674423
 20
92.6161734611
 10
132.1010089629
 20
92.6396707724
 10
132.0379512825
 20
92.6650689576
 10
131.9735206233
 20
92.6929038296
 10
131.9075768707
 20
92.72316897
 10
131.8402611239
 20
92.7558717331
 10
131.7714218001
 20
92.791568947
 10
131.7010462022
 20
92.8302002637
 10
131.6291490803
 20
92.8718279793
 10
131.5556207697
 20
92.9171935973
 10
131.4803782863
 20
92.9662642723
 10
131.4035085768
 20
93.0190766012
 10
131.3251582508
 20
93.0764775527
 10
131.2452142338
 20
93.1384541608
 10
131.1637968184
 20
93.205026203
 10
131.0814049853
 20
93.2770919481
 10
130.9978889315
 20
93.3546735336
 10
130.9134109273
 20
93.4377605329
 10
130.828941641
 20
93.5272057197
 10
130.7442781945
 20
93.6231100726
 10
130.6596438452
 20
93.7253916357
 10
130.5766533356
 20
93.8346333055
 10
130.4949611608
 20
93.9513440923
 10
130.4149442351
 20
94.0750440569
 10
130.3393044152
 20
94.2048358383
 10
130.2680071876
 20
94.3412513835
 10
130.2011258243
 20
94.4837941683
 10
130.1415206968
 20
94.6300210645
 10
130.0894944557
 20
94.7802266672
 10
130.0447797267
 20
94.9341479715
 10
130.0093694064
 20
95.0884938902
 10
129.9839303535
 20
95.2421693524
 10
129.9678132336
 20
95.3962842971
 10
129.9610280891
 20
95.550847228
  0
LWPOLYLINE
  5
29E
100
AcDbEntity
  8
0
100
AcDbPolyline
 62
7
  6
CONTINUOUS
 90
4
 70
0
 10
145.5737000572
 20
84.1623587913
 10
145.5989727406
 20
84.1457042076
 10
145.6219244673
 20
84.1262350921
 10
145.6423306238
 20
84.1041973785
  0
LINE
  5
29F
100
AcDbEntity
  8
0
100
AcDbLine
 62
7
  6
CONTINUOUS
 10
126.5668416726
 20
129.231841622
 11
126.5668416726
 21
128.8918676878
  0
LWPOLYLINE
  5
2A0
100
AcDbEntity
  8
0
100
AcDbPolyline
 62
253
  6
CONTINUOUS
 90
34
 70
0
 10
126.6918416726
 20
129.1235884465
 10
126.6919822474
 20
129.1339752647
 10
126.6924036564
 20
129.1445822192
 10
126.693104953
 20
129.155385454
 10
126.6940845618
 20
129.1663606779
 10
126.6953402803
 20
129.1774831993
 10
126.6968692821
 20
129.1887279801
 10
126.6986681268
 20
129.2000697222
 10
126.7007327689
 20
129.2114829213
 10
126.7030585633
 20
129.2229419031
 10
126.7056402787
 20
129.2344208956
 10
126.7084721074
 20
129.2458940783
 10
126.711547677
 20
129.2573356368
 10
126.7148600682
 20
129.2687198352
 10
126.7184018304
 20
129.2800210703
 10
126.7221649951
 20
129.2912139204
 10
126.7261410992
 20
129.3022732171
 10
126.7303211968
 20
129.3131740813
 10
126.7346958768
 20
129.3238919763
 10
126.7392552848
 20
129.3344027691
 10
126.7439891761
 20
129.3446828524
 10
126.7488869343
 20
129.3547091724
 10
126.7539375933
 20
129.3644592666
 10
126.7591297494
 20
129.3739111076
 10
126.7644516094
 20
129.3830432407
 10
126.7698911233
 20
129.3918350293
 10
126.7754361221
 20
129.4002668457
 10
126.7810742373
 20
129.4083198965
 10
126.7867936546
 20
129.4159771914
 10
126.7925806669
 20
129.4232202654
 10
126.7984197219
 20
129.4300299759
 10
126.8042967838
 20
129.4363907005
 10
126.8101994513
 20
129.4422897583
 10
126.8161144562
 20
129.447714521
  0
LWPOLYLINE
  5
2A1
100
AcDbEntity
  8
RACCORDO
100
AcDbPolyline
 62
7
  6
CONTINUOUS
 90
5
 70
0
 10
127.0618059206
 20
128.1814014115
 10
127.0616305984
 20
128.1770366454
 10
127.0604012426
 20
128.1682635304
 10
127.0584491916
 20
128.1612791876
 10
127.0574008865
 20
128.1586028992
  0
LINE
  5
2A2
100
AcDbEntity
  8
RACCORDO
100
AcDbLine
 62
7
  6
CONTINUOUS
 10
137.0390979122
 20
128.9415986281
 11
136.1381277284
 21
127.667478084
  0
LINE
  5
2A3
100
AcDbEntity
  8
RACCORDO
100
AcDbLine
 62
253
  6
CONTINUOUS
 10
137.182064888
 20
128.978979475
 11
136.1381277284
 21
127.5026800306
  0
LWPOLYLINE
  5
2A4
100
AcDbEntity
  8
RACCORDO
100
AcDbPolyline
 62
253
  6
CONTINUOUS
 90
16
 70
0
 10
137.6211510659
 20
128.0270609354
 10
137.6394729104
 20
128.0527249225
 10
137.6602378043
 20
128.0768253124
 10
137.6831975078
 20
128.099249474
 10
137.7080923872
 20
128.120012745
 10
137.7346322411
 20
128.1389180887
 10
137.7624948855
 20
128.1555607615
 10
137.7913709026
 20
128.1698576589
 10
137.8209503893
 20
128.1818148158
 10
137.8508987423
 20
128.1911928284
 10
137.8808531896
 20
128.1979578272
 10
137.9105667964
 20
128.202175013
 10
137.9398850105
 20
128.2037592798
 10
137.9685639026
 20
128.2026973558
 10
137.9962765039
 20
128.1990703205
 10
138.0227522363
 20
128.1929350227
  0
LINE
  5
2A5
100
AcDbEntity
  8
RACCORDO
100
AcDbLine
 62
253
  6
CONTINUOUS
 10
136.2571864989
 20
126.7922302244
 11
137.4258532168
 21
128.2241493534
  0
LINE
  5
2A6
100
AcDbEntity
  8
RACCORDO
100
AcDbLine
 62
253
  6
CONTINUOUS
 10
136.5454281588
 20
126.7090220245
 11
137.6211510659
 21
128.0270609354
  0
LWPOLYLINE
  5
2A7
100
AcDbEntity
  8
RACCORDO
100
AcDbPolyline
 62
253
  6
CONTINUOUS
 90
16
 70
0
 10
139.8507243474
 20
127.5241493534
 10
139.8819511762
 20
127.5584616821
 10
139.9163861693
 20
127.590181934
 10
139.9540293265
 20
127.619310109
 10
139.9953874746
 20
127.6460725074
 10
140.0399537869
 20
127.6702428289
 10
140.0862077833
 20
127.6911421733
 10
140.1341689955
 20
127.7086423849
 10
140.1838178917
 20
127.7228716192
 10
140.2335753974
 20
127.7335354433
 10
140.2833293564
 20
127.7405317805
 10
140.3331919248
 20
127.7439627075
 10
140.3819204971
 20
127.743840021
 10
140.4291008713
 20
127.7401676533
 10
140.4751472494
 20
127.7329416721
 10
140.5200596313
 20
127.7221620775
  0
LINE
  5
2A8
100
AcDbEntity
  8
0
100
AcDbLine
 62
7
  6
CONTINUOUS
 10
139.3846602723
 20
126.5223024554
 11
138.7852420454
 21
125.9971508398
  0
LINE
  5
2A9
100
AcDbEntity
  8
0
100
AcDbLine
 62
7
  6
CONTINUOUS
 10
144.0716180427
 20
129.6386924078
 11
140.357966179
 21
126.4167274752
  0
LINE
  5
2AA
100
AcDbEntity
  8
0
100
AcDbLine
 62
7
  6
CONTINUOUS
 10
140.357966179
 20
126.4167274752
 11
139.6004085964
 21
125.7618325259
  0
LINE
  5
2AB
100
AcDbEntity
  8
0
100
AcDbLine
 62
7
  6
CONTINUOUS
 10
143.2866964782
 20
129.8652797461
 11
140.0352420454
 21
127.0822017887
  0
LINE
  5
2AC
100
AcDbEntity
  8
0
100
AcDbLine
 62
7
  6
CONTINUOUS
 10
144.6484394794
 20
130.091294117
 11
144.1541098962
 21
129.668173389
  0
LWPOLYLINE
  5
2AD
100
AcDbEntity
  8
0
100
AcDbPolyline
 62
7
  6
CONTINUOUS
 90
7
 70
0
 10
143.2866964782
 20
129.8652797461
 10
143.2903830005
 20
129.8683876184
 10
143.2940631947
 20
129.8713968119
 10
143.2977370607
 20
129.8743073265
 10
143.3014045987
 20
129.8771191623
 10
143.3050658086
 20
129.8798323192
 10
143.3087206904
 20
129.8824467972
  0
LINE
  5
2AE
100
AcDbEntity
  8
RACCORDO
100
AcDbLine
 62
7
  6
CONTINUOUS
 10
144.1186949853
 20
129.7108341566
 11
147.6461586087
 21
132.5426604238
  0
LINE
  5
2AF
100
AcDbEntity
  8
RACCORDO
100
AcDbLine
 62
253
  6
CONTINUOUS
 10
145.1455442465
 20
130.1192557145
 11
148.2809074276
 21
132.6363061397
  0
LINE
  5
2B0
100
AcDbEntity
  8
RACCORDO
100
AcDbLine
 62
253
  6
CONTINUOUS
 10
147.6461586087
 20
132.5426604238
 11
147.6723341166
 21
132.5624500709
  0
LINE
  5
2B1
100
AcDbEntity
  8
0
100
AcDbLine
 62
7
  6
CONTINUOUS
 10
144.1437884948
 20
129.6922769106
 11
144.1361710039
 21
129.6866011842
  0
LWPOLYLINE
  5
2B2
100
AcDbEntity
  8
RACCORDO
100
AcDbPolyline
 62
7
  6
CONTINUOUS
 90
13
 70
0
 10
147.6461586087
 20
132.5426604238
 10
147.7127591778
 20
132.5917380773
 10
147.7838739746
 20
132.6355270411
 10
147.8589788697
 20
132.6734947559
 10
147.9372637585
 20
132.7051029858
 10
148.018249057
 20
132.730077503
 10
148.101866973
 20
132.748245321
 10
148.1876024416
 20
132.7592723032
 10
148.2743854716
 20
132.7628530404
 10
148.3613722956
 20
132.7588700565
 10
148.4479320887
 20
132.7472901513
 10
148.5330139136
 20
132.7282395258
 10
148.5494172088
 20
132.7236573475
  0
LINE
  5
2B3
100
AcDbEntity
  8
0
100
AcDbLine
 62
7
  6
CONTINUOUS
 10
144.1361710039
 20
129.6866011842
 11
144.1266174051
 21
129.6796120173
  0
LINE
  5
2B4
100
AcDbEntity
  8
0
100
AcDbLine
 62
7
  6
CONTINUOUS
 10
144.1266174051
 20
129.6796120173
 11
144.1152009837
 21
129.6713776724
  0
LWPOLYLINE
  5
2B5
100
AcDbEntity
  8
0
100
AcDbPolyline
 62
7
  6
CONTINUOUS
 90
3
 70
0
 10
144.1152009837
 20
129.6713776724
 10
144.1019811901
 20
129.6619728195
 10
144.0947248827
 20
129.6568472246
  0
LINE
  5
2B6
100
AcDbEntity
  8
DRAFT
100
AcDbLine
 62
7
  6
CONTINUOUS
 10
148.4957342653
 20
129.1593744727
 11
148.4871764967
 21
129.1546095749
  0
LINE
  5
2B7
100
AcDbEntity
  8
DRAFT
100
AcDbLine
 62
7
  6
CONTINUOUS
 10
148.5794809684
 20
129.2020474892
 11
148.4957342653
 21
129.1593744727
  0
LWPOLYLINE
  5
2B8
100
AcDbEntity
  8
0
100
AcDbPolyline
 62
7
  6
CONTINUOUS
 90
7
 70
0
 10
143.260577872
 20
126.4112595976
 10
143.2850417281
 20
126.4226433416
 10
143.3107800832
 20
126.4313771935
 10
143.3374591183
 20
126.4372891536
 10
143.3648168342
 20
126.4402644711
 10
143.3925077404
 20
126.4402049677
 10
143.4200080776
 20
126.4370857894
  0
LINE
  5
2B9
100
AcDbEntity
  8
ASSI
100
AcDbLine
 62
7
  6
CONTINUOUS
 10
133.2281124518
 20
93.3332087954
 11
133.0891547998
 21
93.3470503709
  0
LWPOLYLINE
  5
2BA
100
AcDbEntity
  8
0
100
AcDbPolyline
 62
7
  6
CONTINUOUS
 90
6
 70
0
 10
133.1825184405
 20
93.3907564234
 10
133.3377478909
 20
93.3748142071
 10
133.4785004372
 20
93.371896978
 10
133.6160410005
 20
93.380319962
 10
133.749600398
 20
93.4000360544
 10
133.8784317114
 20
93.4309349948
  0
LINE
  5
2BB
100
AcDbEntity
  8
ASSI
100
AcDbLine
 62
7
  6
CONTINUOUS
 10
133.0891547998
 20
93.3470503709
 11
132.9478350265
 21
93.3719229611
  0
LINE
  5
2BC
100
AcDbEntity
  8
ASSI
100
AcDbLine
 62
7
  6
CONTINUOUS
 10
132.9478350265
 20
93.3719229611
 11
132.8041531321
 21
93.4078265661
  0
LWPOLYLINE
  5
2BD
100
AcDbEntity
  8
0
100
AcDbPolyline
 62
7
  6
CONTINUOUS
 90
3
 70
0
 10
132.9041531321
 20
93.4511278363
 10
133.049768991
 20
93.4145407197
 10
133.1825184405
 20
93.3907564234
  0
LINE
  5
2BE
100
AcDbEntity
  8
RACCORDO
100
AcDbLine
 62
7
  6
CONTINUOUS
 10
133.1873581605
 20
93.4125635942
 11
133.3363605493
 21
93.3749566885
  0
LINE
  5
2BF
100
AcDbEntity
  8
RACCORDO
100
AcDbLine
 62
253
  6
CONTINUOUS
 10
133.1791531321
 20
93.4142848223
 11
133.3330220965
 21
93.3752995508
  0
LINE
  5
2C0
100
AcDbEntity
  8
RACCORDO
100
AcDbLine
 62
253
  6
CONTINUOUS
 10
123.1965026532
 20
97.5035975187
 11
129.9610280891
 21
95.550847228
  0
LINE
  5
2C1
100
AcDbEntity
  8
RACCORDO
100
AcDbLine
 62
253
  6
CONTINUOUS
 10
134.6375363217
 20
94.2008555845
 11
141.4020617576
 21
92.2481052938
  0
LWPOLYLINE
  5
2C2
100
AcDbEntity
  8
RACCORDO
100
AcDbPolyline
 62
253
  6
CONTINUOUS
 90
37
 70
0
 10
132.5955162875
 20
93.2271417585
 10
132.5466251515
 20
93.2418603565
 10
132.4970048568
 20
93.2580235324
 10
132.4466911371
 20
93.2756753462
 10
132.3959312467
 20
93.2947807052
 10
132.3445569507
 20
93.315448642
 10
132.2919912003
 20
93.3379857993
 10
132.2382009679
 20
93.3625237971
 10
132.1833396303
 20
93.389109787
 10
132.1271315354
 20
93.4179977201
 10
132.0696924989
 20
93.4492821525
 10
132.0110864598
 20
93.4830855667
 10
131.9509927441
 20
93.5197641557
 10
131.8895374066
 20
93.5594596554
 10
131.8268722621
 20
93.6023014197
 10
131.7627667135
 20
93.6486919127
 10
131.697415634
 20
93.6987884335
 10
131.6310451234
 20
93.7527347321
 10
131.5635438995
 20
93.8109691284
 10
131.4952026058
 20
93.8736448716
 10
131.4263515649
 20
93.9408984181
 10
131.357037403
 20
94.0131835994
 10
131.2876650993
 20
94.0906317561
 10
131.218718304
 20
94.1733203662
 10
131.1504848917
 20
94.2616331921
 10
131.0833665628
 20
94.3558465571
 10
131.0181944471
 20
94.4557037062
 10
130.955941644
 20
94.5607075295
 10
130.8971502907
 20
94.670874609
 10
130.842620575
 20
94.785786146
 10
130.7935292945
 20
94.904129621
 10
130.7504112619
 20
95.0255301298
 10
130.7138150314
 20
95.1495143202
 10
130.6845688285
 20
95.2745038442
 10
130.6630583237
 20
95.3996108338
 10
130.6494474705
 20
95.5246410955
 10
130.6439929816
 20
95.6490189479
  0
LWPOLYLINE
  5
2C3
100
AcDbEntity
  8
RACCORDO
100
AcDbPolyline
 62
253
  6
CONTINUOUS
 90
11
 70
0
 10
134.6375380114
 20
94.2008571037
 10
134.5936480536
 20
94.2149953173
 10
134.5529772143
 20
94.2314403018
 10
134.5159710646
 20
94.2500118934
 10
134.4830350266
 20
94.2705066303
 10
134.4545299324
 20
94.2926999818
 10
134.4307680707
 20
94.3163488076
 10
134.4120097654
 20
94.3411940222
 10
134.398460524
 20
94.366963433
 10
134.3902687855
 20
94.393374722
 10
134.3875397203
 20
94.4181535313
  0
LINE
  5
2C4
100
AcDbEntity
  8
RACCORDO
100
AcDbLine
 62
7
  6
CONTINUOUS
 10
133.0273647169
 20
93.4646084224
 11
133.187358161
 21
93.4125635941
  0
LINE
  5
2C5
100
AcDbEntity
  8
0
100
AcDbLine
 62
7
  6
CONTINUOUS
 10
132.7585372733
 20
93.498612075
 11
132.9041531321
 21
93.4511278363
  0
LWPOLYLINE
  5
2C6
100
AcDbEntity
  8
ASSI
100
AcDbPolyline
 62
7
  6
CONTINUOUS
 90
22
 70
0
 10
132.8041531321
 20
93.4078265661
 10
132.6604712377
 20
93.4548777416
 10
132.5191514645
 20
93.5115961604
 10
132.3801938124
 20
93.5779818227
 10
132.24285039
 20
93.6545123247
 10
132.1078690888
 20
93.7407100701
 10
131.9774935833
 20
93.8351422702
 10
131.8518008582
 20
93.9379465616
 10
131.7307139288
 20
94.0489853077
 10
131.6162455158
 20
94.1664128098
 10
131.508506246
 20
94.2903358542
 10
131.4073854927
 20
94.4206476546
 10
131.3145640965
 20
94.5551821535
 10
131.2301807789
 20
94.694009932
 10
131.1540968184
 20
94.8370604089
 10
131.0875768914
 20
94.981955783
 10
131.0307808579
 20
95.1287268911
 10
130.9835488578
 20
95.2773428963
 10
130.9466659868
 20
95.4253334864
 10
130.9203052277
 20
95.5726882079
 10
130.9042935976
 20
95.7194175143
 10
130.8988972438
 20
95.8630824544
  0
LWPOLYLINE
  5
2C7
100
AcDbEntity
  8
RACCORDO
100
AcDbPolyline
 62
253
  6
CONTINUOUS
 90
4
 70
0
 10
132.712726708
 20
93.5984012506
 10
132.8666557416
 20
93.5265638926
 10
133.0223868292
 20
93.465072579
 10
133.1791531321
 20
93.4142848223
  0
LWPOLYLINE
  5
2C8
100
AcDbEntity
  8
RACCORDO
100
AcDbPolyline
 62
7
  6
CONTINUOUS
 90
3
 70
0
 10
132.7083668103
 20
93.6036946369
 10
132.8673764537
 20
93.5284122622
 10
133.0273647169
 20
93.4646084224
  0
LWPOLYLINE
  5
2C9
100
AcDbEntity
  8
0
100
AcDbPolyline
 62
253
  6
CONTINUOUS
 90
24
 70
0
 10
126.6918416726
 20
128.7836145124
 10
126.6919606449
 20
128.774273671
 10
126.6923173354
 20
128.7651566766
 10
126.692911065
 20
128.7562808837
 10
126.6937407035
 20
128.747663188
 10
126.6948046717
 20
128.7393199939
 10
126.6961009443
 20
128.7312671829
 10
126.6976270538
 20
128.7235200841
 10
126.699380095
 20
128.7160934445
 10
126.7013567311
 20
128.7090014012
 10
126.7035531993
 20
128.7022574542
 10
126.7059653185
 20
128.6958744412
 10
126.7085884972
 20
128.6898645124
 10
126.7114177419
 20
128.6842391081
 10
126.7144476671
 20
128.6790089366
 10
126.7176725051
 20
128.6741839539
 10
126.7210861172
 20
128.6697733445
 10
126.7246820055
 20
128.6657855043
 10
126.728453325
 20
128.6622280245
 10
126.7323928967
 20
128.6591076767
 10
126.7364932214
 20
128.6564304009
 10
126.740746494
 20
128.6542012933
 10
126.7451446181
 20
128.6524245972
 10
126.7475041481
 20
128.6516754571
  0
LINE
  5
2CA
100
AcDbEntity
  8
RACCORDO
100
AcDbLine
 62
253
  6
CONTINUOUS
 10
127.06180329
 20
128.18196665
 11
127.061805266
 21
128.181428835
  0
LINE
  5
2CB
100
AcDbEntity
  8
0
100
AcDbLine
 62
253
  6
CONTINUOUS
 10
126.5668427396
 20
129.2314764217
 11
126.5668416726
 21
129.231841652
  0
LINE
  5
2CC
100
AcDbEntity
  8
0
100
AcDbLine
 62
253
  6
CONTINUOUS
 10
126.5668417153
 20
128.8917946393
 11
126.5668416726
 21
128.8918676862
  0
LINE
  5
2CD
100
AcDbEntity
  8
0
100
AcDbLine
 62
253
  6
CONTINUOUS
 10
126.6918416726
 20
129.1235884465
 11
126.6918416726
 21
128.7836145124
  0
LINE
  5
2CE
100
AcDbEntity
  8
0
100
AcDbLine
 62
7
  6
CONTINUOUS
 10
127.0618032842
 20
128.5609451117
 11
127.0618032842
 21
128.1821075733
  0
LINE
  5
2CF
100
AcDbEntity
  8
RACCORDO
100
AcDbLine
 62
253
  6
CONTINUOUS
 10
127.1868032842
 20
128.5248607199
 11
127.1868032842
 21
128.0635344289
  0
LWPOLYLINE
  5
2D0
100
AcDbEntity
  8
0
100
AcDbPolyline
 62
253
  6
CONTINUOUS
 90
34
 70
0
 10
128.7476225658
 20
128.5301356205
 10
128.7477631406
 20
128.5405224386
 10
128.7481845496
 20
128.5511293932
 10
128.7488858462
 20
128.5619326279
 10
128.749865455
 20
128.5729078519
 10
128.7511211735
 20
128.5840303733
 10
128.7526501753
 20
128.5952751541
 10
128.75444902
 20
128.6066168962
 10
128.756513662
 20
128.6180300953
 10
128.7588394564
 20
128.6294890771
 10
128.7614211718
 20
128.6409680696
 10
128.7642530005
 20
128.6524412523
 10
128.7673285701
 20
128.6638828108
 10
128.7706409614
 20
128.6752670092
 10
128.7741827236
 20
128.6865682442
 10
128.7779458883
 20
128.6977610944
 10
128.7819219924
 20
128.7088203911
 10
128.78610209
 20
128.7197212552
 10
128.79047677
 20
128.7304391502
 10
128.7950361779
 20
128.7409499431
 10
128.7997700692
 20
128.7512300263
 10
128.8046678275
 20
128.7612563464
 10
128.8097184865
 20
128.7710064405
 10
128.8149106425
 20
128.7804582816
 10
128.8202325026
 20
128.7895904147
 10
128.8256720164
 20
128.7983822033
 10
128.8312170153
 20
128.8068140197
 10
128.8368551305
 20
128.8148670704
 10
128.8425745477
 20
128.8225243654
 10
128.8483615601
 20
128.8297674393
 10
128.8542006151
 20
128.8365771498
 10
128.860077677
 20
128.8429378745
 10
128.8659803444
 20
128.8488369322
 10
128.8718953494
 20
128.854261695
  0
LWPOLYLINE
  5
2D1
100
AcDbEntity
  8
0
100
AcDbPolyline
 62
253
  6
CONTINUOUS
 90
11
 70
0
 10
130.6299422307
 20
129.5898191661
 10
130.6291444352
 20
129.5839048406
 10
130.6277868099
 20
129.5780162735
 10
130.6258724344
 20
129.5721666248
 10
130.6234055915
 20
129.5663689293
 10
130.6203915618
 20
129.5606357617
 10
130.6168373014
 20
129.5549804884
 10
130.612751774
 20
129.5494170585
 10
130.6081448786
 20
129.5439583156
 10
130.6030270273
 20
129.5386160332
 10
130.5974100518
 20
129.5334021269
  0
LINE
  5
2D2
100
AcDbEntity
  8
RACCORDO
100
AcDbLine
 62
7
  6
CONTINUOUS
 10
139.0888534461
 20
127.6706536254
 11
138.9152772006
 21
127.405507791
  0
LINE
  5
2D3
100
AcDbEntity
  8
RACCORDO
100
AcDbLine
 62
253
  6
CONTINUOUS
 10
139.2286224239
 20
127.7037347098
 11
139.0146166953
 21
127.376830949
  0
LWPOLYLINE
  5
2D4
100
AcDbEntity
  8
RACCORDO
100
AcDbPolyline
 62
253
  6
CONTINUOUS
 90
10
 70
0
 10
138.0951885007
 20
128.4221620775
 10
138.0817245594
 20
128.4019628413
 10
138.0691040783
 20
128.3792467466
 10
138.0575865134
 20
128.354480798
 10
138.0474086467
 20
128.3281741422
 10
138.0387797179
 20
128.3008675997
 10
138.0318771234
 20
128.2731225474
 10
138.026842769
 20
128.2455093771
 10
138.0237801526
 20
128.2185957693
 10
138.0227522363
 20
128.1929350227
  0
LWPOLYLINE
  5
2D5
100
AcDbEntity
  8
RACCORDO
100
AcDbPolyline
 62
253
  6
CONTINUOUS
 90
10
 70
0
 10
139.0331191618
 20
128.1514048177
 10
139.0196548337
 20
128.1312048897
 10
139.007034124
 20
128.1084881627
 10
138.9955164808
 20
128.0837217341
 10
138.9853386711
 20
128.0574148418
 10
138.9767098898
 20
128.0301083309
 10
138.9698074738
 20
128.0023635277
 10
138.9647732861
 20
127.9747507899
 10
138.9617107883
 20
127.9478377863
 10
138.9606829
 20
127.9221777622
  0
LWPOLYLINE
  5
2D6
100
AcDbEntity
  8
RACCORDO
100
AcDbPolyline
 62
253
  6
CONTINUOUS
 90
16
 70
0
 10
140.0460221965
 20
127.3270609354
 10
140.064344041
 20
127.3527249225
 10
140.0851089349
 20
127.3768253124
 10
140.1080686384
 20
127.399249474
 10
140.1329635178
 20
127.420012745
 10
140.1595033717
 20
127.4389180887
 10
140.1873660161
 20
127.4555607615
 10
140.2162420332
 20
127.4698576589
 10
140.2458215199
 20
127.4818148158
 10
140.2757698729
 20
127.4911928284
 10
140.3057243202
 20
127.4979578272
 10
140.335437927
 20
127.502175013
 10
140.3647561411
 20
127.5037592798
 10
140.3934350332
 20
127.5026973558
 10
140.4211476345
 20
127.4990703205
 10
140.4476233669
 20
127.4929350227
  0
LINE
  5
2D7
100
AcDbEntity
  8
RACCORDO
100
AcDbLine
 62
253
  6
CONTINUOUS
 10
139.5939879761
 20
127.2095808665
 11
139.8507243474
 21
127.5241493534
  0
LINE
  5
2D8
100
AcDbEntity
  8
RACCORDO
100
AcDbLine
 62
253
  6
CONTINUOUS
 10
139.8822296361
 20
127.1263726665
 11
140.0460221965
 21
127.3270609354
  0
LINE
  5
2D9
100
AcDbEntity
  8
0
100
AcDbLine
 62
7
  6
CONTINUOUS
 10
140.357966179
 20
125.0310868292
 11
139.6004085964
 21
124.3156697602
  0
LINE
  5
2DA
100
AcDbEntity
  8
0
100
AcDbLine
 62
7
  6
CONTINUOUS
 10
141.7196898822
 20
125.0687802562
 11
142.8343675877
 21
126.0585681994
  0
LINE
  5
2DB
100
AcDbEntity
  8
0
100
AcDbLine
 62
253
  6
CONTINUOUS
 10
141.8849564821
 20
125.097714521
 11
142.9993399966
 21
126.0872412348
  0
LWPOLYLINE
  5
2DC
100
AcDbEntity
  8
0
100
AcDbPolyline
 62
253
  6
CONTINUOUS
 90
20
 70
0
 10
141.7196898822
 20
125.0687802562
 10
141.7210387006
 20
125.0699626364
 10
141.7279678088
 20
125.0755844836
 10
141.7352541788
 20
125.0807674597
 10
141.7428813054
 20
125.0854998243
 10
141.7508319114
 20
125.0897708575
 10
141.759087987
 20
125.0935708843
 10
141.7676308301
 20
125.0968912969
 10
141.7764410895
 20
125.0997245739
 10
141.7854988078
 20
125.1020642971
 10
141.7947834674
 20
125.1039051666
 10
141.8042740363
 20
125.1052430125
 10
141.8139490164
 20
125.1060748042
 10
141.8237864916
 20
125.1063986574
 10
141.8337641779
 20
125.1062138387
 10
141.8438594734
 20
125.1055207667
 10
141.8540495103
 20
125.1043210112
 10
141.8643112056
 20
125.1026172901
 10
141.8746213144
 20
125.1004134627
 10
141.8849564821
 20
125.097714521
  0
LINE
  5
2DD
100
AcDbEntity
  8
0
100
AcDbLine
 62
7
  6
CONTINUOUS
 10
140.357966179
 20
125.0310868292
 11
144.0947248827
 21
128.2730992597
  0
LINE
  5
2DE
100
AcDbEntity
  8
0
100
AcDbLine
 62
7
  6
CONTINUOUS
 10
142.8343682294
 20
126.0585687693
 11
142.8370058645
 21
126.06085299
  0
LINE
  5
2DF
100
AcDbEntity
  8
RACCORDO
100
AcDbLine
 62
7
  6
CONTINUOUS
 10
147.1868021412
 20
130.292995337
 11
149.5158670155
 21
132.2798040144
  0
LINE
  5
2E0
100
AcDbEntity
  8
RACCORDO
100
AcDbLine
 62
7
  6
CONTINUOUS
 10
147.7177387803
 20
129.3767271113
 11
150.4758301749
 21
131.7295168408
  0
LINE
  5
2E1
100
AcDbEntity
  8
0
100
AcDbLine
 62
7
  6
CONTINUOUS
 10
142.8370064901
 20
126.0608535184
 11
143.2168214199
 21
126.38161846
  0
LINE
  5
2E2
100
AcDbEntity
  8
0
100
AcDbLine
 62
253
  6
CONTINUOUS
 10
142.9993399966
 20
126.0872412348
 11
143.3788533323
 21
126.4077514713
  0
LINE
  5
2E3
100
AcDbEntity
  8
0
100
AcDbLine
 62
253
  6
CONTINUOUS
 10
143.2168214199
 20
126.38161846
 11
143.2224664875
 21
126.3861426326
  0
LWPOLYLINE
  5
2E4
100
AcDbEntity
  8
0
100
AcDbPolyline
 62
7
  6
CONTINUOUS
 90
19
 70
0
 10
142.8370058645
 20
126.06085299
 10
142.8426491893
 20
126.0653756928
 10
142.8499356104
 20
126.0705587053
 10
142.8575604764
 20
126.0752890441
 10
142.8655065359
 20
126.0795560118
 10
142.8737557837
 20
126.0833499388
 10
142.8822894968
 20
126.0866622028
 10
142.8910883802
 20
126.0894853328
 10
142.9001325126
 20
126.0918129441
 10
142.9094013397
 20
126.0936397115
 10
142.9188739156
 20
126.0949615421
 10
142.9285288093
 20
126.0957754661
 10
142.9383440536
 20
126.0960795633
 10
142.948297479
 20
126.0958732023
 10
142.9583665809
 20
126.0951568883
 10
142.9685284275
 20
126.0939321446
 10
142.9787600039
 20
126.092201752
 10
142.9890382632
 20
126.089969742
 10
142.9993399966
 20
126.0872412348
  0
LWPOLYLINE
  5
2E5
100
AcDbEntity
  8
0
100
AcDbPolyline
 62
7
  6
CONTINUOUS
 90
3
 70
0
 10
143.2168214199
 20
126.38161846
 10
143.237749871
 20
126.3974868453
 10
143.260577872
 20
126.4112595976
  0
LWPOLYLINE
  5
2E6
100
AcDbEntity
  8
0
100
AcDbPolyline
 62
253
  6
CONTINUOUS
 90
18
 70
0
 10
143.2224664875
 20
126.3861426326
 10
143.2297528576
 20
126.3913256088
 10
143.2373753263
 20
126.3960539395
 10
143.2453166271
 20
126.4003169141
 10
143.2535587711
 20
126.4041048759
 10
143.262083088
 20
126.4074092444
 10
143.2708702685
 20
126.4102225343
 10
143.2799004074
 20
126.4125383731
 10
143.2891530496
 20
126.4143515148
 10
143.2986072357
 20
126.4156578522
 10
143.3082415499
 20
126.4164544261
 10
143.3180341682
 20
126.4167394323
 10
143.3279629083
 20
126.4165122249
 10
143.3380052793
 20
126.4157733189
 10
143.348138533
 20
126.4145243878
 10
143.3583397153
 20
126.4127682608
 10
143.3685857182
 20
126.410508916
 10
143.3788533323
 20
126.4077514713
  0
LWPOLYLINE
  5
2E7
100
AcDbEntity
  8
RACCORDO
100
AcDbPolyline
 62
253
  6
CONTINUOUS
 90
16
 70
0
 10
129.9610300026
 20
95.5508489478
 10
130.0076608011
 20
95.5388558792
 10
130.0565192504
 20
95.5294558202
 10
130.1070700751
 20
95.5227517545
 10
130.1587594582
 20
95.5188171295
 10
130.2110211095
 20
95.5176950513
 10
130.263282469
 20
95.5193978133
 10
130.31497098
 20
95.5239067604
 10
130.3655203616
 20
95.5311724943
 10
130.4143768131
 20
95.5411154141
 10
130.4610050805
 20
95.5536265889
 10
130.5048943213
 20
95.5685689507
 10
130.5455637007
 20
95.5857787963
 10
130.5825676596
 20
95.6050675808
 10
130.6155007957
 20
95.6262239833
 10
130.6440023056
 20
95.6490162218
  0
LWPOLYLINE
  5
2E8
100
AcDbEntity
  8
RACCORDO
100
AcDbPolyline
 62
253
  6
CONTINUOUS
 90
34
 70
0
 10
132.277320515
 20
97.1892057471
 10
132.3429062251
 20
97.1695344591
 10
132.4095652839
 20
97.1474609505
 10
132.4772977157
 20
97.1229852427
 10
132.5458805928
 20
97.096356245
 10
132.6155369402
 20
97.0673251347
 10
132.6869357577
 20
97.0351453772
 10
132.7602805895
 20
96.9998205586
 10
132.8353681666
 20
96.9613473376
 10
132.9122573833
 20
96.9189688906
 10
132.9909828514
 20
96.8727617876
 10
133.0715105564
 20
96.8226499901
 10
133.1537966839
 20
96.767647967
 10
133.2379772286
 20
96.7077885132
 10
133.3239173831
 20
96.6430398912
 10
133.4111675568
 20
96.5723201502
 10
133.4999109343
 20
96.4956263287
 10
133.589966529
 20
96.4129633473
 10
133.6803391983
 20
96.3232617072
 10
133.7712720872
 20
96.2264523582
 10
133.8625258568
 20
96.1226077468
 10
133.9523826793
 20
96.0108715489
 10
134.0412653643
 20
95.8907659955
 10
134.1287573017
 20
95.7627743965
 10
134.2118825026
 20
95.6274829147
 10
134.2908369592
 20
95.4841052632
 10
134.3654330399
 20
95.3334352179
 10
134.4321188725
 20
95.1784286411
 10
134.4905144176
 20
95.0186849968
 10
134.5410074887
 20
94.8546118107
 10
134.5811951345
 20
94.690374484
 10
134.6102767588
 20
94.5273618454
 10
134.6290564702
 20
94.3641882571
 10
134.6375363217
 20
94.2008555845
  0
LWPOLYLINE
  5
2E9
100
AcDbEntity
  8
RACCORDO
100
AcDbPolyline
 62
7
  6
CONTINUOUS
 90
25
 70
0
 10
132.3886593282
 20
96.9311911377
 10
132.4444966944
 20
96.914259447
 10
132.5761634338
 20
96.8679258829
 10
132.7081775093
 20
96.8124181968
 10
132.8397426222
 20
96.7479398952
 10
132.9700598829
 20
96.6747688898
 10
133.0983778737
 20
96.5932337957
 10
133.2239296127
 20
96.5037421063
 10
133.3459819875
 20
96.4067590515
 10
133.463888867
 20
96.3027492629
 10
133.5769664386
 20
96.1922819941
 10
133.684574989
 20
96.0759640758
 10
133.7861863154
 20
95.9543703092
 10
133.8812272785
 20
95.8281795829
 10
133.9691855186
 20
95.6981202398
 10
134.0496361337
 20
95.5648626896
 10
134.1221510112
 20
95.4291794481
 10
134.1863774325
 20
95.2918841927
 10
134.2420231992
 20
95.1537505556
 10
134.2888372444
 20
95.0156103959
 10
134.3266702768
 20
94.8782690048
 10
134.355420666
 20
94.7425029586
 10
134.375047805
 20
94.6091413587
 10
134.385632272
 20
94.479049881
 10
134.3875355424
 20
94.4182913295
  0
LWPOLYLINE
  5
2EA
100
AcDbEntity
  8
RACCORDO
100
AcDbPolyline
 62
253
  6
CONTINUOUS
 90
11
 70
0
 10
127.061805266
 20
128.181428835
 10
127.0632753013
 20
128.1666000707
 10
127.0674025501
 20
128.1522073028
 10
127.0741333921
 20
128.1382432991
 10
127.0834240806
 20
128.1248392978
 10
127.0952032186
 20
128.1121210108
 10
127.1093535179
 20
128.100225401
 10
127.1257565039
 20
128.0893006605
 10
127.1442618771
 20
128.0794749166
 10
127.1646802661
 20
128.0708520052
 10
127.1868032842
 20
128.0635344289
  0
LINE
  5
2EB
100
AcDbEntity
  8
RACCORDO
100
AcDbLine
 62
7
  6
CONTINUOUS
 10
130.9627215584
 20
96.1206278723
 11
130.9704847002
 21
96.0223504161
  0
LINE
  5
2EC
100
AcDbEntity
  8
RACCORDO
100
AcDbLine
 62
253
  6
CONTINUOUS
 10
130.9625869627
 20
96.1194721567
 11
130.9677813608
 21
96.0437419911
  0
LWPOLYLINE
  5
2ED
100
AcDbEntity
  8
0
100
AcDbPolyline
 62
7
  6
CONTINUOUS
 90
21
 70
0
 10
130.9555959736
 20
95.9621849948
 10
130.9610445346
 20
95.8149962719
 10
130.9773597471
 20
95.6654849599
 10
131.0044503698
 20
95.5144871866
 10
131.0421649009
 20
95.362847393
 10
131.0902924255
 20
95.2114136101
 10
131.148563795
 20
95.0610327172
 10
131.2166531321
 20
94.9125457052
 10
131.2941796538
 20
94.7667829737
 10
131.3807098002
 20
94.624559687
 10
131.4757596597
 20
94.4866712155
 10
131.5787976749
 20
94.3538886874
 10
131.6892476155
 20
94.2269546764
 10
131.8064918005
 20
94.1065790491
 10
131.9298745529
 20
93.9934349948
 10
132.0587058663
 20
93.8881552609
 10
132.1922652638
 20
93.7913286144
 10
132.329805827
 20
93.7034965492
 10
132.4705583734
 20
93.6251502578
 10
132.6137357575
 20
93.5567278845
 10
132.7585372733
 20
93.498612075
  0
LWPOLYLINE
  5
2EE
100
AcDbEntity
  8
0
100
AcDbPolyline
 62
253
  6
CONTINUOUS
 90
24
 70
0
 10
128.7476225658
 20
128.1901616863
 10
128.747741569
 20
128.1808196477
 10
128.7480983519
 20
128.1717015162
 10
128.7486922352
 20
128.1628246531
 10
128.7495220856
 20
128.154205983
 10
128.7505863244
 20
128.1458618924
 10
128.7518829365
 20
128.1378082053
 10
128.7534094697
 20
128.1300602123
 10
128.7551630149
 20
128.1226327297
 10
128.7571402126
 20
128.1155399942
 10
128.75933728
 20
128.1087955497
 10
128.761750043
 20
128.1024121865
 10
128.7643739239
 20
128.096402013
 10
128.7672039496
 20
128.0907764369
 10
128.7702347147
 20
128.0855462181
 10
128.7734604012
 20
128.0807213867
 10
128.7768748285
 20
128.0763111528
 10
128.7804715171
 20
128.0723238532
 10
128.7842436596
 20
128.0687670237
 10
128.7881845567
 20
128.0656470886
 10
128.7922862611
 20
128.062970443
 10
128.7965394555
 20
128.0607428814
 10
128.8009353721
 20
128.058968353
 10
128.803284454
 20
128.0582228006
  0
LINE
  5
2EF
100
AcDbEntity
  8
0
100
AcDbLine
 62
253
  6
CONTINUOUS
 10
128.7476225658
 20
128.1901616863
 11
128.7476225658
 21
128.5301356205
  0
LINE
  5
2F0
100
AcDbEntity
  8
0
100
AcDbLine
 62
253
  6
CONTINUOUS
 10
129.0883980364
 20
128.2352861316
 11
129.0883980364
 21
128.5752600657
  0
LINE
  5
2F1
100
AcDbEntity
  8
RACCORDO
100
AcDbLine
 62
253
  6
CONTINUOUS
 10
129.2526609542
 20
127.4671726879
 11
129.2526609542
 21
127.9907090876
  0
LINE
  5
2F2
100
AcDbEntity
  8
RACCORDO
100
AcDbLine
 62
253
  6
CONTINUOUS
 10
129.5934364248
 20
127.5326022231
 11
129.5934364248
 21
128.166844376
  0
LINE
  5
2F3
100
AcDbEntity
  8
0
100
AcDbLine
 62
7
  6
CONTINUOUS
 10
130.2254689547
 20
129.5582374901
 11
130.2254689547
 21
128.8311926377
  0
LINE
  5
2F4
100
AcDbEntity
  8
RACCORDO
100
AcDbLine
 62
7
  6
CONTINUOUS
 10
130.2254689547
 20
128.129476798
 11
130.2254689547
 21
128.8311926377
  0
LINE
  5
2F5
100
AcDbEntity
  8
0
100
AcDbLine
 62
253
  6
CONTINUOUS
 10
130.5974100518
 20
129.8809336436
 11
130.5974100518
 21
129.5334021269
  0
LINE
  5
2F6
100
AcDbEntity
  8
0
100
AcDbLine
 62
7
  6
CONTINUOUS
 10
130.6301801484
 20
129.942802798
 11
130.6301801484
 21
129.5952712813
  0
LINE
  5
2F7
100
AcDbEntity
  8
0
100
AcDbLine
 62
253
  6
CONTINUOUS
 10
130.6301801484
 20
129.9428028057
 11
130.6301800827
 21
129.9427121529
  0
LWPOLYLINE
  5
2F8
100
AcDbEntity
  8
RACCORDO
100
AcDbPolyline
 62
253
  6
CONTINUOUS
 90
34
 70
0
 10
129.9610280891
 20
95.550847228
 10
129.9658034387
 20
95.7088207602
 10
129.9809147874
 20
95.8609004438
 10
130.0063602423
 20
96.0070845577
 10
130.0428706625
 20
96.1483144468
 10
130.0897119773
 20
96.2836458461
 10
130.1446828496
 20
96.410246786
 10
130.2081883437
 20
96.5275080426
 10
130.279815906
 20
96.6360321053
 10
130.3561348673
 20
96.7348019778
 10
130.43700535
 20
96.8231391442
 10
130.5225589987
 20
96.9017147451
 10
130.6097718655
 20
96.9715357721
 10
130.6982346622
 20
97.0323294875
 10
130.7883504418
 20
97.0843630559
 10
130.8783146627
 20
97.1294541246
 10
130.9678710517
 20
97.1676541359
 10
131.0572720217
 20
97.1989082025
 10
131.1454770931
 20
97.2248753986
 10
131.2323032985
 20
97.2456553302
 10
131.3179313756
 20
97.2611464038
 10
131.4018671148
 20
97.27270653
 10
131.4839740785
 20
97.2804444813
 10
131.5643874989
 20
97.2842504115
 10
131.6430211026
 20
97.2851546879
 10
131.7198099276
 20
97.2832578556
 10
131.79481833
 20
97.2784588301
 10
131.8681542485
 20
97.2714857431
 10
131.9397031118
 20
97.2624418781
 10
132.0095792143
 20
97.2512237051
 10
132.0782339099
 20
97.2382492392
 10
132.1458176247
 20
97.223657796
 10
132.2121798345
 20
97.2073099725
 10
132.277320515
 20
97.1892057471
  0
LWPOLYLINE
  5
2F9
100
AcDbEntity
  8
RACCORDO
100
AcDbPolyline
 62
253
  6
CONTINUOUS
 90
37
 70
0
 10
129.9610280891
 20
112.0053298999
 10
129.9676503778
 20
112.1587291261
 10
129.9835213051
 20
112.306837772
 10
130.0086315879
 20
112.4496475893
 10
130.0435948734
 20
112.5879175275
 10
130.0877814279
 20
112.7208743532
 10
130.1393083066
 20
112.8462046041
 10
130.1984532618
 20
112.9634478575
 10
130.2649045414
 20
113.0730360655
 10
130.3358822942
 20
113.1739841648
 10
130.4113474354
 20
113.2657803164
 10
130.4913009715
 20
113.3489051908
 10
130.5730195299
 20
113.4238596683
 10
130.6561387272
 20
113.490300587
 10
130.7409914405
 20
113.5485456931
 10
130.825903285
 20
113.6000897905
 10
130.9106378328
 20
113.644935
 10
130.9954108511
 20
113.6830626989
 10
131.0792310432
 20
113.7159404298
 10
131.1619348981
 20
113.7436366713
 10
131.2436732868
 20
113.7660729241
 10
131.3239300988
 20
113.7844991385
 10
131.4025846839
 20
113.7989982604
 10
131.4797503742
 20
113.809481574
 10
131.5552643802
 20
113.8169433929
 10
131.6290402494
 20
113.8214688195
 10
131.7011604213
 20
113.8229695999
 10
131.7717168428
 20
113.8221811133
 10
131.8406696039
 20
113.8191802549
 10
131.9080565408
 20
113.8138885056
 10
131.9740869814
 20
113.8068087204
 10
132.0386956475
 20
113.7980167808
 10
132.101946832
 20
113.7874360351
 10
132.1642445987
 20
113.7753408359
 10
132.2257235358
 20
113.7618225564
 10
132.2862486865
 20
113.7467895356
 10
132.3458199597
 20
113.7302417024
  0
LWPOLYLINE
  5
2FA
100
AcDbEntity
  8
RACCORDO
100
AcDbPolyline
 62
253
  6
CONTINUOUS
 90
13
 70
0
 10
130.6439929816
 20
112.0900942635
 10
130.6493623673
 20
112.2143866986
 10
130.6627640135
 20
112.3350670945
 10
130.6839690386
 20
112.451709376
 10
130.7128386887
 20
112.5642709131
 10
130.7490168051
 20
112.672022218
 10
130.7917126995
 20
112.7736750374
 10
130.8404109286
 20
112.8690668903
 10
130.8946004678
 20
112.958105459
 10
130.9531273392
 20
113.0399332922
 10
131.0152277332
 20
113.1145666672
 10
131.0803637636
 20
113.1823200827
 10
131.1335855209
 20
113.2311364529
  0
LINE
  5
2FB
100
AcDbEntity
  8
0
100
AcDbLine
 62
253
  6
CONTINUOUS
 10
130.6301801484
 20
129.5952712369
 11
130.6299422307
 21
129.5898191661
  0
LWPOLYLINE
  5
2FC
100
AcDbEntity
  8
0
100
AcDbPolyline
 62
253
  6
CONTINUOUS
 90
12
 70
0
 10
130.6301800827
 20
129.9427121529
 10
130.6299438712
 20
129.9373695035
 10
130.6291477786
 20
129.9314546799
 10
130.6277917096
 20
129.9255653768
 10
130.6258787131
 20
129.9197148396
 10
130.6234130914
 20
129.9139162291
 10
130.6204003875
 20
129.9081825846
 10
130.6168473783
 20
129.9025268055
 10
130.6127620622
 20
129.8969616228
 10
130.6081536331
 20
129.8914995568
 10
130.6030324562
 20
129.8861528887
 10
130.5974100518
 20
129.8809336436
  0
LINE
  5
2FD
100
AcDbEntity
  8
0
100
AcDbLine
 62
7
  6
CONTINUOUS
 10
130.628341054
 20
129.5650030649
 11
130.6301801097
 21
129.5953408313
  0
LWPOLYLINE
  5
2FE
100
AcDbEntity
  8
ASSI
100
AcDbPolyline
 62
7
  6
CONTINUOUS
 90
5
 70
0
 10
130.9042935976
 20
112.4581144801
 10
130.9203052277
 20
112.5955994676
 10
130.9466659868
 20
112.7277347977
 10
130.9835488578
 20
112.8544310524
 10
131.0307808579
 20
112.9757776496
  0
LWPOLYLINE
  5
2FF
100
AcDbEntity
  8
0
100
AcDbPolyline
 62
7
  6
CONTINUOUS
 90
5
 70
0
 10
131.0421649009
 20
112.9660246751
 10
131.0044503698
 20
112.8361593761
 10
130.9773597471
 20
112.7008023811
 10
130.9610445346
 20
112.5607106614
 10
130.9555959736
 20
112.4166676667
  0
LINE
  5
300
100
AcDbEntity
  8
0
100
AcDbLine
 62
7
  6
CONTINUOUS
 10
131.0902924255
 20
113.0896720187
 11
131.0421649009
 21
112.9660246751
  0
LINE
  5
301
100
AcDbEntity
  8
ASSI
100
AcDbLine
 62
7
  6
CONTINUOUS
 10
131.0307808579
 20
112.9757776496
 11
131.0875768914
 21
113.0897575525
  0
LINE
  5
302
100
AcDbEntity
  8
0
100
AcDbLine
 62
7
  6
CONTINUOUS
 10
131.1013062048
 20
113.1117364646
 11
131.0902924255
 21
113.0896720187
  0
LINE
  5
303
100
AcDbEntity
  8
ASSI
100
AcDbLine
 62
7
  6
CONTINUOUS
 10
131.0875768914
 20
113.0897575525
 11
131.1540968184
 21
113.1962476287
  0
LWPOLYLINE
  5
304
100
AcDbEntity
  8
RACCORDO
100
AcDbPolyline
 62
253
  6
CONTINUOUS
 90
10
 70
0
 10
140.5200596313
 20
127.7221620775
 10
140.50659569
 20
127.7019628413
 10
140.4939752089
 20
127.6792467466
 10
140.482457644
 20
127.654480798
 10
140.4722797773
 20
127.6281741422
 10
140.4636508485
 20
127.6008675997
 10
140.456748254
 20
127.5731225474
 10
140.4517138996
 20
127.5455093771
 10
140.4486512832
 20
127.5185957693
 10
140.4476233669
 20
127.4929350227
  0
LINE
  5
305
100
AcDbEntity
  8
ASSI
100
AcDbLine
 62
7
  6
CONTINUOUS
 10
131.1540968184
 20
113.1962476287
 11
131.2301807789
 21
113.2953710106
  0
LWPOLYLINE
  5
306
100
AcDbEntity
  8
0
100
AcDbPolyline
 62
7
  6
CONTINUOUS
 90
7
 70
0
 10
144.1541098961
 20
129.7005881735
 10
144.1537976071
 20
129.7001997968
 10
144.1528911308
 20
129.6993790432
 10
144.1514138455
 20
129.6981644145
 10
144.1493921416
 20
129.6965709669
 10
144.1468487252
 20
129.6946014145
 10
144.1437884948
 20
129.6922769106
  0
LWPOLYLINE
  5
307
100
AcDbEntity
  8
0
100
AcDbPolyline
 62
7
  6
CONTINUOUS
 90
31
 70
0
 10
144.0701782659
 20
128.6868203838
 10
144.0803593245
 20
128.6987310698
 10
144.0898870148
 20
128.7111852487
 10
144.0987613368
 20
128.7241829205
 10
144.1069952847
 20
128.73774827
 10
144.1145758643
 20
128.7518571124
 10
144.121464093
 20
128.7664368934
 10
144.1276564043
 20
128.7814900389
 10
144.1331563648
 20
128.7970141231
 10
144.1379356912
 20
128.8129293137
 10
144.1419906714
 20
128.8292376256
 10
144.1453250176
 20
128.8459370441
 10
144.1479215831
 20
128.8629416929
 10
144.1497765675
 20
128.8802531446
 10
144.1508937712
 20
128.8978698267
 10
144.1512674492
 20
128.9157011462
 10
144.1508937712
 20
128.9337482087
 10
144.1497765675
 20
128.9520099087
 10
144.1479215831
 20
128.9703923361
 10
144.1453250176
 20
128.9888961128
 10
144.1419906714
 20
129.0075206169
 10
144.1379356912
 20
129.0261700727
 10
144.1331563648
 20
129.0448446088
 10
144.1276564043
 20
129.0635440965
 10
144.121464093
 20
129.0821723747
 10
144.1145758643
 20
129.1007290764
 10
144.1069952847
 20
129.1192145684
 10
144.0987613368
 20
129.13753379
 10
144.0898870148
 20
129.155655054
 10
144.0803593245
 20
129.1736100474
 10
144.0701782659
 20
129.1913987704
  0
LINE
  5
308
100
AcDbEntity
  8
ASSI
100
AcDbLine
 62
7
  6
CONTINUOUS
 10
131.2301807789
 20
113.2953710106
 11
131.255862097
 21
113.3227949041
  0
LWPOLYLINE
  5
309
100
AcDbEntity
  8
0
100
AcDbPolyline
 62
7
  6
CONTINUOUS
 90
8
 70
0
 10
141.7196898822
 20
125.0687802562
 10
141.6983531727
 20
125.0473909612
 10
141.6794718051
 20
125.0231787941
 10
141.6635268927
 20
124.9964991715
 10
141.6509224453
 20
124.9677900693
 10
141.6419954969
 20
124.9376628486
 10
141.6369284905
 20
124.9067584137
 10
141.6356847655
 20
124.8814764217
  0
LINE
  5
30A
100
AcDbEntity
  8
RACCORDO
100
AcDbLine
 62
253
  6
CONTINUOUS
 10
142.1306453101
 20
123.916657626
 11
141.9948650796
 21
123.7850218897
  0
LINE
  5
30B
100
AcDbEntity
  8
RACCORDO
100
AcDbLine
 62
7
  6
CONTINUOUS
 10
142.1287478827
 20
123.8097678846
 11
142.1288443539
 21
123.8098612919
  0
LINE
  5
30C
100
AcDbEntity
  8
DRAFT
100
AcDbLine
 62
7
  6
CONTINUOUS
 10
148.2342537131
 20
129.0561587105
 11
144.77294579
 21
126.0481774892
  0
LINE
  5
30D
100
AcDbEntity
  8
DRAFT
100
AcDbLine
 62
7
  6
CONTINUOUS
 10
150.4760471268
 20
131.3841225167
 11
148.1369461505
 21
129.3528480509
  0
LINE
  5
30E
100
AcDbEntity
  8
0
100
AcDbLine
 62
253
  6
CONTINUOUS
 10
145.0778082936
 20
125.4872391194
 11
145.4497493907
 21
125.8099352729
  0
LINE
  5
30F
100
AcDbEntity
  8
0
100
AcDbLine
 62
253
  6
CONTINUOUS
 10
145.2943109806
 20
125.2082374901
 11
145.6662520777
 21
125.5309336436
  0
LINE
  5
310
100
AcDbEntity
  8
RACCORDO
100
AcDbLine
 62
7
  6
CONTINUOUS
 10
131.1335855209
 20
113.2311364529
 11
131.1353324419
 21
113.2326501234
  0
LINE
  5
311
100
AcDbEntity
  8
0
100
AcDbLine
 62
253
  6
CONTINUOUS
 10
143.9407373752
 20
124.504261695
 11
145.0778082936
 21
125.4872391194
  0
LINE
  5
312
100
AcDbEntity
  8
0
100
AcDbLine
 62
253
  6
CONTINUOUS
 10
144.1572400622
 20
124.2252600657
 11
145.2943109806
 21
125.2082374901
  0
LINE
  5
313
100
AcDbEntity
  8
DRAFT
100
AcDbLine
 62
7
  6
CONTINUOUS
 10
148.1369461505
 20
129.3528480509
 11
148.0518681533
 21
129.2802722695
  0
LINE
  5
314
100
AcDbEntity
  8
RACCORDO
100
AcDbLine
 62
7
  6
CONTINUOUS
 10
148.569865689
 20
129.1542543386
 11
148.5491780857
 21
129.1367112579
  0
LWPOLYLINE
  5
315
100
AcDbEntity
  8
RACCORDO
100
AcDbPolyline
 62
7
  6
CONTINUOUS
 90
14
 70
0
 10
131.1336317951
 20
113.2311740885
 10
131.1716206228
 20
113.2626936874
 10
131.2619915464
 20
113.3271678969
 10
131.3585456245
 20
113.3824557556
 10
131.4606541433
 20
113.4283800667
 10
131.5677635151
 20
113.4648924632
 10
131.6792704094
 20
113.4919502333
 10
131.7942588406
 20
113.5095290998
 10
131.9115417215
 20
113.5177275337
 10
132.0307855177
 20
113.5168053858
 10
132.1523521936
 20
113.5068796535
 10
132.2759290039
 20
113.487949468
 10
132.4004436125
 20
113.4601704088
 10
132.4568107988
 20
113.4447728464
  0
LWPOLYLINE
  5
316
100
AcDbEntity
  8
RACCORDO
100
AcDbPolyline
 62
7
  6
CONTINUOUS
 90
7
 70
0
 10
157.2863629053
 20
124.7119235276
 10
157.2707505283
 20
124.7061802971
 10
157.2560180153
 20
124.7029453223
 10
157.2421653664
 20
124.702218603
 10
157.2291925815
 20
124.7040001394
 10
157.2170996607
 20
124.7082899314
 10
157.2058866039
 20
124.7150879791
  0
LWPOLYLINE
  5
317
100
AcDbEntity
  8
RACCORDO
100
AcDbPolyline
 62
7
  6
CONTINUOUS
 90
17
 70
0
 10
130.9948467393
 20
95.8580981497
 10
131.0307356782
 20
95.6920041004
 10
131.0780669085
 20
95.5248746514
 10
131.1365774315
 20
95.3579006023
 10
131.2060410238
 20
95.1918963586
 10
131.2861168318
 20
95.0278341998
 10
131.3763691453
 20
94.8667138894
 10
131.4763871821
 20
94.7093605044
 10
131.585662097
 20
94.5566675846
 10
131.7035528127
 20
94.4095951459
 10
131.8293802652
 20
94.2690216591
 10
131.9623571343
 20
94.1358272853
 10
132.1017515083
 20
94.0107283738
 10
132.2469066594
 20
93.89431439
 10
132.3970739863
 20
93.7872065425
 10
132.551257803
 20
93.6901189814
 10
132.7083668103
 20
93.6036946369
  0
LWPOLYLINE
  5
318
100
AcDbEntity
  8
RACCORDO
100
AcDbPolyline
 62
7
  6
CONTINUOUS
 90
17
 70
0
 10
130.9948467393
 20
104.0853394856
 10
131.0307356782
 20
103.9192454363
 10
131.0780669085
 20
103.7521159873
 10
131.1365774315
 20
103.5851419382
 10
131.2060410238
 20
103.4191376945
 10
131.2861168318
 20
103.2550755357
 10
131.3763691453
 20
103.0939552253
 10
131.4763871821
 20
102.9366018404
 10
131.585662097
 20
102.7839089205
 10
131.7035528127
 20
102.6368364819
 10
131.8293802652
 20
102.496262995
 10
131.9623571343
 20
102.3630686212
 10
132.1017515083
 20
102.2379697097
 10
132.2469066594
 20
102.121555726
 10
132.3970739863
 20
102.0144478784
 10
132.551257803
 20
101.9173603174
 10
132.7083668103
 20
101.8309359729
  0
LINE
  5
319
100
AcDbEntity
  8
ASSI
100
AcDbLine
 62
7
  6
CONTINUOUS
 10
131.0258752204
 20
104.2734198392
 11
131.0001227322
 21
104.4371969223
  0
LINE
  5
31A
100
AcDbEntity
  8
RACCORDO
100
AcDbLine
 62
7
  6
CONTINUOUS
 10
130.9704847002
 20
96.0223504161
 11
130.9948467393
 21
95.8580981497
  0
LINE
  5
31B
100
AcDbEntity
  8
RACCORDO
100
AcDbLine
 62
7
  6
CONTINUOUS
 10
130.9704847002
 20
104.249591752
 11
130.9948467393
 21
104.0853394856
  0
LWPOLYLINE
  5
31C
100
AcDbEntity
  8
RACCORDO
100
AcDbPolyline
 62
253
  6
CONTINUOUS
 90
19
 70
0
 10
130.9677813608
 20
96.0437419911
 10
130.9893456153
 20
95.8840450545
 10
131.021534228
 20
95.7232104994
 10
131.0641740301
 20
95.5620383163
 10
131.1170387801
 20
95.4013230558
 10
131.1798609205
 20
95.2418292803
 10
131.2523321415
 20
95.0843068781
 10
131.3340763372
 20
94.929543016
 10
131.4247012623
 20
94.7782534971
 10
131.5238294632
 20
94.6310676519
 10
131.6309907702
 20
94.4886998885
 10
131.7456738922
 20
94.3518444255
 10
131.8674119478
 20
94.2210862467
 10
131.9956385661
 20
94.0970739209
 10
132.1297445888
 20
93.9804352118
 10
132.2691705471
 20
93.8717034773
 10
132.4132769551
 20
93.7714346307
 10
132.5613587544
 20
93.6801742968
 10
132.712726708
 20
93.5984012506
  0
LWPOLYLINE
  5
31D
100
AcDbEntity
  8
RACCORDO
100
AcDbPolyline
 62
253
  6
CONTINUOUS
 90
19
 70
0
 10
130.9677813608
 20
104.270983327
 10
130.9893456153
 20
104.1112863904
 10
131.021534228
 20
103.9504518354
 10
131.0641740301
 20
103.7892796523
 10
131.1170387801
 20
103.6285643918
 10
131.1798609205
 20
103.4690706162
 10
131.2523321415
 20
103.311548214
 10
131.3340763372
 20
103.1567843519
 10
131.4247012623
 20
103.0054948331
 10
131.5238294632
 20
102.8583089878
 10
131.6309907702
 20
102.7159412245
 10
131.7456738922
 20
102.5790857614
 10
131.8674119478
 20
102.4483275826
 10
131.9956385661
 20
102.3243152568
 10
132.1297445888
 20
102.2076765477
 10
132.2691705471
 20
102.0989448132
 10
132.4132769551
 20
101.9986759666
 10
132.5613587544
 20
101.9074156328
 10
132.712726708
 20
101.8256425865
  0
LINE
  5
31E
100
AcDbEntity
  8
ASSI
100
AcDbLine
 62
7
  6
CONTINUOUS
 10
131.0001227322
 20
104.4371969223
 11
130.9904002687
 21
104.5387173847
  0
LINE
  5
31F
100
AcDbEntity
  8
ASSI
100
AcDbLine
 62
7
  6
CONTINUOUS
 10
130.9904002687
 20
112.7659587207
 11
131.0001890489
 21
112.6637457894
  0
LWPOLYLINE
  5
320
100
AcDbEntity
  8
RACCORDO
100
AcDbPolyline
 62
253
  6
CONTINUOUS
 90
26
 70
0
 10
131.1082834223
 20
113.0199191085
 10
131.1242088863
 20
112.8529653551
 10
131.1506795478
 20
112.6843354625
 10
131.1875603415
 20
112.5148477631
 10
131.2347102193
 20
112.3451205051
 10
131.2920441366
 20
112.1755695133
 10
131.359468002
 20
112.0067048161
 10
131.4366800402
 20
111.8394799691
 10
131.5232119676
 20
111.6749667113
 10
131.6186042486
 20
111.5140014295
 10
131.7225091501
 20
111.3571373446
 10
131.8345193142
 20
111.2049890165
 10
131.9541850934
 20
111.0581808357
 10
132.0809723719
 20
110.9173807518
 10
132.2143009663
 20
110.7832345429
 10
132.3535707041
 20
110.6563383331
 10
132.4982045321
 20
110.5372105269
 10
132.647616993
 20
110.4263339555
 10
132.8011933959
 20
110.3241726023
 10
132.9582512114
 20
110.2311881153
 10
133.1180774181
 20
110.1478032581
 10
133.2799580263
 20
110.0743844771
 10
133.4432224666
 20
110.0112299224
 10
133.6072084876
 20
109.9585963337
 10
133.7712376981
 20
109.9167084527
 10
133.8991836417
 20
109.8924664025
  0
LINE
  5
321
100
AcDbEntity
  8
RACCORDO
100
AcDbLine
 62
7
  6
CONTINUOUS
 10
130.9627215584
 20
104.3478692082
 11
130.9704847002
 21
104.249591752
  0
LINE
  5
322
100
AcDbEntity
  8
RACCORDO
100
AcDbLine
 62
7
  6
CONTINUOUS
 10
130.9704107729
 20
112.477482727
 11
130.9627382312
 21
112.575253706
  0
LINE
  5
323
100
AcDbEntity
  8
RACCORDO
100
AcDbLine
 62
253
  6
CONTINUOUS
 10
130.9625869627
 20
104.3467134926
 11
130.9677813608
 21
104.270983327
  0
LINE
  5
324
100
AcDbEntity
  8
RACCORDO
100
AcDbLine
 62
253
  6
CONTINUOUS
 10
130.962586512
 20
112.5739509585
 11
130.9677359039
 21
112.4986707098
  0
LWPOLYLINE
  5
325
100
AcDbEntity
  8
RACCORDO
100
AcDbPolyline
 62
253
  6
CONTINUOUS
 90
4
 70
0
 10
131.4538136109
 20
104.70430712
 10
131.4432622826
 20
104.8783179168
 10
131.4419536691
 20
105.0491421602
 10
131.4469541918
 20
105.1547969864
  0
LWPOLYLINE
  5
326
100
AcDbEntity
  8
RACCORDO
100
AcDbPolyline
 62
253
  6
CONTINUOUS
 90
4
 70
0
 10
131.7234384532
 20
104.7789360133
 10
131.7163232933
 20
104.9405976236
 10
131.7176813703
 20
105.1001726504
 10
131.7246237902
 20
105.2105572274
  0
LWPOLYLINE
  5
327
100
AcDbEntity
  8
0
100
AcDbPolyline
 62
7
  6
CONTINUOUS
 90
21
 70
0
 10
130.9555959736
 20
104.1894263308
 10
130.9610445346
 20
104.0422376083
 10
130.977359747
 20
103.8927262965
 10
131.0044503696
 20
103.7417285235
 10
131.0421649007
 20
103.5900887298
 10
131.0902924253
 20
103.4386549469
 10
131.1485637947
 20
103.2882740539
 10
131.2166531318
 20
103.1397870418
 10
131.2941796535
 20
102.9940243102
 10
131.3807097999
 20
102.8518010235
 10
131.4757596594
 20
102.7139125519
 10
131.5787976746
 20
102.5811300238
 10
131.6892476151
 20
102.4541960127
 10
131.8064918002
 20
102.3338203854
 10
131.9298745526
 20
102.220676331
 10
132.0587058661
 20
102.1153965971
 10
132.1922652636
 20
102.0185699505
 10
132.3298058269
 20
101.9307378853
 10
132.4705583732
 20
101.8523915939
 10
132.6137357574
 20
101.7839692205
 10
132.7585372733
 20
101.7258534109
  0
LWPOLYLINE
  5
328
100
AcDbEntity
  8
0
100
AcDbPolyline
 62
7
  6
CONTINUOUS
 90
21
 70
0
 10
130.9555959736
 20
112.4166676667
 10
130.9610445346
 20
112.2694789438
 10
130.9773597471
 20
112.1199676318
 10
131.0044503698
 20
111.9689698585
 10
131.0421649009
 20
111.8173300649
 10
131.0902924255
 20
111.665896282
 10
131.148563795
 20
111.5155153891
 10
131.2166531321
 20
111.3670283771
 10
131.2941796538
 20
111.2212656456
 10
131.3807098002
 20
111.0790423589
 10
131.4757596597
 20
110.9411538874
 10
131.5787976749
 20
110.8083713593
 10
131.6892476155
 20
110.6814373483
 10
131.8064918005
 20
110.561061721
 10
131.9298745529
 20
110.4479176667
 10
132.0587058663
 20
110.3426379328
 10
132.1922652638
 20
110.2458112863
 10
132.329805827
 20
110.1579792211
 10
132.4705583734
 20
110.0796329297
 10
132.6137357575
 20
110.0112105564
 10
132.7585372733
 20
109.9530947469
  0
LWPOLYLINE
  5
329
100
AcDbEntity
  8
0
100
AcDbPolyline
 62
7
  6
CONTINUOUS
 90
28
 70
0
 10
131.0796627204
 20
113.0623625982
 10
131.084657976
 20
112.9125213942
 10
131.1001890489
 20
112.7503483298
 10
131.1258752204
 20
112.5872637156
 10
131.1619128919
 20
112.4225634059
 10
131.208105662
 20
112.2569515466
 10
131.2638643256
 20
112.0925405744
 10
131.3293114202
 20
111.9293458727
 10
131.4043244083
 20
111.7673520582
 10
131.4879464733
 20
111.6086254185
 10
131.5802878957
 20
111.4532078055
 10
131.681238395
 20
111.3010573674
 10
131.7895103122
 20
111.1541148359
 10
131.9051974334
 20
111.0124469233
 10
132.0282059726
 20
110.8759869175
 10
132.1569669131
 20
110.7464754133
 10
132.2915539419
 20
110.6240014196
 10
132.4318933719
 20
110.5084759276
 10
132.5761951248
 20
110.4013725051
 10
132.7245099572
 20
110.3027990373
 10
132.8767871125
 20
110.2126476389
 10
133.0310842424
 20
110.1320682226
 10
133.1874272225
 20
110.0611834037
 10
133.3457901773
 20
109.9998705667
 10
133.5041531321
 20
109.9489117784
 10
133.6625160869
 20
109.9084396721
 10
133.8208790417
 20
109.8783216145
 10
133.8393162126
 20
109.8760361939
  0
LWPOLYLINE
  5
32A
100
AcDbEntity
  8
0
100
AcDbPolyline
 62
7
  6
CONTINUOUS
 90
25
 70
0
 10
131.0796570241
 20
104.8351066275
 10
131.0845253426
 20
104.6866649961
 10
131.1001227322
 20
104.5237994627
 10
131.1258752204
 20
104.3600223796
 10
131.1619128919
 20
104.19532207
 10
131.208105662
 20
104.0297102106
 10
131.2638643256
 20
103.8652992385
 10
131.3293114202
 20
103.7021045368
 10
131.4043244083
 20
103.5401107223
 10
131.4879464733
 20
103.3813840826
 10
131.5802878957
 20
103.2259664696
 10
131.681238395
 20
103.0738160314
 10
131.7895103122
 20
102.9268734999
 10
131.9051974334
 20
102.7852055874
 10
132.0282059726
 20
102.6487455815
 10
132.1569669131
 20
102.5192340773
 10
132.2915539419
 20
102.3967600837
 10
132.4318933719
 20
102.2812345917
 10
132.5761951248
 20
102.1741311692
 10
132.7245099572
 20
102.0755577013
 10
132.8767871125
 20
101.985406303
 10
133.0310842424
 20
101.9048268867
 10
133.1867538976
 20
101.8342027566
 10
133.3444435276
 20
101.7731506085
 10
133.5041531321
 20
101.7216704424
  0
LINE
  5
32B
100
AcDbEntity
  8
RACCORDO
100
AcDbLine
 62
253
  6
CONTINUOUS
 10
131.105074023
 20
113.1192847202
 11
131.1082834223
 21
113.0199191085
  0
LINE
  5
32C
100
AcDbEntity
  8
0
100
AcDbLine
 62
253
  6
CONTINUOUS
 10
130.5971982033
 20
129.8913366152
 11
130.5974100518
 21
129.8809336436
  0
LINE
  5
32D
100
AcDbEntity
  8
ASSI
100
AcDbLine
 62
7
  6
CONTINUOUS
 10
130.9792820015
 20
96.255924161
 11
130.9792820015
 21
95.9630377829
  0
LINE
  5
32E
100
AcDbEntity
  8
0
100
AcDbLine
 62
7
  6
CONTINUOUS
 10
131.0792820015
 20
96.6069017984
 11
131.0792820015
 21
95.521407087
  0
LINE
  5
32F
100
AcDbEntity
  8
RACCORDO
100
AcDbLine
 62
7
  6
CONTINUOUS
 10
131.1029680295
 20
96.6605830079
 11
131.1029680295
 21
95.4538132289
  0
LINE
  5
330
100
AcDbEntity
  8
DRAFT
100
AcDbLine
 62
7
  6
CONTINUOUS
 10
131.5613659892
 20
96.9723065342
 11
131.5613659892
 21
94.5906172211
  0
LINE
  5
331
100
AcDbEntity
  8
0
100
AcDbLine
 62
7
  6
CONTINUOUS
 10
131.9078976679
 20
127.9824691536
 11
131.9078976679
 21
126.5363063878
  0
LINE
  5
332
100
AcDbEntity
  8
0
100
AcDbLine
 62
7
  6
CONTINUOUS
 10
132.7230642189
 20
126.300988074
 11
132.7230642189
 21
127.7471508398
  0
LWPOLYLINE
  5
333
100
AcDbEntity
  8
RACCORDO
100
AcDbPolyline
 62
253
  6
CONTINUOUS
 90
12
 70
0
 10
130.6439929816
 20
95.6490189479
 10
130.6471994945
 20
95.776919706
 10
130.6593346923
 20
95.900879209
 10
130.6801721087
 20
96.0203762043
 10
130.7095752719
 20
96.1353571536
 10
130.7471843728
 20
96.2449098017
 10
130.7921027411
 20
96.3474566275
 10
130.8436970664
 20
96.4428085886
 10
130.9013500782
 20
96.5308897964
 10
130.9636727473
 20
96.6107555003
 10
131.0296553369
 20
96.682427789
 10
131.0927582488
 20
96.7412963186
  0
LINE
  5
334
100
AcDbEntity
  8
ASSI
100
AcDbLine
 62
7
  6
CONTINUOUS
 10
130.8988972438
 20
112.3175651263
 11
130.9042935976
 21
112.4581144801
  0
LINE
  5
335
100
AcDbEntity
  8
0
100
AcDbLine
 62
7
  6
CONTINUOUS
 10
130.8988972438
 20
104.0903237904
 11
130.9042935976
 21
104.2308731442
  0
LINE
  5
336
100
AcDbEntity
  8
ASSI
100
AcDbLine
 62
7
  6
CONTINUOUS
 10
130.8988972438
 20
95.8630824544
 11
130.9042935976
 21
96.0036318082
  0
LWPOLYLINE
  5
337
100
AcDbEntity
  8
0
100
AcDbPolyline
 62
7
  6
CONTINUOUS
 90
6
 70
0
 10
130.9042935976
 20
104.2308731442
 10
130.9203052277
 20
104.3683581317
 10
130.9466659868
 20
104.5004934618
 10
130.9835488578
 20
104.6271897164
 10
131.0307808579
 20
104.7485363137
 10
131.0875768914
 20
104.8625162165
  0
LWPOLYLINE
  5
338
100
AcDbEntity
  8
ASSI
100
AcDbPolyline
 62
7
  6
CONTINUOUS
 90
6
 70
0
 10
130.9042935976
 20
96.0036318082
 10
130.9203052277
 20
96.1411167957
 10
130.9466659868
 20
96.2732521258
 10
130.9835488578
 20
96.3999483805
 10
131.0307808579
 20
96.5212949777
 10
131.0875768914
 20
96.6352748806
  0
LINE
  5
339
100
AcDbEntity
  8
RACCORDO
100
AcDbLine
 62
7
  6
CONTINUOUS
 10
132.7437580256
 20
111.0757151797
 11
132.8109870653
 21
111.4043886536
  0
LWPOLYLINE
  5
33A
100
AcDbEntity
  8
0
100
AcDbPolyline
 62
253
  6
CONTINUOUS
 90
19
 70
0
 10
137.3093894872
 20
126.9458575471
 10
137.3123340094
 20
126.9558669664
 10
137.3154990764
 20
126.9657911336
 10
137.318876109
 20
126.9756031716
 10
137.322455946
 20
126.9852764596
 10
137.3262288624
 20
126.994784704
 10
137.3301845789
 20
127.004101985
 10
137.3343123192
 20
127.013202913
 10
137.3386008467
 20
127.0220627095
 10
137.3430384929
 20
127.0306572644
 10
137.3476131763
 20
127.0389631758
 10
137.3523124459
 20
127.0469578347
 10
137.3571235118
 20
127.0546194799
 10
137.3620332758
 20
127.0619272504
 10
137.3670283783
 20
127.0688612602
 10
137.3720952201
 20
127.075402629
 10
137.3772199941
 20
127.0815335333
 10
137.3823887462
 20
127.0872372828
 10
137.3875874126
 20
127.0924983624
  0
LWPOLYLINE
  5
33B
100
AcDbEntity
  8
0
100
AcDbPolyline
 62
7
  6
CONTINUOUS
 90
6
 70
0
 10
131.0902924253
 20
104.8624306821
 10
131.0421649007
 20
104.7387833384
 10
131.0044503696
 20
104.6089180394
 10
130.977359747
 20
104.4735610446
 10
130.9610445346
 20
104.3334693251
 10
130.9555959736
 20
104.1894263308
  0
LWPOLYLINE
  5
33C
100
AcDbEntity
  8
0
100
AcDbPolyline
 62
7
  6
CONTINUOUS
 90
25
 70
0
 10
140.357966179
 20
125.4918600211
 10
140.3647977939
 20
125.5047037676
 10
140.3710526835
 20
125.5179162242
 10
140.3767308479
 20
125.5314973911
 10
140.3818385978
 20
125.5454674476
 10
140.3863696224
 20
125.5598062143
 10
140.3903049893
 20
125.5744531527
 10
140.3936422047
 20
125.5894095436
 10
140.3963837625
 20
125.6046741063
 10
140.3985182109
 20
125.6201824595
 10
140.4000430105
 20
125.6359356187
 10
140.4009607007
 20
125.6519325685
 10
140.4012674492
 20
125.668105882
 10
140.4009607007
 20
125.6844562968
 10
140.4000430105
 20
125.7009830753
 10
140.3985182109
 20
125.7176165779
 10
140.3963837625
 20
125.7343572556
 10
140.3936422047
 20
125.7512046573
 10
140.3903049893
 20
125.7680877905
 10
140.3863696224
 20
125.785006814
 10
140.3818385978
 20
125.801961569
 10
140.3767308479
 20
125.8188805863
 10
140.3710526835
 20
125.8357400428
 10
140.3647977939
 20
125.8525637617
 10
140.357966179
 20
125.8693517429
  0
LWPOLYLINE
  5
33D
100
AcDbEntity
  8
RACCORDO
100
AcDbPolyline
 62
253
  6
CONTINUOUS
 90
16
 70
0
 10
141.9948650796
 20
123.7850218897
 10
141.9735196554
 20
123.7612901572
 10
141.9569554624
 20
123.7372129032
 10
141.9451725006
 20
123.7127901278
 10
141.9381774116
 20
123.687768201
 10
141.9359635538
 20
123.6624007528
 10
141.9385110025
 20
123.6374486728
 10
141.9459197181
 20
123.6129373758
 10
141.9580897402
 20
123.588841447
 10
141.9747012626
 20
123.5658455322
 10
141.9958744754
 20
123.5439498103
 10
142.0214891885
 20
123.5231541024
 10
142.0508650257
 20
123.5041425171
 10
142.0837751949
 20
123.4871430907
 10
142.1204464882
 20
123.4719277871
 10
142.1608789057
 20
123.4584966061
  0
LWPOLYLINE
  5
33E
100
AcDbEntity
  8
RACCORDO
100
AcDbPolyline
 62
253
  6
CONTINUOUS
 90
10
 70
0
 10
142.1608789057
 20
123.4584966061
 10
142.1775731725
 20
123.4769323104
 10
142.1936447461
 20
123.4996276051
 10
142.2086372365
 20
123.525938004
 10
142.2221248966
 20
123.5551163615
 10
142.2337247128
 20
123.5863340896
 10
142.2431072808
 20
123.6187046876
 10
142.2500061607
 20
123.6513089162
 10
142.2542254426
 20
123.6832209019
 10
142.2556453101
 20
123.7135344289
  0
LWPOLYLINE
  5
33F
100
AcDbEntity
  8
0
100
AcDbPolyline
 62
253
  6
CONTINUOUS
 90
43
 70
0
 10
142.3872747255
 20
120.4079260112
 10
142.370772633
 20
120.3919828281
 10
142.3543167904
 20
120.3751619106
 10
142.337924414
 20
120.3574812003
 10
142.3216123932
 20
120.338959629
 10
142.3053980544
 20
120.3196168661
 10
142.2892991428
 20
120.2994732967
 10
142.2733325101
 20
120.2785503799
 10
142.2575148516
 20
120.2568704185
 10
142.241863471
 20
120.2344563028
 10
142.2263947511
 20
120.2113319083
 10
142.2111248661
 20
120.187521868
 10
142.1960705193
 20
120.1630513399
 10
142.1812474729
 20
120.1379463838
 10
142.1666712207
 20
120.1122337307
 10
142.1523577002
 20
120.0859405541
 10
142.1383218964
 20
120.0590948368
 10
142.1245784813
 20
120.0317251627
 10
142.111142488
 20
120.0038604844
 10
142.098027988
 20
119.9755304566
 10
142.0852486836
 20
119.9467652285
 10
142.0728185488
 20
119.9175952331
 10
142.0607506045
 20
119.8880515035
 10
142.0490574559
 20
119.8581654747
 10
142.0377518865
 20
119.8279687745
 10
142.0268457395
 20
119.7974935126
 10
142.0163504059
 20
119.7667721148
 10
142.0062773647
 20
119.7358371237
 10
141.9966371758
 20
119.7047214446
 10
141.9874398977
 20
119.6734581597
 10
141.9786955785
 20
119.6420803619
 10
141.970413383
 20
119.6106213918
 10
141.9626019567
 20
119.5791147166
 10
141.9552698444
 20
119.5475937446
 10
141.9484247412
 20
119.5160919937
 10
141.9420737784
 20
119.4846429372
 10
141.9362238924
 20
119.4532798817
 10
141.930881224
 20
119.4220361365
 10
141.9260513401
 20
119.3909449278
 10
141.9217395228
 20
119.3600392437
 10
141.9179503575
 20
119.3293519064
 10
141.9146877301
 20
119.2989155371
 10
141.9119550521
 20
119.2687624713
  0
LINE
  5
340
100
AcDbEntity
  8
RACCORDO
100
AcDbLine
 62
253
  6
CONTINUOUS
 10
144.6622784506
 20
123.1826022231
 11
145.2943109806
 21
123.779476798
  0
LINE
  5
341
100
AcDbEntity
  8
RACCORDO
100
AcDbLine
 62
253
  6
CONTINUOUS
 10
144.8401324227
 20
122.9636639565
 11
145.4674662548
 21
123.5561012071
  0
LINE
  5
342
100
AcDbEntity
  8
0
100
AcDbLine
 62
253
  6
CONTINUOUS
 10
145.726897465
 20
123.4812098675
 11
142.3872748851
 21
120.4079259651
  0
LINE
  5
343
100
AcDbEntity
  8
DRAFT
100
AcDbLine
 62
7
  6
CONTINUOUS
 10
149.2443703437
 20
128.2908799235
 11
145.5734716982
 21
124.9461161149
  0
LINE
  5
344
100
AcDbEntity
  8
0
100
AcDbLine
 62
7
  6
CONTINUOUS
 10
149.2443703437
 20
127.8113309766
 11
145.2943109806
 21
124.248283113
  0
LINE
  5
345
100
AcDbEntity
  8
RACCORDO
100
AcDbLine
 62
7
  6
CONTINUOUS
 10
148.5965604999
 20
127.1519376045
 11
148.4375254172
 21
127.0089500574
  0
LINE
  5
346
100
AcDbEntity
  8
0
100
AcDbLine
 62
253
  6
CONTINUOUS
 10
146.2201493736
 20
123.9111321872
 11
145.7277070628
 21
123.4809761568
  0
LINE
  5
347
100
AcDbEntity
  8
0
100
AcDbLine
 62
253
  6
CONTINUOUS
 10
146.6531565796
 20
123.3531357276
 11
146.1607142688
 21
122.9229796972
  0
LINE
  5
348
100
AcDbEntity
  8
CONTATTI
100
AcDbLine
 62
7
  6
CONTINUOUS
 10
150.8564365989
 20
128.9866841121
 11
149.9290912912
 21
128.1835795176
  0
LINE
  5
349
100
AcDbEntity
  8
CONTATTI
100
AcDbLine
 62
7
  6
CONTINUOUS
 10
151.5320156616
 20
128.4459197178
 11
150.9291245438
 21
127.923800694
  0
LINE
  5
34A
100
AcDbEntity
  8
CONTATTI
100
AcDbLine
 62
7
  6
CONTINUOUS
 10
151.8956689009
 20
128.6866856861
 11
151.0311782711
 21
127.9380148393
  0
LINE
  5
34B
100
AcDbEntity
  8
DRAFT
100
AcDbLine
 62
7
  6
CONTINUOUS
 10
149.0750849127
 20
126.8249024842
 11
145.7925449398
 21
124.0345709547
  0
LINE
  5
34C
100
AcDbEntity
  8
RACCORDO
100
AcDbLine
 62
7
  6
CONTINUOUS
 10
155.3031583949
 20
130.6091568965
 11
152.9026035284
 21
128.6429856022
  0
LWPOLYLINE
  5
34D
100
AcDbEntity
  8
CONTATTI
100
AcDbPolyline
 62
7
  6
CONTINUOUS
 90
10
 70
0
 10
151.8956484684
 20
128.686667991
 10
151.9037069856
 20
128.6931172947
 10
151.9116410082
 20
128.698430055
 10
151.9194505365
 20
128.702606272
 10
151.9272027312
 20
128.7056567715
 10
151.9348304314
 20
128.7075707276
 10
151.9421321543
 20
128.7083156629
 10
151.9490407387
 20
128.7078807518
 10
151.9556233456
 20
128.7062768199
 10
151.9598901612
 20
128.7045295397
  0
LWPOLYLINE
  5
34E
100
AcDbEntity
  8
SMUSSO
100
AcDbPolyline
 62
7
  6
CONTINUOUS
 90
21
 70
0
 10
152.9026035284
 20
128.6429856022
 10
152.7918413441
 20
128.5581214304
 10
152.6696664402
 20
128.4769747476
 10
152.5360788168
 20
128.3995455538
 10
152.3903690059
 20
128.3253257
 10
152.2332464754
 20
128.2548233351
 10
152.0668396295
 20
128.1895629059
 10
151.8908490048
 20
128.1297081017
 10
151.7055740647
 20
128.0750952332
 10
151.5140416032
 20
128.026757679
 10
151.3161949921
 20
127.9848833952
 10
151.1120908596
 20
127.9492844256
 10
150.9049258842
 20
127.9204302805
 10
150.694972874
 20
127.8984595627
 10
150.4819590209
 20
127.8832336693
 10
150.2682625794
 20
127.8748063011
 10
150.0539072325
 20
127.8732134869
 10
149.8388692972
 20
127.878419198
 10
149.6254559788
 20
127.8903690486
 10
149.4135199566
 20
127.9091379257
 10
149.3065367365
 20
127.9221161313
  0
LINE
  5
34F
100
AcDbEntity
  8
0
100
AcDbLine
 62
7
  6
CONTINUOUS
 10
146.1607142688
 20
119.9784786686
 11
147.1455988904
 21
120.5434602169
  0
LWPOLYLINE
  5
350
100
AcDbEntity
  8
0
100
AcDbPolyline
 62
253
  6
CONTINUOUS
 90
37
 70
0
 10
142.5877435136
 20
119.2895181419
 10
142.5763592732
 20
119.2832827761
 10
142.5641982222
 20
119.2772987661
 10
142.5512830041
 20
119.2715772538
 10
142.5376376664
 20
119.2661288925
 10
142.5232876164
 20
119.2609638269
 10
142.5082595733
 20
119.2560916741
 10
142.4925815189
 20
119.2515215059
 10
142.4762826451
 20
119.2472618317
 10
142.4593932998
 20
119.2433205831
 10
142.4419449305
 20
119.2397050983
 10
142.4239700253
 20
119.2364221094
 10
142.4055020528
 20
119.2334777292
 10
142.3865754
 20
119.2308774398
 10
142.3672253073
 20
119.2286260832
 10
142.3474878042
 20
119.226727851
 10
142.3273996411
 20
119.2251862779
 10
142.3069982214
 20
119.2240042342
 10
142.2863215319
 20
119.2231839207
 10
142.2654080718
 20
119.2227268649
 10
142.2442967813
 20
119.2226339178
 10
142.2230269689
 20
119.2229052525
 10
142.2016382382
 20
119.2235403637
 10
142.1801704143
 20
119.2245380689
 10
142.1586634694
 20
119.2258965104
 10
142.1371574488
 20
119.2276131588
 10
142.1156923959
 20
119.2296848179
 10
142.094308278
 20
119.2321076302
 10
142.0730449114
 20
119.2348770845
 10
142.0519418878
 20
119.2379880242
 10
142.0310385003
 20
119.2414346569
 10
142.0103736703
 20
119.2452105651
 10
141.9899858749
 20
119.2493087181
 10
141.9699130756
 20
119.2537214853
 10
141.9501926471
 20
119.2584406503
 10
141.9308613082
 20
119.2634574262
 10
141.9119550532
 20
119.268762472
  0
LINE
  5
351
100
AcDbEntity
  8
0
100
AcDbLine
 62
7
  6
CONTINUOUS
 10
147.1898136172
 20
120.5306965247
 11
146.1853363843
 21
119.9926032073
  0
LWPOLYLINE
  5
352
100
AcDbEntity
  8
RACCORDO
100
AcDbPolyline
 62
253
  6
CONTINUOUS
 90
67
 70
0
 10
132.2578054598
 20
100.7265636274
 10
132.1943033843
 20
100.7455304533
 10
132.1293570313
 20
100.7669816918
 10
132.0629664235
 20
100.7909173626
 10
131.9952787376
 20
100.8170978831
 10
131.9261468887
 20
100.8457629164
 10
131.8551295543
 20
100.877631392
 10
131.7820791626
 20
100.91268813
 10
131.7071435547
 20
100.950948546
 10
131.6303246425
 20
100.9931775639
 10
131.5515731954
 20
101.0393168478
 10
131.4709390392
 20
101.0894252542
 10
131.3885728996
 20
101.1444436968
 10
131.3043473566
 20
101.2043515418
 10
131.2183910116
 20
101.2691704559
 10
131.1312390336
 20
101.339905163
 10
131.0427266916
 20
101.4165677217
 10
130.9530208791
 20
101.4991479625
 10
130.8631548669
 20
101.5886178479
 10
130.772912632
 20
101.68505254
 10
130.6825138836
 20
101.7883800935
 10
130.5936464486
 20
101.8993526441
 10
130.5059955117
 20
102.0182735424
 10
130.4198817495
 20
102.1448445445
 10
130.3379472545
 20
102.2789162883
 10
130.2599625129
 20
102.4210109204
 10
130.1861652066
 20
102.570613395
 10
130.1198985425
 20
102.7260188357
 10
130.0612221904
 20
102.8878700172
 10
130.0100856966
 20
103.0555321511
 10
129.9696654226
 20
103.2253825673
 10
129.9405217529
 20
103.3980948664
 10
129.922101438
 20
103.5730015961
 10
129.9159053809
 20
103.7444641549
 10
129.9229365313
 20
103.9122520419
 10
129.942192021
 20
104.0765957764
 10
129.9721568686
 20
104.23254209
 10
130.0134121413
 20
104.3790481483
 10
130.0653694956
 20
104.517150454
 10
130.1247546729
 20
104.6450102893
 10
130.1915735562
 20
104.7618894081
 10
130.2658108679
 20
104.8685179271
 10
130.3441590117
 20
104.9652583024
 10
130.4263970246
 20
105.0517706022
 10
130.5127377662
 20
105.1283877681
 10
130.6005247755
 20
105.1964819176
 10
130.6894218984
 20
105.255923896
 10
130.7797594658
 20
105.3068378456
 10
130.8698817761
 20
105.3509767209
 10
130.9595740498
 20
105.3883987637
 10
131.0490474322
 20
105.4190426089
 10
131.1372860708
 20
105.4444826278
 10
131.2241232324
 20
105.4648041967
 10
131.3097235247
 20
105.4799201148
 10
131.3935687658
 20
105.4911464547
 10
131.4755331755
 20
105.4985789399
 10
131.5557413766
 20
105.5021208542
 10
131.6340511972
 20
105.5027999587
 10
131.7103870186
 20
105.5007089125
 10
131.7848238778
 20
105.4957545579
 10
131.8574458122
 20
105.4886861243
 10
131.9281852505
 20
105.4795900209
 10
131.9971095019
 20
105.468379614
 10
132.0645050376
 20
105.4555446658
 10
132.1304673251
 20
105.441248411
 10
132.1949008065
 20
105.4253275374
 10
132.2578054598
 20
105.4077820262
  0
LWPOLYLINE
  5
353
100
AcDbEntity
  8
RACCORDO
100
AcDbPolyline
 62
253
  6
CONTINUOUS
 90
45
 70
0
 10
132.5078018074
 20
101.3784201264
 10
132.4561177116
 20
101.3940387521
 10
132.4031615497
 20
101.4114901412
 10
132.348978788
 20
101.4308683118
 10
132.2938149588
 20
101.4521894174
 10
132.2375331597
 20
101.4756118151
 10
132.1796217442
 20
101.5014910118
 10
132.1200846077
 20
101.5300055931
 10
132.0590949784
 20
101.5612595555
 10
131.9964266839
 20
101.5955747934
 10
131.9322348451
 20
101.6330995685
 10
131.866639631
 20
101.6740073087
 10
131.7994097899
 20
101.7187215213
 10
131.7307401514
 20
101.7674331688
 10
131.6608640159
 20
101.8203150495
 10
131.5896799572
 20
101.8778268506
 10
131.5174915453
 20
101.9401567249
 10
131.4446381174
 20
102.007474285
 10
131.3711721985
 20
102.0802585
 10
131.2975363936
 20
102.1586650931
 10
131.2242210949
 20
102.2428152295
 10
131.1514842286
 20
102.3331559498
 10
131.0798773326
 20
102.4298522032
 10
131.0101588275
 20
102.5328182077
 10
130.9430237746
 20
102.6420778491
 10
130.8791713564
 20
102.7576735215
 10
130.8195487329
 20
102.8792291601
 10
130.7652315944
 20
103.006000856
 10
130.7169819008
 20
103.1378066079
 10
130.6757687484
 20
103.2739026161
 10
130.6427202915
 20
103.4125300202
 10
130.6184262729
 20
103.5534122909
 10
130.60362287
 20
103.6953514016
 10
130.5989031679
 20
103.8351831787
 10
130.6043117646
 20
103.9722157231
 10
130.6198303598
 20
104.105666595
 10
130.6448413247
 20
104.2325618753
 10
130.6785879857
 20
104.3521220175
 10
130.7204746567
 20
104.4644323501
 10
130.769325291
 20
104.5683024021
 10
130.8241171821
 20
104.6635207181
 10
130.8840933707
 20
104.7504200694
 10
130.9482267707
 20
104.8289437659
 10
131.015602724
 20
104.8992930306
 10
131.0641601813
 20
104.9437705171
  0
LINE
  5
354
100
AcDbEntity
  8
ASSI
100
AcDbLine
 62
7
  6
CONTINUOUS
 10
133.2444435276
 20
101.6865480681
 11
133.0867538976
 21
101.7476002162
  0
LWPOLYLINE
  5
355
100
AcDbEntity
  8
ASSI
100
AcDbPolyline
 62
7
  6
CONTINUOUS
 90
20
 70
0
 10
133.0867538976
 20
101.7476002162
 10
132.9310842424
 20
101.8182243463
 10
132.7767871125
 20
101.8988037626
 10
132.6245099572
 20
101.9889551609
 10
132.4761951248
 20
102.0875286288
 10
132.3318933719
 20
102.1946320513
 10
132.1915539419
 20
102.3101575433
 10
132.0569669131
 20
102.4326315369
 10
131.9282059726
 20
102.5621430412
 10
131.8051974334
 20
102.698603047
 10
131.6895103122
 20
102.8402709595
 10
131.581238395
 20
102.987213491
 10
131.4802878957
 20
103.1393639292
 10
131.3879464733
 20
103.2947815422
 10
131.3043244083
 20
103.4535081819
 10
131.2293114202
 20
103.6155019964
 10
131.1638643256
 20
103.7786966981
 10
131.108105662
 20
103.9431076702
 10
131.0619128919
 20
104.1087195296
 10
131.0258752204
 20
104.2734198392
  0
LWPOLYLINE
  5
356
100
AcDbEntity
  8
RACCORDO
100
AcDbPolyline
 62
253
  6
CONTINUOUS
 90
4
 70
0
 10
132.712726708
 20
101.8256425865
 10
132.8666557416
 20
101.7538052286
 10
133.0223868292
 20
101.692313915
 10
133.1791531321
 20
101.6415261583
  0
LWPOLYLINE
  5
357
100
AcDbEntity
  8
RACCORDO
100
AcDbPolyline
 62
7
  6
CONTINUOUS
 90
3
 70
0
 10
132.7083668103
 20
101.8309359729
 10
132.8673764537
 20
101.7556535982
 10
133.0273647169
 20
101.6918497583
  0
LWPOLYLINE
  5
358
100
AcDbEntity
  8
0
100
AcDbPolyline
 62
7
  6
CONTINUOUS
 90
7
 70
0
 10
145.6423306238
 20
84.1041973785
 10
145.6601459186
 20
84.0795580101
 10
145.6749837715
 20
84.0526313926
 10
145.6864581645
 20
84.0239239742
 10
145.6943750835
 20
83.9936457822
 10
145.6984701859
 20
83.962270758
 10
145.6990221714
 20
83.9456859517
  0
LWPOLYLINE
  5
359
100
AcDbEntity
  8
0
100
AcDbPolyline
 62
253
  6
CONTINUOUS
 90
34
 70
0
 10
144.1572400622
 20
82.5856819922
 10
144.1539983764
 20
82.5920963986
 10
144.1502770145
 20
82.5986388059
 10
144.1460843752
 20
82.6052944483
 10
144.1414299212
 20
82.6120483043
 10
144.1363241572
 20
82.6188851309
 10
144.1307786067
 20
82.6257894978
 10
144.1248057857
 20
82.6327458222
 10
144.1184191744
 20
82.6397384042
 10
144.111633187
 20
82.6467514619
 10
144.1044631392
 20
82.6537691672
 10
144.0969252133
 20
82.6607756815
 10
144.089036422
 20
82.6677551917
 10
144.0808145697
 20
82.6746919453
 10
144.0722782128
 20
82.6815702865
 10
144.0634466173
 20
82.6883746914
 10
144.0543397155
 20
82.6950898027
 10
144.0449780613
 20
82.7017004648
 10
144.0353827832
 20
82.7081917579
 10
144.0255755374
 20
82.7145490315
 10
144.0155784581
 20
82.7207579377
 10
144.0054141082
 20
82.7268044632
 10
143.995105428
 20
82.7326749615
 10
143.9846756836
 20
82.7383561831
 10
143.9741484144
 20
82.7438353059
 10
143.9635473796
 20
82.7490999638
 10
143.9528965054
 20
82.7541382749
 10
143.9422198299
 20
82.7589388679
 10
143.93154145
 20
82.7634909081
 10
143.920885466
 20
82.767784122
 10
143.9102759279
 20
82.7718088199
 10
143.8997367807
 20
82.7755559184
 10
143.8892918107
 20
82.7790169604
 10
143.8789645917
 20
82.7821841347
  0
LWPOLYLINE
  5
35A
100
AcDbEntity
  8
ASSI
100
AcDbPolyline
 62
7
  6
CONTINUOUS
 90
20
 70
0
 10
131.0258752204
 20
112.5006611752
 10
131.0619128919
 20
112.3359608656
 10
131.108105662
 20
112.1703490062
 10
131.1638643256
 20
112.0059380341
 10
131.2293114202
 20
111.8427433323
 10
131.3043244083
 20
111.6807495178
 10
131.3879464733
 20
111.5220228782
 10
131.4802878957
 20
111.3666052652
 10
131.581238395
 20
111.214454827
 10
131.6895103122
 20
111.0675122955
 10
131.8051974334
 20
110.925844383
 10
131.9282059726
 20
110.7893843771
 10
132.0569669131
 20
110.6598728729
 10
132.1915539419
 20
110.5373988793
 10
132.3318933719
 20
110.4218733872
 10
132.4761951248
 20
110.3147699647
 10
132.6245099572
 20
110.2161964969
 10
132.7767871125
 20
110.1260450986
 10
132.9310842424
 20
110.0454656823
 10
133.0874272225
 20
109.9745808633
  0
LINE
  5
35B
100
AcDbEntity
  8
0
100
AcDbLine
 62
7
  6
CONTINUOUS
 10
131.6672637539
 20
111.9635764905
 11
131.3917304318
 21
113.3973809493
  0
LINE
  5
35C
100
AcDbEntity
  8
ASSI
100
AcDbLine
 62
7
  6
CONTINUOUS
 10
131.0001890489
 20
112.6637457894
 11
131.0258752204
 21
112.5006611752
  0
LINE
  5
35D
100
AcDbEntity
  8
0
100
AcDbLine
 62
7
  6
CONTINUOUS
 10
131.1587134877
 20
113.0622101473
 11
131.1409237691
 21
113.1751592258
  0
LINE
  5
35E
100
AcDbEntity
  8
RACCORDO
100
AcDbLine
 62
7
  6
CONTINUOUS
 10
130.9949261298
 20
112.3121455595
 11
130.9704107729
 21
112.477482727
  0
LWPOLYLINE
  5
35F
100
AcDbEntity
  8
RACCORDO
100
AcDbPolyline
 62
253
  6
CONTINUOUS
 90
19
 70
0
 10
130.9677359039
 20
112.4986707098
 10
130.9892681754
 20
112.3389898959
 10
131.0214225002
 20
112.1781743533
 10
131.0640264783
 20
112.0170186972
 10
131.1168542868
 20
111.8563168083
 10
131.1796385368
 20
111.696833478
 10
131.2520730662
 20
111.5393146275
 10
131.3337826976
 20
111.3845475481
 10
131.4243761094
 20
111.2332481519
 10
131.5234792847
 20
111.0860423715
 10
131.6306246411
 20
110.9436438649
 10
131.7453009921
 20
110.8067496236
 10
131.8670414173
 20
110.6759469728
 10
131.9952804603
 20
110.5518855602
 10
132.1294091672
 20
110.4351947899
 10
132.2688662718
 20
110.3264109691
 10
132.4130126833
 20
110.2260909101
 10
132.5611424832
 20
110.1347821307
 10
132.7125620357
 20
110.0529668458
  0
LINE
  5
360
100
AcDbEntity
  8
RACCORDO
100
AcDbLine
 62
7
  6
CONTINUOUS
 10
134.3875397203
 20
94.4181535313
 11
134.3875376803
 21
94.418291361
  0
LWPOLYLINE
  5
361
100
AcDbEntity
  8
RACCORDO
100
AcDbPolyline
 62
7
  6
CONTINUOUS
 90
13
 70
0
 10
134.3875397203
 20
94.4181535313
 10
134.3877089661
 20
94.38274159
 10
134.3839300157
 20
94.2756515176
 10
134.3735253497
 20
94.1704941289
 10
134.3563166406
 20
94.0679880989
 10
134.3321966661
 20
93.9688405043
 10
134.3011527452
 20
93.8737220051
 10
134.2632277369
 20
93.7833016307
 10
134.218412338
 20
93.6979718651
 10
134.1665897405
 20
93.6179281741
 10
134.1076276378
 20
93.5435226282
 10
134.0414867056
 20
93.475202267
 10
134.0140055139
 20
93.4505225663
  0
LINE
  5
362
100
AcDbEntity
  8
0
100
AcDbLine
 62
7
  6
CONTINUOUS
 10
133.2230642189
 20
128.0130015958
 11
133.2230642189
 21
126.7793872441
  0
LINE
  5
363
100
AcDbEntity
  8
RACCORDO
100
AcDbLine
 62
7
  6
CONTINUOUS
 10
134.3875343391
 20
110.8707103091
 11
134.3875356496
 21
110.8708019934
  0
LWPOLYLINE
  5
364
100
AcDbEntity
  8
0
100
AcDbPolyline
 62
7
  6
CONTINUOUS
 90
31
 70
0
 10
133.2230642189
 20
128.0130015958
 10
133.2232033279
 20
128.022193937
 10
133.223610685
 20
128.031545251
 10
133.22428629
 20
128.0410555378
 10
133.22523343
 20
128.050751459
 10
133.226448818
 20
128.060606353
 10
133.2279225929
 20
128.0705402347
 10
133.2296568746
 20
128.080553823
 10
133.2316495433
 20
128.0906463991
 10
133.2338843786
 20
128.100735821
 10
133.236363318
 20
128.1108219345
 10
133.2390844241
 20
128.1209048938
 10
133.2420256637
 20
128.1309030204
 10
133.24518887
 20
128.1408157648
 10
133.2485722098
 20
128.1506436766
 10
133.2521481512
 20
128.1603067256
 10
133.2559182764
 20
128.1698035576
 10
133.2598810033
 20
128.1791355268
 10
133.264004053
 20
128.1882266664
 10
133.2682886702
 20
128.1970748915
 10
133.2727336103
 20
128.2056822869
 10
133.2773028615
 20
128.2139791396
 10
133.281997493
 20
128.2219630303
 10
133.2868164356
 20
128.2296363782
 10
133.2917204699
 20
128.2369367282
 10
133.2967102531
 20
128.2438609845
 10
133.301785128
 20
128.2504122428
 10
133.3069039038
 20
128.2565373358
 10
133.3120528502
 20
128.262218541
 10
133.3172456975
 20
128.2674735809
 10
133.3224824458
 20
128.2723024554
  0
LWPOLYLINE
  5
365
100
AcDbEntity
  8
RACCORDO
100
AcDbPolyline
 62
7
  6
CONTINUOUS
 90
13
 70
0
 10
134.3875343391
 20
110.8707103091
 10
134.3865974253
 20
110.8328453302
 10
134.3793019779
 20
110.7221338522
 10
134.3651298604
 20
110.6135395206
 10
134.3439639412
 20
110.5077669685
 10
134.3157400378
 20
110.4054694091
 10
134.2804682768
 20
110.307197579
 10
134.2382093383
 20
110.2135548952
 10
134.1889805626
 20
110.1249779867
 10
134.1327260388
 20
110.0417098037
 10
134.069408387
 20
109.9641355442
 10
133.9990651511
 20
109.8927623253
 10
133.9730565551
 20
109.869547335
  0
LWPOLYLINE
  5
366
100
AcDbEntity
  8
RACCORDO
100
AcDbPolyline
 62
253
  6
CONTINUOUS
 90
34
 70
0
 10
134.6375363217
 20
110.6553382564
 10
134.6292489388
 20
110.4943203791
 10
134.6107644099
 20
110.33932235
 10
134.582080834
 20
110.1903426048
 10
134.5424399284
 20
110.0464207266
 10
134.4925967469
 20
109.9085144755
 10
134.4348173524
 20
109.7794978426
 10
134.3687013505
 20
109.6599795102
 10
134.2946416503
 20
109.5493445623
 10
134.216091378
 20
109.4486291679
 10
134.1331948264
 20
109.3585125883
 10
134.0457994824
 20
109.2783086883
 10
133.956912706
 20
109.2070050693
 10
133.8669406827
 20
109.1448733958
 10
133.7754709989
 20
109.0916367827
 10
133.6842840063
 20
109.0454607509
 10
133.5936331197
 20
109.0062923882
 10
133.5032610632
 20
108.9741813649
 10
133.4141831809
 20
108.9474479397
 10
133.3265787778
 20
108.9259900803
 10
133.240266318
 20
108.9099079435
 10
133.1557205969
 20
108.8978256701
 10
133.0730755253
 20
108.8896327616
 10
132.9921959856
 20
108.8854387013
 10
132.9131536628
 20
108.884197966
 10
132.8360118249
 20
108.8858085191
 10
132.760706597
 20
108.8903718864
 10
132.687119186
 20
108.897148087
 10
132.6153619541
 20
108.9060329507
 10
132.5453222617
 20
108.917130414
 10
132.476543929
 20
108.9300127535
 10
132.4088748709
 20
108.9445373736
 10
132.3424670743
 20
108.9608467871
 10
132.277320515
 20
108.9789409738
  0
LINE
  5
367
100
AcDbEntity
  8
0
100
AcDbLine
 62
7
  6
CONTINUOUS
 10
131.1013062049
 20
104.8844951289
 11
131.0902924253
 21
104.8624306821
  0
LINE
  5
368
100
AcDbEntity
  8
0
100
AcDbLine
 62
7
  6
CONTINUOUS
 10
131.0875768914
 20
104.8625162165
 11
131.1540968184
 21
104.9690062928
  0
LINE
  5
369
100
AcDbEntity
  8
0
100
AcDbLine
 62
7
  6
CONTINUOUS
 10
131.1540968184
 20
104.9690062928
 11
131.2192709907
 21
105.0539162308
  0
LWPOLYLINE
  5
36A
100
AcDbEntity
  8
RACCORDO
100
AcDbPolyline
 62
253
  6
CONTINUOUS
 90
10
 70
0
 10
144.2267365757
 20
122.8621348651
 10
144.2434307971
 20
122.8805705125
 10
144.2595023417
 20
122.9032657468
 10
144.2744948203
 20
122.9295760951
 10
144.2879824853
 20
122.9587544248
 10
144.2995823181
 20
122.9899721528
 10
144.3089649074
 20
123.0223427736
 10
144.3158638081
 20
123.0549470443
 10
144.3200831062
 20
123.0868590899
 10
144.3215029801
 20
123.1171726879
  0
LWPOLYLINE
  5
36B
100
AcDbEntity
  8
0
100
AcDbPolyline
 62
253
  6
CONTINUOUS
 90
43
 70
0
 10
142.8292859798
 20
119.8583943046
 10
142.8208826816
 20
119.8504463714
 10
142.8125216278
 20
119.8420784999
 10
142.8042028184
 20
119.8332906901
 10
142.7959180255
 20
119.824073204
 10
142.787675477
 20
119.8144357795
 10
142.7794998564
 20
119.8044076311
 10
142.7713908532
 20
119.7939870138
 10
142.7633487778
 20
119.7831756725
 10
142.7553992454
 20
119.7720080561
 10
142.7475425511
 20
119.7604830298
 10
142.7397783997
 20
119.7486017284
 10
142.7321315208
 20
119.7364020054
 10
142.7246022895
 20
119.7238828487
 10
142.7171903306
 20
119.7110452704
 10
142.709919249
 20
119.6979301599
 10
142.7027894922
 20
119.6845366313
 10
142.6958006127
 20
119.6708655706
 10
142.6889748719
 20
119.656960525
 10
142.6823127903
 20
119.6428207507
 10
142.6758138474
 20
119.6284469916
 10
142.6694987432
 20
119.6138850268
 10
142.6633680636
 20
119.5991342575
 10
142.6574212227
 20
119.5841952826
 10
142.651677163
 20
119.5691156778
 10
142.6461365292
 20
119.5538949916
 10
142.6407986766
 20
119.5385336755
 10
142.6356806136
 20
119.5230806593
 10
142.6307830418
 20
119.5075356563
 10
142.6261052595
 20
119.4918989533
 10
142.6216621706
 20
119.47622034
 10
142.61745452
 20
119.4604996744
 10
142.6134815628
 20
119.4447370986
 10
142.6097559672
 20
119.4289828288
 10
142.6062785193
 20
119.4132368734
 10
142.6030484331
 20
119.3974992238
 10
142.6000760191
 20
119.3818200715
 10
142.5973621125
 20
119.3661996964
 10
142.5949058781
 20
119.3506378185
 10
142.5927151206
 20
119.3351837889
 10
142.5907924414
 20
119.3198540582
 10
142.5891352391
 20
119.3046321758
 10
142.5877435136
 20
119.2895181419
  0
LINE
  5
36C
100
AcDbEntity
  8
0
100
AcDbLine
 62
253
  6
CONTINUOUS
 10
146.1595805579
 20
122.9230941239
 11
142.8292859798
 21
119.8583943046
  0
LINE
  5
36D
100
AcDbEntity
  8
DRAFT
100
AcDbLine
 62
253
  6
CONTINUOUS
 10
151.9115861157
 20
126.07017944
 11
146.6530304482
 21
121.4983657038
  0
LINE
  5
36E
100
AcDbEntity
  8
RACCORDO
100
AcDbLine
 62
253
  6
CONTINUOUS
 10
156.3399670971
 20
130.3098560048
 11
155.2874863317
 21
129.394777722
  0
LINE
  5
36F
100
AcDbEntity
  8
RACCORDO
100
AcDbLine
 62
253
  6
CONTINUOUS
 10
155.2874863317
 20
129.394777722
 11
154.2487263372
 21
128.4933251772
  0
LINE
  5
370
100
AcDbEntity
  8
RACCORDO
100
AcDbLine
 62
253
  6
CONTINUOUS
 10
154.2487263372
 20
128.4933251772
 11
153.2087477544
 21
127.59249967
  0
LWPOLYLINE
  5
371
100
AcDbEntity
  8
RACCORDO
100
AcDbPolyline
 62
253
  6
CONTINUOUS
 90
3
 70
0
 10
153.2087477544
 20
127.59249967
 10
152.1077931467
 20
126.6403063985
 10
151.6185897544
 20
126.2176620205
  0
LINE
  5
372
100
AcDbEntity
  8
RACCORDO
100
AcDbLine
 62
7
  6
CONTINUOUS
 10
133.9730654082
 20
109.8695478454
 11
133.9716978282
 21
109.8683683109
  0
LINE
  5
373
100
AcDbEntity
  8
DRAFT
100
AcDbLine
 62
7
  6
CONTINUOUS
 10
151.0291540349
 20
126.5143602474
 11
149.9969431317
 21
125.6369267197
  0
LINE
  5
374
100
AcDbEntity
  8
RACCORDO
100
AcDbLine
 62
253
  6
CONTINUOUS
 10
153.8070718201
 20
126.4051061004
 11
152.7793482204
 21
125.5567955034
  0
LINE
  5
375
100
AcDbEntity
  8
RACCORDO
100
AcDbLine
 62
253
  6
CONTINUOUS
 10
155.2685569196
 20
127.6095476188
 11
153.8070718201
 21
126.4051061004
  0
LINE
  5
376
100
AcDbEntity
  8
RACCORDO
100
AcDbLine
 62
253
  6
CONTINUOUS
 10
157.2058168924
 20
129.2026141654
 11
155.2685569196
 21
127.6095476188
  0
LWPOLYLINE
  5
377
100
AcDbEntity
  8
RACCORDO
100
AcDbPolyline
 62
253
  6
CONTINUOUS
 90
23
 70
0
 10
133.9716978282
 20
109.8683683109
 10
133.8967991627
 20
109.8086342106
 10
133.823039031
 20
109.758129539
 10
133.7487807319
 20
109.7144336463
 10
133.6742895802
 20
109.6769139793
 10
133.6000977017
 20
109.6451500479
 10
133.5266543244
 20
109.6186965832
 10
133.4539554323
 20
109.596990967
 10
133.3823510418
 20
109.5796538311
 10
133.3121551201
 20
109.5663079784
 10
133.2431973975
 20
109.556518053
 10
133.1757133361
 20
109.5499720843
 10
133.1099025274
 20
109.5463632155
 10
133.0454614508
 20
109.5453860388
 10
132.9825189934
 20
109.5468004102
 10
132.9212228254
 20
109.5503726179
 10
132.8612456316
 20
109.5559159253
 10
132.8027307257
 20
109.5632424626
 10
132.7457113702
 20
109.5721809931
 10
132.6896621877
 20
109.5826768085
 10
132.6344426472
 20
109.5946605445
 10
132.5803050652
 20
109.6079867919
 10
132.5272973477
 20
109.6225450955
  0
LINE
  5
378
100
AcDbEntity
  8
0
100
AcDbLine
 62
7
  6
CONTINUOUS
 10
133.2281124518
 20
101.5604501313
 11
133.0891547998
 21
101.5742917069
  0
LWPOLYLINE
  5
379
100
AcDbEntity
  8
0
100
AcDbPolyline
 62
7
  6
CONTINUOUS
 90
3
 70
0
 10
133.1825184405
 20
101.6179977593
 10
133.3377478911
 20
101.6020555431
 10
133.4785004374
 20
101.599138314
  0
LINE
  5
37A
100
AcDbEntity
  8
0
100
AcDbLine
 62
7
  6
CONTINUOUS
 10
133.0891547998
 20
101.5742917069
 11
132.9478350265
 21
101.5991642971
  0
LWPOLYLINE
  5
37B
100
AcDbEntity
  8
0
100
AcDbPolyline
 62
7
  6
CONTINUOUS
 90
3
 70
0
 10
133.6638627367
 20
101.6809422253
 10
133.8215523666
 20
101.6509522231
 10
133.8392075406
 20
101.648768794
  0
LWPOLYLINE
  5
37C
100
AcDbEntity
  8
RACCORDO
100
AcDbPolyline
 62
253
  6
CONTINUOUS
 90
3
 70
0
 10
133.8990454479
 20
101.6651781267
 10
133.7689023117
 20
101.6899878613
 10
133.6059480514
 20
101.7317185372
  0
LINE
  5
37D
100
AcDbEntity
  8
0
100
AcDbLine
 62
7
  6
CONTINUOUS
 10
132.9478350265
 20
101.5991642971
 11
132.8041531321
 21
101.6350679021
  0
LWPOLYLINE
  5
37E
100
AcDbEntity
  8
0
100
AcDbPolyline
 62
7
  6
CONTINUOUS
 90
3
 70
0
 10
132.9041531321
 20
101.6783691722
 10
133.049768991
 20
101.6417820556
 10
133.1825184405
 20
101.6179977593
  0
LINE
  5
37F
100
AcDbEntity
  8
RACCORDO
100
AcDbLine
 62
7
  6
CONTINUOUS
 10
133.1873581605
 20
101.6398049302
 11
133.3363605493
 21
101.6021980244
  0
LINE
  5
380
100
AcDbEntity
  8
RACCORDO
100
AcDbLine
 62
253
  6
CONTINUOUS
 10
133.1791531321
 20
101.6415261583
 11
133.3330220965
 21
101.6025408868
  0
LINE
  5
381
100
AcDbEntity
  8
ASSI
100
AcDbLine
 62
7
  6
CONTINUOUS
 10
133.5321597073
 20
101.6024244076
 11
133.4041531321
 21
101.6350679021
  0
LINE
  5
382
100
AcDbEntity
  8
0
100
AcDbLine
 62
7
  6
CONTINUOUS
 10
133.5041531321
 20
101.7216704424
 11
133.6638627367
 21
101.6809422253
  0
LINE
  5
383
100
AcDbEntity
  8
RACCORDO
100
AcDbLine
 62
253
  6
CONTINUOUS
 10
133.6059480514
 20
101.7317185372
 11
133.442993819
 21
101.7840695932
  0
LINE
  5
384
100
AcDbEntity
  8
ASSI
100
AcDbLine
 62
7
  6
CONTINUOUS
 10
133.4041531321
 20
101.6350679021
 11
133.2444435276
 21
101.6865480681
  0
LWPOLYLINE
  5
385
100
AcDbEntity
  8
0
100
AcDbPolyline
 62
7
  6
CONTINUOUS
 90
23
 70
0
 10
133.9589170404
 20
101.6929503962
 10
133.8130719981
 20
101.7399615138
 10
133.6244076194
 20
101.8130060481
 10
133.4381599962
 20
101.8975027752
 10
133.2535545015
 20
101.9939102911
 10
133.0713657622
 20
102.1017699998
 10
132.8939176591
 20
102.2197061131
 10
132.721270919
 20
102.3478477079
 10
132.5533648152
 20
102.4860657073
 10
132.3923410486
 20
102.6325970925
 10
132.2382877806
 20
102.7875483565
 10
132.0911168497
 20
102.9508130064
 10
131.9527054726
 20
103.1203085446
 10
131.8231658573
 20
103.2961147876
 10
131.7023857957
 20
103.478151919
 10
131.5919058796
 20
103.6640979917
 10
131.4918580519
 20
103.8540030785
 10
131.4021103696
 20
104.0478171065
 10
131.3238075958
 20
104.2430679104
 10
131.2570963375
 20
104.4397738949
 10
131.2018299876
 20
104.6379166552
 10
131.1587134877
 20
104.8349688114
 10
131.140947322
 20
104.947955595
  0
LINE
  5
386
100
AcDbEntity
  8
RACCORDO
100
AcDbLine
 62
7
  6
CONTINUOUS
 10
133.0273647169
 20
101.6918497583
 11
133.187358161
 21
101.63980493
  0
LINE
  5
387
100
AcDbEntity
  8
0
100
AcDbLine
 62
7
  6
CONTINUOUS
 10
132.7585372733
 20
101.7258534109
 11
132.9041531321
 21
101.6783691722
  0
LWPOLYLINE
  5
388
100
AcDbEntity
  8
0
100
AcDbPolyline
 62
7
  6
CONTINUOUS
 90
22
 70
0
 10
132.8041531321
 20
101.6350679021
 10
132.6604712377
 20
101.6821190775
 10
132.5191514645
 20
101.7388374964
 10
132.3801938124
 20
101.8052231587
 10
132.24285039
 20
101.8817536607
 10
132.1078690888
 20
101.967951406
 10
131.9774935833
 20
102.0623836061
 10
131.8518008582
 20
102.1651878975
 10
131.7307139288
 20
102.2762266436
 10
131.6162455158
 20
102.3936541458
 10
131.508506246
 20
102.5175771902
 10
131.4073854927
 20
102.6478889906
 10
131.3145640965
 20
102.7824234894
 10
131.2301807789
 20
102.921251268
 10
131.1540968184
 20
103.0643017449
 10
131.0875768914
 20
103.2091971189
 10
131.0307808579
 20
103.355968227
 10
130.9835488578
 20
103.5045842322
 10
130.9466659868
 20
103.6525748224
 10
130.9203052277
 20
103.7999295439
 10
130.9042935976
 20
103.9466588503
 10
130.8988972438
 20
104.0903237904
  0
LWPOLYLINE
  5
389
100
AcDbEntity
  8
RACCORDO
100
AcDbPolyline
 62
253
  6
CONTINUOUS
 90
24
 70
0
 10
134.3230054313
 20
102.3528240147
 10
134.2276281247
 20
102.3873157545
 10
134.0776284712
 20
102.4482540759
 10
133.9280699405
 20
102.5156682266
 10
133.7793609938
 20
102.5893669073
 10
133.6319940973
 20
102.6691821249
 10
133.4864324336
 20
102.7548320852
 10
133.34314875
 20
102.8460260827
 10
133.2026450242
 20
102.9425591479
 10
133.0653511253
 20
103.0440963806
 10
132.9317275163
 20
103.1502780326
 10
132.8023095563
 20
103.2608348058
 10
132.677493839
 20
103.3753708147
 10
132.5576961561
 20
103.4934691953
 10
132.4434541044
 20
103.6147988355
 10
132.3351222781
 20
103.7389009561
 10
132.2330422908
 20
103.865321441
 10
132.1376949492
 20
103.9937113139
 10
132.0493592949
 20
104.1235908104
 10
131.9683139063
 20
104.2544602551
 10
131.8949901351
 20
104.3859249649
 10
131.8296551501
 20
104.5175145821
 10
131.7724215817
 20
104.6486871044
 10
131.7234384532
 20
104.7789360133
  0
LWPOLYLINE
  5
38A
100
AcDbEntity
  8
RACCORDO
100
AcDbPolyline
 62
253
  6
CONTINUOUS
 90
24
 70
0
 10
134.2467533012
 20
102.0577774204
 10
134.1146705604
 20
102.1060256532
 10
133.9537082469
 20
102.1721025202
 10
133.7933346288
 20
102.2453308884
 10
133.6334427261
 20
102.3256625663
 10
133.4756055377
 20
102.4123502266
 10
133.3198348678
 20
102.5054541693
 10
133.1661189122
 20
102.6049140943
 10
133.015995258
 20
102.709801774
 10
132.869475921
 20
102.8201853961
 10
132.7265488852
 20
102.9359967727
 10
132.5887156901
 20
103.0561031132
 10
132.4560126798
 20
103.1805665116
 10
132.3284035101
 20
103.3093248738
 10
132.2072806876
 20
103.4410591264
 10
132.0927136711
 20
103.5758049999
 10
131.9846330017
 20
103.7135267638
 10
131.8842228097
 20
103.8527981531
 10
131.7915591511
 20
103.993655186
 10
131.7065659699
 20
104.1360618444
 10
131.6301992276
 20
104.2784838088
 10
131.5627775782
 20
104.4204096395
 10
131.5039823678
 20
104.5623507762
 10
131.4538135963
 20
104.704307219
  0
LWPOLYLINE
  5
38B
100
AcDbEntity
  8
RACCORDO
100
AcDbPolyline
 62
253
  6
CONTINUOUS
 90
24
 70
0
 10
133.442993819
 20
101.7840695932
 10
133.2807134381
 20
101.8468261387
 10
133.1197959995
 20
101.9197251199
 10
132.961021995
 20
102.0024064469
 10
132.8049661899
 20
102.0945643132
 10
132.6520135431
 20
102.1960058119
 10
132.5026491932
 20
102.3064976792
 10
132.35773724
 20
102.4254915788
 10
132.218203019
 20
102.5522619029
 10
132.0847337453
 20
102.686169294
 10
131.9578057673
 20
102.8267203437
 10
131.8379598463
 20
102.973314583
 10
131.72571112
 20
103.1253205073
 10
131.6215398036
 20
103.282086256
 10
131.5258873582
 20
103.4429474944
 10
131.4391617477
 20
103.6072209404
 10
131.3617406236
 20
103.7741943692
 10
131.2939620112
 20
103.9431382384
 10
131.236118374
 20
104.1133181022
 10
131.1884530817
 20
104.2840115524
 10
131.1511669293
 20
104.4544988704
 10
131.124419924
 20
104.6240568622
 10
131.1083302391
 20
104.7919481325
 10
131.1050826348
 20
104.8920606367
  0
LWPOLYLINE
  5
38C
100
AcDbEntity
  8
DRAFT
100
AcDbPolyline
 62
7
  6
CONTINUOUS
 90
17
 70
0
 10
134.3022581349
 20
103.0006466667
 10
134.2301466506
 20
103.0410513953
 10
134.0729893229
 20
103.1394645745
 10
133.9193589522
 20
103.2462137009
 10
133.7699134075
 20
103.3608416582
 10
133.6252926374
 20
103.4828575919
 10
133.4861159304
 20
103.6117390111
 10
133.3529792624
 20
103.7469340258
 10
133.2264527451
 20
103.8878637101
 10
133.1070781845
 20
104.0339245815
 10
132.9953667608
 20
104.1844911849
 10
132.8917968393
 20
104.3389187711
 10
132.7968119226
 20
104.4965460573
 10
132.7108187504
 20
104.6566980594
 10
132.6341855589
 20
104.8186889818
 10
132.567240503
 20
104.9818251546
 10
132.5306546888
 20
105.0868766787
  0
LWPOLYLINE
  5
38D
100
AcDbEntity
  8
0
100
AcDbPolyline
 62
253
  6
CONTINUOUS
 90
16
 70
0
 10
145.6438736578
 20
84.0776632366
 10
145.6382282294
 20
84.0875755422
 10
145.6321557568
 20
84.0971675537
 10
145.6256699448
 20
84.1064176233
 10
145.6187854275
 20
84.1153048787
 10
145.6115177337
 20
84.1238092706
 10
145.6038832745
 20
84.1319115922
 10
145.5958993055
 20
84.1395935323
 10
145.5875838651
 20
84.1468377427
 10
145.5789557092
 20
84.1536278909
 10
145.5700342919
 20
84.1599486696
 10
145.5608395122
 20
84.1657859545
 10
145.5513923467
 20
84.1711264038
 10
145.5417148394
 20
84.1759576267
 10
145.5318291242
 20
84.1802687341
 10
145.5217573155
 20
84.1840502396
  0
LWPOLYLINE
  5
38E
100
AcDbEntity
  8
0
100
AcDbPolyline
 62
7
  6
CONTINUOUS
 90
7
 70
0
 10
131.5919058796
 20
111.8913393277
 10
131.4918580519
 20
112.0812444144
 10
131.4021103696
 20
112.2750584425
 10
131.3238075958
 20
112.4703092463
 10
131.2570963375
 20
112.6670152308
 10
131.2018299876
 20
112.8651579911
 10
131.1587134877
 20
113.0622101473
  0
LWPOLYLINE
  5
38F
100
AcDbEntity
  8
0
100
AcDbPolyline
 62
7
  6
CONTINUOUS
 90
7
 70
0
 10
131.2873522241
 20
112.5778021937
 10
131.2918209067
 20
112.5671821675
 10
131.35291364
 20
112.4414834886
 10
131.4210992832
 20
112.3180815855
 10
131.4960611969
 20
112.1976164447
 10
131.5781160204
 20
112.0794480797
 10
131.6672637539
 20
111.9635764905
  0
LINE
  5
390
100
AcDbEntity
  8
0
100
AcDbLine
 62
253
  6
CONTINUOUS
 10
135.2149226476
 20
126.2043872441
 11
135.2149226476
 21
127.4380015958
  0
LINE
  5
391
100
AcDbEntity
  8
0
100
AcDbLine
 62
253
  6
CONTINUOUS
 10
135.4881277284
 20
126.2500670781
 11
135.4881277284
 21
127.4746041361
  0
LINE
  5
392
100
AcDbEntity
  8
0
100
AcDbLine
 62
7
  6
CONTINUOUS
 10
136.1381277284
 20
128.0339937767
 11
136.1381277284
 21
126.8265995311
  0
LWPOLYLINE
  5
393
100
AcDbEntity
  8
0
100
AcDbPolyline
 62
253
  6
CONTINUOUS
 90
31
 70
0
 10
135.2149226476
 20
127.4380015958
 10
135.2150587375
 20
127.4471526366
 10
135.2154666382
 20
127.4565145061
 10
135.2161452411
 20
127.4660617242
 10
135.2170927022
 20
127.4757683162
 10
135.2183064438
 20
127.4856078537
 10
135.2197831593
 20
127.4955535252
 10
135.221518827
 20
127.5055782521
 10
135.2235087234
 20
127.5156547562
 10
135.2257474296
 20
127.525755603
 10
135.2282288513
 20
127.5358533002
 10
135.2309462334
 20
127.5459203633
 10
135.2338921757
 20
127.5559293831
 10
135.2370586607
 20
127.5658531244
 10
135.2404370664
 20
127.5756645708
 10
135.2440181848
 20
127.58533699
 10
135.247792251
 20
127.5948440221
 10
135.2517490035
 20
127.6041598327
 10
135.2558777069
 20
127.6132591483
 10
135.2601671835
 20
127.6221173164
 10
135.2646057063
 20
127.6307101032
 10
135.2691810527
 20
127.6390138665
 10
135.2738806661
 20
127.6470058776
 10
135.2786918357
 20
127.6546645799
 10
135.283601599
 20
127.6619693599
 10
135.288597633
 20
127.6689017282
 10
135.2936653344
 20
127.6754412693
 10
135.2987878672
 20
127.6815666861
 10
135.3039501918
 20
127.6872609847
 10
135.3091392312
 20
127.6925107214
 10
135.3143408745
 20
127.6973024554
  0
LWPOLYLINE
  5
394
100
AcDbEntity
  8
RACCORDO
100
AcDbPolyline
 62
253
  6
CONTINUOUS
 90
37
 70
0
 10
134.6375363217
 20
94.2008555845
 10
134.6344462955
 20
94.0505075642
 10
134.6223871341
 20
93.9056991978
 10
134.6013495119
 20
93.7664226166
 10
134.5707298001
 20
93.6319319276
 10
134.5311154513
 20
93.502959363
 10
134.4842752139
 20
93.3817063414
 10
134.4298862049
 20
93.2685904781
 10
134.3682373173
 20
93.163163747
 10
134.3020023784
 20
93.066317417
 10
134.2311623559
 20
92.978510287
 10
134.155698252
 20
92.8992488176
 10
134.078280313
 20
92.8279922767
 10
133.999217928
 20
92.7650366692
 10
133.9181702475
 20
92.7100568788
 10
133.8368352452
 20
92.6615832844
 10
133.7554257413
 20
92.6195943305
 10
133.6737082563
 20
92.5840922909
 10
133.5927160939
 20
92.5536477258
 10
133.512600484
 20
92.528182126
 10
133.433197553
 20
92.507762125
 10
133.355071559
 20
92.4911793778
 10
133.2783379884
 20
92.4783468912
 10
133.2028740309
 20
92.4693447475
 10
133.1288888462
 20
92.4632174252
 10
133.0564678862
 20
92.4598792372
 10
132.9855216813
 20
92.4594120669
 10
132.9159984072
 20
92.4611130705
 10
132.8479395575
 20
92.4649066761
 10
132.7813015623
 20
92.4708664853
 10
132.715905764
 20
92.478514137
 10
132.6518189604
 20
92.4877757887
 10
132.5889733674
 20
92.4987243455
 10
132.5269888354
 20
92.5111019288
 10
132.4657385484
 20
92.5248224846
 10
132.4053489535
 20
92.5399717162
 10
132.3458199597
 20
92.5565495368
  0
LWPOLYLINE
  5
395
100
AcDbEntity
  8
0
100
AcDbPolyline
 62
7
  6
CONTINUOUS
 90
8
 70
0
 10
137.1933836167
 20
126.9246041361
 10
137.1948138383
 20
126.9484771054
 10
137.1990994302
 20
126.9720759891
 10
137.2062051436
 20
126.9950613517
 10
137.216154468
 20
127.0172853612
 10
137.2287926723
 20
127.0382255209
 10
137.2436517417
 20
127.0571951072
 10
137.2616750846
 20
127.075112781
  0
LWPOLYLINE
  5
396
100
AcDbEntity
  8
0
100
AcDbPolyline
 62
7
  6
CONTINUOUS
 90
6
 70
0
 10
131.0902924255
 20
96.6351893468
 10
131.0421649009
 20
96.5115420032
 10
131.0044503698
 20
96.3816767042
 10
130.9773597471
 20
96.2463197092
 10
130.9610445346
 20
96.1062279895
 10
130.9555959736
 20
95.9621849948
  0
LINE
  5
397
100
AcDbEntity
  8
0
100
AcDbLine
 62
253
  6
CONTINUOUS
 10
145.2943109806
 20
124.4811926377
 11
145.6662520777
 21
125.1834021269
  0
LINE
  5
398
100
AcDbEntity
  8
0
100
AcDbLine
 62
7
  6
CONTINUOUS
 10
145.2980042269
 20
124.426044862
 11
145.669945324
 21
125.1282543512
  0
LWPOLYLINE
  5
399
100
AcDbEntity
  8
0
100
AcDbPolyline
 62
7
  6
CONTINUOUS
 90
43
 70
0
 10
144.6622784506
 20
123.816844376
 10
144.6581575404
 20
123.8094825835
 10
144.6538114693
 20
123.8021651983
 10
144.6492402902
 20
123.7949007425
 10
144.6444423134
 20
123.7876983852
 10
144.6394201506
 20
123.7805662459
 10
144.6341806429
 20
123.7735114217
 10
144.628724814
 20
123.7665428421
 10
144.6230540857
 20
123.7596693274
 10
144.6171761725
 20
123.7528979738
 10
144.6110929138
 20
123.7462378906
 10
144.6048065243
 20
123.7396980531
 10
144.5983255549
 20
123.7332855197
 10
144.5916527004
 20
123.7270095194
 10
144.5847910006
 20
123.7208791159
 10
144.5777497971
 20
123.7149012903
 10
144.570532656
 20
123.7090853086
 10
144.5631434968
 20
123.7034402758
 10
144.5555924717
 20
123.6979731106
 10
144.5478840602
 20
123.692693046
 10
144.5400231015
 20
123.6876091506
 10
144.5320205867
 20
123.682728279
 10
144.5238819491
 20
123.6780595451
 10
144.5156129962
 20
123.6736118955
 10
144.5072256117
 20
123.6693921103
 10
144.4987262283
 20
123.6654090822
 10
144.4901216703
 20
123.6616715306
 10
144.4814247829
 20
123.658186124
 10
144.4726430478
 20
123.6549614122
 10
144.4637843489
 20
123.6520057548
 10
144.4548625583
 20
123.6493256294
 10
144.4458862578
 20
123.6469290951
 10
144.4368644185
 20
123.644823987
 10
144.4278119701
 20
123.6430164557
 10
144.4187386716
 20
123.6415138966
 10
144.4096545528
 20
123.6403234159
 10
144.4005754622
 20
123.6394506311
 10
144.3915123335
 20
123.6389020686
 10
144.382476256
 20
123.6386839021
 10
144.373483848
 20
123.6388010027
 10
144.3645593514
 20
123.6392579874
 10
144.3557026241
 20
123.6400596733
 10
144.3504128272
 20
123.6407098543
  0
LINE
  5
39A
100
AcDbEntity
  8
RACCORDO
100
AcDbLine
 62
253
  6
CONTINUOUS
 10
157.2058866039
 20
129.188500385
 11
147.1898136172
 21
120.1537633908
  0
LINE
  5
39B
100
AcDbEntity
  8
DRAFT
100
AcDbLine
 62
7
  6
CONTINUOUS
 10
146.6531565796
 20
120.4208528921
 11
147.1455988904
 21
120.8529168136
  0
LWPOLYLINE
  5
39C
100
AcDbEntity
  8
RACCORDO
100
AcDbPolyline
 62
7
  6
CONTINUOUS
 90
13
 70
0
 10
131.7234483219
 20
104.7789343553
 10
131.7087266122
 20
104.7661789737
 10
131.6914945231
 20
104.7539509603
 10
131.6719998157
 20
104.7425205699
 10
131.6505162427
 20
104.7321934778
 10
131.6273861652
 20
104.7231547238
 10
131.6030150709
 20
104.715462817
 10
131.5777928976
 20
104.7092746278
 10
131.5521220778
 20
104.7047648856
 10
131.5264580736
 20
104.7019667345
 10
131.5012407512
 20
104.7009269289
 10
131.4768863424
 20
104.7017084278
 10
131.453814251
 20
104.704308082
  0
LINE
  5
39D
100
AcDbEntity
  8
RACCORDO
100
AcDbLine
 62
7
  6
CONTINUOUS
 10
131.0641601813
 20
104.9437705171
 11
131.068280763
 21
104.9473333784
  0
LWPOLYLINE
  5
39E
100
AcDbEntity
  8
RACCORDO
100
AcDbPolyline
 62
7
  6
CONTINUOUS
 90
14
 70
0
 10
131.0642031364
 20
104.943806873
 10
131.106904316
 20
104.9789366872
 10
131.1934316242
 20
105.0394652882
 10
131.2856602006
 20
105.091045108
 10
131.3837020748
 20
105.1339403382
 10
131.4872470874
 20
105.1680830989
 10
131.5956562447
 20
105.1933073696
 10
131.7084829966
 20
105.2095581859
 10
131.8251458854
 20
105.2167790864
 10
131.9448499424
 20
105.2149619135
 10
132.0667469164
 20
105.2042028875
 10
132.1900455557
 20
105.1846868421
 10
132.314016451
 20
105.1566626144
 10
132.3690701226
 20
105.1415762028
  0
LINE
  5
39F
100
AcDbEntity
  8
ASSI
100
AcDbLine
 62
7
  6
CONTINUOUS
 10
134.092757669
 20
109.9927421524
 11
133.9920607484
 21
109.9350566997
  0
LINE
  5
3A0
100
AcDbEntity
  8
ASSI
100
AcDbLine
 62
7
  6
CONTINUOUS
 10
133.9920607484
 20
109.9350566997
 11
133.8775923355
 21
109.8837175666
  0
LWPOLYLINE
  5
3A1
100
AcDbEntity
  8
ASSI
100
AcDbPolyline
 62
7
  6
CONTINUOUS
 90
6
 70
0
 10
133.8775923355
 20
109.8837175666
 10
133.7565054061
 20
109.8425883918
 10
133.6308126809
 20
109.8123528291
 10
133.5004371755
 20
109.7931929622
 10
133.3654558742
 20
109.7849267074
 10
133.2281124518
 20
109.7876914673
  0
LWPOLYLINE
  5
3A2
100
AcDbEntity
  8
0
100
AcDbPolyline
 62
7
  6
CONTINUOUS
 90
3
 70
0
 10
133.6160410007
 20
101.607561298
 10
133.7496003982
 20
101.6272773904
 10
133.8784317117
 20
101.6581763308
  0
LINE
  5
3A3
100
AcDbEntity
  8
0
100
AcDbLine
 62
7
  6
CONTINUOUS
 10
133.4785004374
 20
101.599138314
 11
133.6160410007
 21
101.607561298
  0
LINE
  5
3A4
100
AcDbEntity
  8
RACCORDO
100
AcDbLine
 62
7
  6
CONTINUOUS
 10
131.4538136109
 20
104.70430712
 11
131.1778911967
 21
104.7473223438
  0
LWPOLYLINE
  5
3A5
100
AcDbEntity
  8
RACCORDO
100
AcDbPolyline
 62
253
  6
CONTINUOUS
 90
67
 70
0
 10
132.2578054598
 20
105.4077820262
 10
132.3211367292
 20
105.3888612475
 10
132.38588305
 20
105.3674635819
 10
132.4520444444
 20
105.3435890486
 10
132.5194742937
 20
105.317476324
 10
132.5883193074
 20
105.2888868094
 10
132.6590195465
 20
105.2571046511
 10
132.7317215535
 20
105.2221459867
 10
132.8062790514
 20
105.1839949061
 10
132.8826929856
 20
105.1418875818
 10
132.9610128975
 20
105.0958833709
 10
133.0411898319
 20
105.0459234187
 10
133.123077215
 20
104.9910667729
 10
133.2068025998
 20
104.9313360908
 10
133.2922395967
 20
104.866709713
 10
133.3788611248
 20
104.79618056
 10
133.4668329888
 20
104.7197395083
 10
133.5559915148
 20
104.6373975104
 10
133.645316061
 20
104.5481781662
 10
133.7350235989
 20
104.452012762
 10
133.8249007924
 20
104.3489731358
 10
133.9132824895
 20
104.2382945324
 10
134.000486087
 20
104.1196862542
 10
134.0861999789
 20
103.9934439835
 10
134.1678165417
 20
103.8596834253
 10
134.2455767099
 20
103.7178955786
 10
134.3192476547
 20
103.5685964368
 10
134.3855114689
 20
103.4134395126
 10
134.4443292396
 20
103.2517870688
 10
134.4957491032
 20
103.0842848246
 10
134.5365821483
 20
102.914510122
 10
134.5662893501
 20
102.7417818484
 10
134.5854169953
 20
102.5667874353
 10
134.5923992154
 20
102.3951527919
 10
134.5862348028
 20
102.2270844597
 10
134.5679252611
 20
102.0623762055
 10
134.5389016376
 20
101.9060285839
 10
134.4985572973
 20
101.7590677191
 10
134.4474917403
 20
101.6204613389
 10
134.3889399694
 20
101.492117844
 10
134.3228715869
 20
101.3747761099
 10
134.2493075999
 20
101.2676891228
 10
134.1715584366
 20
101.17053498
 10
134.0898293033
 20
101.0836543943
 10
134.00390683
 20
101.0066995557
 10
133.9164739436
 20
100.9383160879
 10
133.8278620229
 20
100.878635006
 10
133.7377337945
 20
100.8275201592
 10
133.6477702348
 20
100.783217315
 10
133.5581847648
 20
100.7456668684
 10
133.4687602784
 20
100.7149252086
 10
133.3805329303
 20
100.6894129395
 10
133.2936685406
 20
100.669043225
 10
133.2079991321
 20
100.6539010167
 10
133.1240608314
 20
100.6426651818
 10
133.0419798113
 20
100.635239242
 10
132.9616287234
 20
100.6317186478
 10
132.8831638243
 20
100.6310705211
 10
132.8066613645
 20
100.6332017766
 10
132.7320445025
 20
100.6382049825
 10
132.6592400861
 20
100.6453259414
 10
132.588316905
 20
100.6544779184
 10
132.5192059035
 20
100.6657474157
 10
132.4516272755
 20
100.6786401914
 10
132.3854877291
 20
100.6929914783
 10
132.3208804647
 20
100.7089659634
 10
132.2578054598
 20
100.7265636274
  0
LWPOLYLINE
  5
3A6
100
AcDbEntity
  8
RACCORDO
100
AcDbPolyline
 62
7
  6
CONTINUOUS
 90
32
 70
0
 10
132.3691675483
 20
105.1415479283
 10
132.435060745
 20
105.1213763097
 10
132.5765858589
 20
105.0703002267
 10
132.7182705464
 20
105.0085101674
 10
132.8591282766
 20
104.9362688226
 10
132.9981609575
 20
104.853946798
 10
133.134410347
 20
104.7619962205
 10
133.2669356947
 20
104.6609653716
 10
133.3948456391
 20
104.5514723302
 10
133.517331408
 20
104.434164707
 10
133.6335838333
 20
104.3098016141
 10
133.7428525434
 20
104.1791887338
 10
133.844507786
 20
104.043116613
 10
133.9379135826
 20
103.9024849977
 10
134.0225073989
 20
103.7582380786
 10
134.0978418677
 20
103.6112903408
 10
134.1634527657
 20
103.4627238851
 10
134.2190757266
 20
103.3134678897
 10
134.2645479021
 20
103.164249791
 10
134.2996124505
 20
103.0163047758
 10
134.3242595009
 20
102.8704346902
 10
134.3385236693
 20
102.7268159707
 10
134.3423113605
 20
102.586432233
 10
134.3356682829
 20
102.4503626041
 10
134.3186252419
 20
102.3190845765
 10
134.2912812898
 20
102.1935229406
 10
134.2538953914
 20
102.0746458851
 10
134.2066293601
 20
101.9630111449
 10
134.1498712876
 20
101.8594569273
 10
134.0838525448
 20
101.7643601341
 10
134.0082128736
 20
101.6775330246
 10
133.944110623
 20
101.617232932
  0
LWPOLYLINE
  5
3A7
100
AcDbEntity
  8
0
100
AcDbPolyline
 62
253
  6
CONTINUOUS
 90
3
 70
0
 10
145.6538334041
 20
84.0569679089
 10
145.649079299
 20
84.067453011
 10
145.6438736578
 20
84.0776632366
  0
LINE
  5
3A8
100
AcDbEntity
  8
DRAFT
100
AcDbLine
 62
253
  6
CONTINUOUS
 10
137.0230642189
 20
128.9189243395
 11
137.0230642189
 21
130.0572044549
  0
LINE
  5
3A9
100
AcDbEntity
  8
0
100
AcDbLine
 62
7
  6
CONTINUOUS
 10
137.1933836167
 20
126.9246041361
 11
137.1933836167
 21
125.6955412133
  0
LINE
  5
3AA
100
AcDbEntity
  8
0
100
AcDbLine
 62
253
  6
CONTINUOUS
 10
137.2465428639
 20
130.2484906942
 11
137.2465428639
 21
131.6324467972
  0
LINE
  5
3AB
100
AcDbEntity
  8
0
100
AcDbLine
 62
253
  6
CONTINUOUS
 10
137.2933836167
 20
126.8380015958
 11
137.2933836167
 21
125.6043872441
  0
LINE
  5
3AC
100
AcDbEntity
  8
0
100
AcDbLine
 62
7
  6
CONTINUOUS
 10
137.3072390781
 20
130.3606114219
 11
137.3072390781
 21
131.677035675
  0
LINE
  5
3AD
100
AcDbEntity
  8
RACCORDO
100
AcDbLine
 62
253
  6
CONTINUOUS
 10
137.6211510659
 20
128.0270609354
 11
137.6211510659
 21
127.3858445841
  0
LINE
  5
3AE
100
AcDbEntity
  8
0
100
AcDbLine
 62
7
  6
CONTINUOUS
 10
137.8303579778
 20
130.3021334745
 11
137.8303579778
 21
129.7358961335
  0
LINE
  5
3AF
100
AcDbEntity
  8
RACCORDO
100
AcDbLine
 62
253
  6
CONTINUOUS
 10
138.0227522363
 20
128.1929350227
 11
138.0227522363
 21
127.6618757552
  0
LINE
  5
3B0
100
AcDbEntity
  8
DRAFT
100
AcDbLine
 62
253
  6
CONTINUOUS
 10
138.3890896227
 20
129.0988109383
 11
138.3890896227
 21
129.6697719318
  0
LINE
  5
3B1
100
AcDbEntity
  8
0
100
AcDbLine
 62
7
  6
CONTINUOUS
 10
138.7852420454
 20
125.9971508398
 11
138.7852420454
 21
124.550988074
  0
LINE
  5
3B2
100
AcDbEntity
  8
RACCORDO
100
AcDbLine
 62
253
  6
CONTINUOUS
 10
138.9606828974
 20
127.9221777629
 11
138.9606828974
 21
127.4748671167
  0
LWPOLYLINE
  5
3B3
100
AcDbEntity
  8
0
100
AcDbPolyline
 62
253
  6
CONTINUOUS
 90
12
 70
0
 10
137.2933836167
 20
126.8380015958
 10
137.2935190394
 20
126.8471299027
 10
137.2939252608
 20
126.8564736263
 10
137.2946016583
 20
126.8660077794
 10
137.295547085
 20
126.8757087069
 10
137.2967593365
 20
126.885548428
 10
137.2982346332
 20
126.8954944699
 10
137.2999685747
 20
126.9055176832
 10
137.3019567195
 20
126.9155928324
 10
137.3041937232
 20
126.9256927831
 10
137.3066735694
 20
126.9357902483
 10
137.3093894872
 20
126.9458575471
  0
LWPOLYLINE
  5
3B4
100
AcDbEntity
  8
RACCORDO
100
AcDbPolyline
 62
7
  6
CONTINUOUS
 90
7
 70
0
 10
139.1106776798
 20
127.7305408696
 10
139.1105412861
 20
127.7262401012
 10
139.1092948598
 20
127.717000125
 10
139.1064661837
 20
127.706224963
 10
139.1017774014
 20
127.6940767628
 10
139.0950735049
 20
127.6808408658
 10
139.0888992717
 20
127.6707215438
  0
LWPOLYLINE
  5
3B5
100
AcDbEntity
  8
0
100
AcDbPolyline
 62
7
  6
CONTINUOUS
 90
4
 70
0
 10
145.669945324
 20
125.1282543512
 10
145.6825921588
 20
125.1561366273
 10
145.6916927273
 20
125.1851800495
 10
145.6971830799
 20
125.2150030649
  0
LINE
  5
3B6
100
AcDbEntity
  8
0
100
AcDbLine
 62
7
  6
CONTINUOUS
 10
131.1013062048
 20
96.6572537927
 11
131.0902924255
 21
96.6351893468
  0
LWPOLYLINE
  5
3B7
100
AcDbEntity
  8
ASSI
100
AcDbPolyline
 62
7
  6
CONTINUOUS
 90
3
 70
0
 10
131.0875768914
 20
96.6352748806
 10
131.1540968184
 20
96.7417649568
 10
131.2301807789
 20
96.8408883387
  0
LWPOLYLINE
  5
3B8
100
AcDbEntity
  8
RACCORDO
100
AcDbPolyline
 62
253
  6
CONTINUOUS
 90
24
 70
0
 10
157.2863657267
 20
123.1207841308
 10
157.299359393
 20
123.1299747322
 10
157.3114649516
 20
123.136855637
 10
157.32265207
 20
123.1414532023
 10
157.3328508934
 20
123.1436681652
 10
157.3420482618
 20
123.1436674747
 10
157.3502996409
 20
123.1418749669
 10
157.3575517313
 20
123.1383592687
 10
157.3637679643
 20
123.1331226612
 10
157.3690405517
 20
123.1264808181
 10
157.3733432892
 20
123.118526844
 10
157.3766070037
 20
123.1092468655
 10
157.3788636743
 20
123.0987949206
 10
157.3800880828
 20
123.0872570011
 10
157.3801977924
 20
123.074643876
 10
157.3791362501
 20
123.0610016797
 10
157.3768654934
 20
123.0464189398
 10
157.3733022694
 20
123.0309257443
 10
157.3683149391
 20
123.0144896263
 10
157.3618721543
 20
122.997240883
 10
157.3538684953
 20
122.9791958064
 10
157.3440412757
 20
122.9601727972
 10
157.332365252
 20
122.940351499
 10
157.331327266
 20
122.9387879476
  0
LWPOLYLINE
  5
3B9
100
AcDbEntity
  8
0
100
AcDbPolyline
 62
253
  6
CONTINUOUS
 90
43
 70
0
 10
142.5877435136
 20
82.6806186965
 10
142.5891319674
 20
82.6678444636
 10
142.5907857352
 20
82.655400421
 10
142.5927048171
 20
82.6432865686
 10
142.5948919005
 20
82.6314898239
 10
142.5973442979
 20
82.6200232694
 10
142.6000539476
 20
82.6089261529
 10
142.6030215839
 20
82.5982005355
 10
142.6062464725
 20
82.5878443561
 10
142.6097183484
 20
82.5778906794
 10
142.6134379908
 20
82.5683408394
 10
142.6174046205
 20
82.5591935021
 10
142.6216056356
 20
82.5504777305
 10
142.6260417819
 20
82.5421948849
 10
142.6307123137
 20
82.5343436049
 10
142.6356023915
 20
82.5269488729
 10
142.6407127221
 20
82.5200121347
 10
142.6460425987
 20
82.5135319445
 10
142.6515750616
 20
82.5075289468
 10
142.6573107498
 20
82.5020046689
 10
142.6632490243
 20
82.4969575837
 10
142.6693710078
 20
82.4924037541
 10
142.6756772889
 20
82.4883447479
 10
142.682167279
 20
82.4847789974
 10
142.6888203355
 20
82.4817178629
 10
142.6956369923
 20
82.4791629526
 10
142.7026167155
 20
82.4771126584
 10
142.7097372614
 20
82.4755735159
 10
142.7169990626
 20
82.4745471612
 10
142.7244016865
 20
82.4740319582
 10
142.7319215909
 20
82.4740295343
 10
142.7395591428
 20
82.4745415157
 10
142.7473139752
 20
82.4755662761
 10
142.7551614459
 20
82.4771005641
 10
142.7631018853
 20
82.4791460229
 10
142.7711349629
 20
82.4817010093
 10
142.7792350446
 20
82.484757343
 10
142.7874028017
 20
82.488316968
 10
142.7956375628
 20
82.4923779402
 10
142.8039116804
 20
82.4969262471
 10
142.8122159386
 20
82.5019572178
 10
142.8205595533
 20
82.5074755231
 10
142.8289425245
 20
82.5134811631
  0
LWPOLYLINE
  5
3BA
100
AcDbEntity
  8
0
100
AcDbPolyline
 62
253
  6
CONTINUOUS
 90
27
 70
0
 10
141.9119550521
 20
82.5307221117
 10
141.9146877781
 20
82.5052075535
 10
141.9179504432
 20
82.4803098514
 10
141.9217396231
 20
82.4560554175
 10
141.9260513969
 20
82.4324700677
 10
141.9308811845
 20
82.4095787169
 10
141.9362237764
 20
82.3874053865
 10
141.9420736683
 20
82.3659734412
 10
141.9484246862
 20
82.3453058163
 10
141.9552698297
 20
82.3254247154
 10
141.9626019255
 20
82.3063512894
 10
141.9704133064
 20
82.2881056753
 10
141.9786954598
 20
82.2707072549
 10
141.9874397532
 20
82.2541744526
 10
141.9966370129
 20
82.2385248107
 10
142.0062771961
 20
82.2237750191
 10
142.0163502554
 20
82.2099406831
 10
142.0268456241
 20
82.1970364827
 10
142.0377518004
 20
82.1850762562
 10
142.0490573803
 20
82.1740726641
 10
142.0607505307
 20
82.1640373324
 10
142.0728184774
 20
82.1549810181
 10
142.0852486147
 20
82.146913283
 10
142.0980279224
 20
82.139842648
 10
142.1111424379
 20
82.1337767386
 10
142.1245784754
 20
82.128721934
 10
142.1317329159
 20
82.1264816042
  0
LWPOLYLINE
  5
3BB
100
AcDbEntity
  8
0
100
AcDbPolyline
 62
7
  6
CONTINUOUS
 90
13
 70
0
 10
139.8627756506
 20
131.1807769194
 10
139.8607694422
 20
131.255162361
 10
139.8551321639
 20
131.3247245527
 10
139.8458638157
 20
131.3894634945
 10
139.8328401483
 20
131.4497932817
 10
139.816185411
 20
131.505299819
 10
139.7962723517
 20
131.5547408207
 10
139.773027498
 20
131.5979795143
 10
139.7465243222
 20
131.6351526724
 10
139.7173559891
 20
131.6654283265
 10
139.6854624016
 20
131.6886509441
 10
139.6509036567
 20
131.7049760577
 10
139.6399926123
 20
131.7085145817
  0
LINE
  5
3BC
100
AcDbEntity
  8
RACCORDO
100
AcDbLine
 62
7
  6
CONTINUOUS
 10
139.1106826538
 20
127.7305000844
 11
139.11068286
 21
127.7302999069
  0
LINE
  5
3BD
100
AcDbEntity
  8
0
100
AcDbLine
 62
7
  6
CONTINUOUS
 10
139.6004085964
 20
124.3156697602
 11
139.6004085964
 21
125.7618325259
  0
LINE
  5
3BE
100
AcDbEntity
  8
0
100
AcDbLine
 62
7
  6
CONTINUOUS
 10
139.8627756506
 20
130.7165986058
 11
139.8627756506
 21
131.1807769194
  0
LINE
  5
3BF
100
AcDbEntity
  8
RACCORDO
100
AcDbLine
 62
253
  6
CONTINUOUS
 10
140.0460221965
 20
127.3270609354
 11
140.0460221965
 21
127.0914290443
  0
LINE
  5
3C0
100
AcDbEntity
  8
0
100
AcDbLine
 62
7
  6
CONTINUOUS
 10
140.357966179
 20
125.0310868292
 11
140.357966179
 21
126.4167274752
  0
LINE
  5
3C1
100
AcDbEntity
  8
RACCORDO
100
AcDbLine
 62
253
  6
CONTINUOUS
 10
140.4476233669
 20
127.4929350227
 11
140.4476233669
 21
127.4351790146
  0
LWPOLYLINE
  5
3C2
100
AcDbEntity
  8
0
100
AcDbPolyline
 62
253
  6
CONTINUOUS
 90
16
 70
0
 10
141.9119550521
 20
119.2687624713
 10
141.853478344
 20
118.5482364935
 10
141.7984848989
 20
117.8297784714
 10
141.7469787668
 20
117.113442966
 10
141.698963644
 20
116.3992844305
 10
141.6544431629
 20
115.6873570388
 10
141.613420893
 20
114.977714682
 10
141.575899877
 20
114.2704111877
 10
141.5418828584
 20
113.5655003157
 10
141.5113725716
 20
112.8630355864
 10
141.4843712881
 20
112.1630703733
 10
141.46088097
 20
111.465657773
 10
141.4409035003
 20
110.7708506028
 10
141.4244404021
 20
110.0787015651
 10
141.4114928367
 20
109.389263242
 10
141.4020617576
 20
108.7025879657
  0
LWPOLYLINE
  5
3C3
100
AcDbEntity
  8
0
100
AcDbPolyline
 62
253
  6
CONTINUOUS
 90
32
 70
0
 10
144.1572400622
 20
123.8852861316
 10
144.1540014234
 20
123.8739001628
 10
144.1502830595
 20
123.8626795965
 10
144.1460930343
 20
123.8516498445
 10
144.1414401228
 20
123.8408351223
 10
144.1363348127
 20
123.8302608119
 10
144.1307896135
 20
123.8199532166
 10
144.1248175428
 20
123.8099364025
 10
144.1184316486
 20
123.800232132
 10
144.1116462033
 20
123.7908621225
 10
144.1044764001
 20
123.7818474251
 10
144.0969384884
 20
123.7732085379
 10
144.0890496238
 20
123.7649651461
 10
144.080827676
 20
123.7571359141
 10
144.0722911471
 20
123.7497384519
 10
144.0634592869
 20
123.7427894431
 10
144.0543520162
 20
123.7363045676
 10
144.0449899037
 20
123.730298477
 10
144.0353941022
 20
123.7247847436
 10
144.0255862795
 20
123.719775817
 10
144.0155885681
 20
123.7152829997
 10
144.0054235355
 20
123.7113164334
 10
143.9951141271
 20
123.7078850717
 10
143.9846836147
 20
123.7049966604
 10
143.9741555435
 20
123.7026577197
 10
143.9635536663
 20
123.7008735276
 10
143.952901927
 20
123.6996481146
 10
143.9422244077
 20
123.6989842482
 10
143.931545236
 20
123.6988834206
 10
143.9208884925
 20
123.6993458512
 10
143.9102781946
 20
123.7003704947
 10
143.9078919895
 20
123.7006793569
  0
LINE
  5
3C4
100
AcDbEntity
  8
RACCORDO
100
AcDbLine
 62
7
  6
CONTINUOUS
 10
133.9441410126
 20
101.617258902
 11
133.9432109156
 21
101.6164573896
  0
LWPOLYLINE
  5
3C5
100
AcDbEntity
  8
RACCORDO
100
AcDbPolyline
 62
253
  6
CONTINUOUS
 90
24
 70
0
 10
133.9432109156
 20
101.6164573896
 10
133.9301993358
 20
101.6054121617
 10
133.8588448971
 20
101.550007144
 10
133.7863873363
 20
101.501648297
 10
133.7133714689
 20
101.4598337877
 10
133.6400343032
 20
101.4239577901
 10
133.5668604732
 20
101.3936120253
 10
133.4942997304
 20
101.3683842625
 10
133.4224006022
 20
101.3477632525
 10
133.3515014889
 20
101.3313818776
 10
133.281907013
 20
101.3188745573
 10
133.2135142853
 20
101.3098382511
 10
133.1465541964
 20
101.3039643827
 10
133.0812231774
 20
101.3009485919
 10
133.0172944718
 20
101.3004994478
 10
132.9549089414
 20
101.3023721609
 10
132.8942004617
 20
101.3063275116
 10
132.8348831788
 20
101.3121798835
 10
132.7770633709
 20
101.3197401833
 10
132.7208087976
 20
101.3288271684
 10
132.665745146
 20
101.3393568726
 10
132.6117820867
 20
101.3512317332
 10
132.5591192843
 20
101.3642950501
 10
132.5078018074
 20
101.3784201264
  0
LWPOLYLINE
  5
3C6
100
AcDbEntity
  8
0
100
AcDbPolyline
 62
253
  6
CONTINUOUS
 90
37
 70
0
 10
142.0806002789
 20
108.7820684737
 10
142.0690952655
 20
108.77330142
 10
142.0568138583
 20
108.7647903728
 10
142.0437789192
 20
108.7565511752
 10
142.0300147128
 20
108.7485991646
 10
142.0155468612
 20
108.7409491437
 10
142.0004022963
 20
108.7336153531
 10
141.9846092099
 20
108.7266114447
 10
141.9681970009
 20
108.7199504562
 10
141.9511962206
 20
108.7136447872
 10
141.9336385161
 20
108.7077061756
 10
141.9155565712
 20
108.7021456762
 10
141.8969840454
 20
108.6969736399
 10
141.8779555117
 20
108.6921996945
 10
141.8585063917
 20
108.6878327267
 10
141.83867289
 20
108.6838808656
 10
141.8184919268
 20
108.6803514677
 10
141.7980010691
 20
108.6772511028
 10
141.7772384606
 20
108.6745855425
 10
141.7562427512
 20
108.6723597485
 10
141.7350530243
 20
108.6705778643
 10
141.7137087248
 20
108.6692432069
 10
141.6922495851
 20
108.6683582606
 10
141.6707155516
 20
108.6679246729
 10
141.64914671
 20
108.6679432508
 10
141.6275832108
 20
108.6684139598
 10
141.6060651945
 20
108.6693359237
 10
141.584632717
 20
108.6707074262
 10
141.5633256749
 20
108.6725259142
 10
141.5421837315
 20
108.6747880027
 10
141.5212462425
 20
108.6774894807
 10
141.5005521832
 20
108.6806253194
 10
141.4801400757
 20
108.6841896815
 10
141.4600479172
 20
108.6881759318
 10
141.4403131093
 20
108.69257665
 10
141.4209723885
 20
108.6973836441
 10
141.4020617577
 20
108.7025879658
  0
LWPOLYLINE
  5
3C7
100
AcDbEntity
  8
RACCORDO
100
AcDbPolyline
 62
253
  6
CONTINUOUS
 90
34
 70
0
 10
132.277320515
 20
108.9789409738
 10
132.2117582838
 20
108.9986175347
 10
132.1451482708
 20
109.0207284041
 10
132.0774905003
 20
109.0452736024
 10
132.0090033533
 20
109.072001935
 10
131.939468546
 20
109.1011646785
 10
131.8682311522
 20
109.1335155998
 10
131.7950879705
 20
109.1690502787
 10
131.7202424778
 20
109.2077733675
 10
131.6436498789
 20
109.2504523384
 10
131.5652743975
 20
109.2970103162
 10
131.4851524081
 20
109.3475246796
 10
131.4033475734
 20
109.4029944767
 10
131.3197239477
 20
109.4633872084
 10
131.2344186653
 20
109.5287363739
 10
131.1479054353
 20
109.600140377
 10
131.060002743
 20
109.6776034602
 10
130.9708943023
 20
109.7611232298
 10
130.8816023698
 20
109.8517887274
 10
130.7918868736
 20
109.9496741443
 10
130.7019916922
 20
110.0547084854
 10
130.613666045
 20
110.1677638829
 10
130.5265033126
 20
110.2893240506
 10
130.4409163063
 20
110.4189104654
 10
130.359884359
 20
110.555952712
 10
130.2832317431
 20
110.701256305
 10
130.2111425386
 20
110.8540227148
 10
130.1471353445
 20
111.0112750818
 10
130.0916071249
 20
111.1734248089
 10
130.044168681
 20
111.3400669611
 10
130.0071565207
 20
111.5069977847
 10
129.981349877
 20
111.6728163459
 10
129.9659730463
 20
111.8389264853
 10
129.9610280891
 20
112.0053298999
  0
LWPOLYLINE
  5
3C8
100
AcDbEntity
  8
RACCORDO
100
AcDbPolyline
 62
253
  6
CONTINUOUS
 90
34
 70
0
 10
132.5272973477
 20
109.6225450955
 10
132.4739350379
 20
109.6387037474
 10
132.4196280709
 20
109.6567054811
 10
132.3644243618
 20
109.6766205253
 10
132.3086291952
 20
109.6984136285
 10
132.252046322
 20
109.7222411671
 10
132.1939880973
 20
109.7485241182
 10
132.134411833
 20
109.7774533791
 10
132.073536765
 20
109.8091027004
 10
132.0111019649
 20
109.8438149842
 10
131.9472731903
 20
109.8817226158
 10
131.8821567607
 20
109.9229992991
 10
131.8154530749
 20
109.9681249486
 10
131.7473555219
 20
110.0172907136
 10
131.6780999455
 20
110.0706691685
 10
131.6075299012
 20
110.1287907393
 10
131.5359513965
 20
110.1918530956
 10
131.463714771
 20
110.2600308433
 10
131.3908418082
 20
110.3338802699
 10
131.3177884493
 20
110.4135729564
 10
131.2450684395
 20
110.4992373474
 10
131.1729397366
 20
110.5913940751
 10
131.101903597
 20
110.6903477562
 10
131.0328525334
 20
110.795897195
 10
130.9667257413
 20
110.9077316336
 10
130.9041299652
 20
111.0260679735
 10
130.8461152961
 20
111.1503137609
 10
130.7940910094
 20
111.2787391
 10
130.7487024204
 20
111.4109444557
 10
130.7106255577
 20
111.5463447465
 10
130.6808025567
 20
111.6827591204
 10
130.6596289096
 20
111.8190290854
 10
130.6472722429
 20
111.9550318893
 10
130.6439929816
 20
112.0900942635
  0
LINE
  5
3C9
100
AcDbEntity
  8
ASSI
100
AcDbLine
 62
7
  6
CONTINUOUS
 10
133.2457901773
 20
109.9132680263
 11
133.4041531321
 21
109.862309238
  0
LWPOLYLINE
  5
3CA
100
AcDbEntity
  8
RACCORDO
100
AcDbPolyline
 62
7
  6
CONTINUOUS
 90
3
 70
0
 10
133.1873581592
 20
109.8670462665
 10
133.0277189981
 20
109.9189628983
 10
132.8681459202
 20
109.9825596586
  0
LINE
  5
3CB
100
AcDbEntity
  8
0
100
AcDbLine
 62
7
  6
CONTINUOUS
 10
132.7585372733
 20
109.9530947469
 11
132.9041531321
 21
109.9056105082
  0
LWPOLYLINE
  5
3CC
100
AcDbEntity
  8
ASSI
100
AcDbPolyline
 62
7
  6
CONTINUOUS
 90
22
 70
0
 10
132.8041531321
 20
109.862309238
 10
132.6604712377
 20
109.9093604135
 10
132.5191514645
 20
109.9660788323
 10
132.3801938124
 20
110.0324644946
 10
132.24285039
 20
110.1089949966
 10
132.1078690888
 20
110.195192742
 10
131.9774935833
 20
110.2896249421
 10
131.8518008582
 20
110.3924292335
 10
131.7307139288
 20
110.5034679796
 10
131.6162455158
 20
110.6208954817
 10
131.508506246
 20
110.7448185261
 10
131.4073854927
 20
110.8751303265
 10
131.3145640965
 20
111.0096648254
 10
131.2301807789
 20
111.1484926039
 10
131.1540968184
 20
111.2915430808
 10
131.0875768914
 20
111.4364384549
 10
131.0307808579
 20
111.583209563
 10
130.9835488578
 20
111.7318255682
 10
130.9466659868
 20
111.8798161583
 10
130.9203052277
 20
112.0271708798
 10
130.9042935976
 20
112.1739001862
 10
130.8988972438
 20
112.3175651263
  0
LINE
  5
3CD
100
AcDbEntity
  8
ASSI
100
AcDbLine
 62
7
  6
CONTINUOUS
 10
133.0874272225
 20
109.9745808633
 11
133.2457901773
 21
109.9132680263
  0
LWPOLYLINE
  5
3CE
100
AcDbEntity
  8
RACCORDO
100
AcDbPolyline
 62
253
  6
CONTINUOUS
 90
4
 70
0
 10
132.7125620357
 20
110.0529668458
 10
132.8665441923
 20
109.9810946108
 10
133.0223304378
 20
109.919575511
 10
133.1791531321
 20
109.8687674942
  0
LWPOLYLINE
  5
3CF
100
AcDbEntity
  8
RACCORDO
100
AcDbPolyline
 62
7
  6
CONTINUOUS
 90
18
 70
0
 10
132.8681459202
 20
109.9825596586
 10
132.7096037515
 20
110.0575450659
 10
132.5530348111
 20
110.1435550199
 10
132.3994187498
 20
110.2401176157
 10
132.2497439695
 20
110.3466519064
 10
132.1049996898
 20
110.462457605
 10
131.9659287853
 20
110.5869278472
 10
131.833106046
 20
110.7195693921
 10
131.7072609302
 20
110.8597085705
 10
131.5892128141
 20
111.0064728117
 10
131.4796344215
 20
111.1590410845
 10
131.3791818034
 20
111.3164970063
 10
131.2884170294
 20
111.4779331953
 10
131.2078069601
 20
111.6424877323
 10
131.1378182058
 20
111.8091598023
 10
131.0788253
 20
111.9769666257
 10
131.0310996317
 20
112.1450305788
 10
130.9949261298
 20
112.3121455595
  0
LWPOLYLINE
  5
3D0
100
AcDbEntity
  8
0
100
AcDbPolyline
 62
253
  6
CONTINUOUS
 90
12
 70
0
 10
130.5974100518
 20
129.5334021269
 10
130.6001032824
 20
129.5271460458
 10
130.6023001595
 20
129.5210437194
 10
130.6039957249
 20
129.5151089202
 10
130.6051861517
 20
129.5093550428
 10
130.6058687533
 20
129.5037950732
 10
130.606041989
 20
129.49844156
 10
130.6057054678
 20
129.4933065857
 10
130.6048599494
 20
129.4884017398
 10
130.6035073419
 20
129.4837380921
 10
130.6016506981
 20
129.4793261682
 10
130.6011032981
 20
129.4782543512
  0
LWPOLYLINE
  5
3D1
100
AcDbEntity
  8
0
100
AcDbPolyline
 62
253
  6
CONTINUOUS
 90
6
 70
0
 10
145.6704922874
 20
84.001266221
 10
145.668135637
 20
84.0127602144
 10
145.6652844391
 20
84.0241027745
 10
145.6619451286
 20
84.0352683023
 10
145.6581252431
 20
84.0462315952
 10
145.6538334041
 20
84.0569679089
  0
LWPOLYLINE
  5
3D2
100
AcDbEntity
  8
0
100
AcDbPolyline
 62
253
  6
CONTINUOUS
 90
16
 70
0
 10
141.4020617576
 20
92.2481052938
 10
141.4114928367
 20
91.5771292801
 10
141.4244404021
 20
90.9092440785
 10
141.4409035003
 20
90.2445003697
 10
141.46088097
 20
89.5829486042
 10
141.4843712881
 20
88.9246389666
 10
141.5113725717
 20
88.2696213729
 10
141.5418828585
 20
87.6179454672
 10
141.575899877
 20
86.9696607425
 10
141.613420893
 20
86.3248165052
 10
141.6544431629
 20
85.6834617098
 10
141.698963644
 20
85.0456449673
 10
141.7469787668
 20
84.4114146686
 10
141.7984848989
 20
83.7808189237
 10
141.853478344
 20
83.1539055561
 10
141.9119550521
 20
82.5307221117
  0
LWPOLYLINE
  5
3D3
100
AcDbEntity
  8
0
100
AcDbPolyline
 62
253
  6
CONTINUOUS
 90
16
 70
0
 10
142.0806002789
 20
92.3440402845
 10
142.0899824486
 20
91.6767099341
 10
142.1028598285
 20
91.0125527641
 10
142.1192324186
 20
90.3515687743
 10
142.1391019929
 20
89.6937080761
 10
142.1624667773
 20
89.0390205582
 10
142.1893214503
 20
88.3876558869
 10
142.2196668052
 20
87.7396150051
 10
142.2535020486
 20
87.0948969699
 10
142.2908194782
 20
86.4536486195
 10
142.3316198986
 20
85.8158706362
 10
142.3759025053
 20
85.1815623378
 10
142.4236571818
 20
84.5508685154
 10
142.4748805559
 20
83.923837433
 10
142.5295759999
 20
83.3004208267
 10
142.5877435136
 20
82.6806186965
  0
LWPOLYLINE
  5
3D4
100
AcDbEntity
  8
0
100
AcDbPolyline
 62
253
  6
CONTINUOUS
 90
22
 70
0
 10
141.7606836985
 20
124.4336145124
 10
141.7608027016
 20
124.4242724738
 10
141.7611594845
 20
124.4151543422
 10
141.7617533678
 20
124.4062774791
 10
141.7625832183
 20
124.3976588091
 10
141.7636474571
 20
124.3893147184
 10
141.7649440691
 20
124.3812610314
 10
141.7664706024
 20
124.3735130383
 10
141.7682241476
 20
124.3660855557
 10
141.7702013453
 20
124.3589928203
 10
141.7723984127
 20
124.3522483758
 10
141.7748111756
 20
124.3458650125
 10
141.7774350566
 20
124.339854839
 10
141.7802650823
 20
124.3342292629
 10
141.7832958474
 20
124.3289990441
 10
141.7865215338
 20
124.3241742128
 10
141.7899359612
 20
124.3197639788
 10
141.7935326498
 20
124.3157766792
 10
141.7973047922
 20
124.3122198497
 10
141.8012456894
 20
124.3090999147
 10
141.8053473938
 20
124.3064232691
 10
141.8096005881
 20
124.3041957074
  0
LINE
  5
3D5
100
AcDbEntity
  8
RACCORDO
100
AcDbLine
 62
253
  6
CONTINUOUS
 10
142.1306453158
 20
123.83196665
 11
142.1306472918
 21
123.831428835
  0
LINE
  5
3D6
100
AcDbEntity
  8
0
100
AcDbLine
 62
253
  6
CONTINUOUS
 10
141.6356847655
 20
124.8814764217
 11
141.6356836985
 21
124.881841652
  0
LINE
  5
3D7
100
AcDbEntity
  8
0
100
AcDbLine
 62
253
  6
CONTINUOUS
 10
141.635684249
 20
124.5416053577
 11
141.6356836985
 21
124.5418677323
  0
LINE
  5
3D8
100
AcDbEntity
  8
0
100
AcDbLine
 62
7
  6
CONTINUOUS
 10
141.6356836985
 20
124.881841622
 11
141.6356836985
 21
124.5418676878
  0
LINE
  5
3D9
100
AcDbEntity
  8
0
100
AcDbLine
 62
253
  6
CONTINUOUS
 10
141.7606836985
 20
124.7735884465
 11
141.7606836985
 21
124.4336145124
  0
LINE
  5
3DA
100
AcDbEntity
  8
0
100
AcDbLine
 62
7
  6
CONTINUOUS
 10
142.1306453101
 20
124.2109451117
 11
142.1306453101
 21
123.8321075733
  0
LINE
  5
3DB
100
AcDbEntity
  8
RACCORDO
100
AcDbLine
 62
253
  6
CONTINUOUS
 10
142.2556453101
 20
124.1748607199
 11
142.2556453101
 21
123.7135344289
  0
LWPOLYLINE
  5
3DC
100
AcDbEntity
  8
0
100
AcDbPolyline
 62
253
  6
CONTINUOUS
 90
13
 70
0
 10
141.4020617576
 20
108.7025879657
 10
141.3878554907
 20
107.3196162943
 10
141.376232333
 20
105.9387529808
 10
141.3671922464
 20
104.5600117486
 10
141.3607352037
 20
103.1834155095
 10
141.3568610474
 20
101.8089687011
 10
141.3555696588
 20
100.4366574304
 10
141.3568610465
 20
99.0664954545
 10
141.3607352021
 20
97.6984965187
 10
141.3671922445
 20
96.3326469416
 10
141.3762323311
 20
94.9689514347
 10
141.3878554895
 20
93.6074329557
 10
141.4020617576
 20
92.2481052938
  0
LWPOLYLINE
  5
3DD
100
AcDbEntity
  8
0
100
AcDbPolyline
 62
253
  6
CONTINUOUS
 90
13
 70
0
 10
142.0806002789
 20
108.7820684737
 10
142.0664079082
 20
107.400457341
 10
142.0547960211
 20
106.0209797224
 10
142.0457646177
 20
104.6436356177
 10
142.0393137622
 20
103.268420484
 10
142.0354433905
 20
101.8953388643
 10
142.0341533091
 20
100.524404388
 10
142.0354433891
 20
99.1556169509
 10
142.0393137596
 20
97.7889766573
 10
142.0457646144
 20
96.4244974496
 10
142.0547960182
 20
95.0621839753
 10
142.0664079063
 20
93.7020315869
 10
142.0806002789
 20
92.3440402845
  0
LWPOLYLINE
  5
3DE
100
AcDbEntity
  8
0
100
AcDbPolyline
 62
253
  6
CONTINUOUS
 90
34
 70
0
 10
141.7606836985
 20
124.7735884465
 10
141.7608242733
 20
124.7839752647
 10
141.7612456823
 20
124.7945822192
 10
141.7619469789
 20
124.805385454
 10
141.7629265876
 20
124.8163606779
 10
141.7641823061
 20
124.8274831993
 10
141.765711308
 20
124.8387279801
 10
141.7675101527
 20
124.8500697222
 10
141.7695747947
 20
124.8614829213
 10
141.7719005891
 20
124.8729419031
 10
141.7744823045
 20
124.8844208956
 10
141.7773141332
 20
124.8958940783
 10
141.7803897028
 20
124.9073356368
 10
141.7837020941
 20
124.9187198352
 10
141.7872438562
 20
124.9300210703
 10
141.7910070209
 20
124.9412139204
 10
141.7949831251
 20
124.9522732171
 10
141.7991632227
 20
124.9631740813
 10
141.8035379026
 20
124.9738919763
 10
141.8080973106
 20
124.9844027691
 10
141.8128312019
 20
124.9946828524
 10
141.8177289602
 20
125.0047091724
 10
141.8227796192
 20
125.0144592666
 10
141.8279717752
 20
125.0239111076
 10
141.8332936353
 20
125.0330432407
 10
141.8387331491
 20
125.0418350293
 10
141.844278148
 20
125.0502668457
 10
141.8499162632
 20
125.0583198965
 10
141.8556356804
 20
125.0659771914
 10
141.8614226927
 20
125.0732202654
 10
141.8672617478
 20
125.0800299759
 10
141.8731388097
 20
125.0863907005
 10
141.8790414771
 20
125.0922897583
 10
141.8849564821
 20
125.097714521
  0
LWPOLYLINE
  5
3DF
100
AcDbEntity
  8
RACCORDO
100
AcDbPolyline
 62
7
  6
CONTINUOUS
 90
5
 70
0
 10
142.1306479465
 20
123.8314014115
 10
142.1304726242
 20
123.8270366454
 10
142.1292432684
 20
123.8182635304
 10
142.1272912175
 20
123.8112791876
 10
142.1262429124
 20
123.8086028992
  0
LWPOLYLINE
  5
3E0
100
AcDbEntity
  8
0
100
AcDbPolyline
 62
253
  6
CONTINUOUS
 90
16
 70
0
 10
142.5877435136
 20
119.2895181419
 10
142.5295760634
 20
118.5729098858
 10
142.4748806648
 20
117.8584654292
 10
142.4236573179
 20
117.146184772
 10
142.3759026446
 20
116.436013966
 10
142.3316200229
 20
115.7280069594
 10
142.2908195871
 20
115.0223255975
 10
142.2535021477
 20
114.3189706094
 10
142.2196668942
 20
113.6179412658
 10
142.1893215294
 20
112.9193972241
 10
142.1624668477
 20
112.2233389311
 10
142.1391020546
 20
111.5297659399
 10
142.1192324693
 20
110.838836567
 10
142.1028598647
 20
110.1506035843
 10
142.0899824679
 20
109.4650142199
 10
142.0806002789
 20
108.7820684737
  0
LWPOLYLINE
  5
3E1
100
AcDbEntity
  8
SMUSSO
100
AcDbPolyline
 62
7
  6
CONTINUOUS
 90
8
 70
0
 10
146.7741113052
 20
129.6491288997
 10
146.78718076
 20
129.7144701093
 10
146.8223328673
 20
129.8175303671
 10
146.8712944859
 20
129.9191274951
 10
146.9323898039
 20
130.0176351867
 10
147.005060217
 20
130.1125113398
 10
147.0898643295
 20
130.2042980566
 10
147.1868021412
 20
130.292995337
  0
LINE
  5
3E2
100
AcDbEntity
  8
DRAFT
100
AcDbLine
 62
7
  6
CONTINUOUS
 10
157.334642075
 20
122.9326793784
 11
158.1472469541
 21
123.8500359622
  0
LINE
  5
3E3
100
AcDbEntity
  8
RACCORDO
100
AcDbLine
 62
7
  6
CONTINUOUS
 10
131.0927582488
 20
96.7412963186
 11
131.096410188
 21
96.744453823
  0
LWPOLYLINE
  5
3E4
100
AcDbEntity
  8
RACCORDO
100
AcDbPolyline
 62
7
  6
CONTINUOUS
 90
14
 70
0
 10
131.0927619592
 20
96.7412922952
 10
131.1374353006
 20
96.7778646846
 10
131.2220617618
 20
96.8364296035
 10
131.31233611
 20
96.8862589757
 10
131.4085214468
 20
96.9277116104
 10
131.5103542465
 20
96.9606916852
 10
131.6171749729
 20
96.9850136656
 10
131.7286622151
 20
97.0006118186
 10
131.8442330712
 20
97.0073888304
 10
131.9631125486
 20
97.0053013536
 10
132.0846347692
 20
96.9943832793
 10
132.2080781217
 20
96.9747359549
 10
132.3326595926
 20
96.9465383937
 10
132.3885668299
 20
96.931217896
  0
LINE
  5
3E5
100
AcDbEntity
  8
0
100
AcDbLine
 62
7
  6
CONTINUOUS
 10
134.0769648316
 20
101.7564536979
 11
133.9920607484
 21
101.7078153637
  0
LWPOLYLINE
  5
3E6
100
AcDbEntity
  8
RACCORDO
100
AcDbPolyline
 62
253
  6
CONTINUOUS
 90
6
 70
0
 10
157.6516311878
 20
112.3761262371
 10
157.6839176235
 20
112.3891655351
 10
157.7151908221
 20
112.3960540183
 10
157.74770347
 20
112.3980685499
 10
157.780903565
 20
112.3951748596
 10
157.8142273841
 20
112.3874220071
  0
LWPOLYLINE
  5
3E7
100
AcDbEntity
  8
RACCORDO
100
AcDbPolyline
 62
253
  6
CONTINUOUS
 90
3
 70
0
 10
158.0103482223
 20
112.4025893895
 10
157.9612652577
 20
112.3848566824
 10
157.9112028682
 20
112.3594275978
  0
LINE
  5
3E8
100
AcDbEntity
  8
RACCORDO
100
AcDbLine
 62
253
  6
CONTINUOUS
 10
158.0581502281
 20
112.4125213273
 11
158.0103482223
 21
112.4025893895
  0
LINE
  5
3E9
100
AcDbEntity
  8
ASSI
100
AcDbLine
 62
7
  6
CONTINUOUS
 10
133.2281124518
 20
109.7876914673
 11
133.0891547998
 21
109.8015330428
  0
LWPOLYLINE
  5
3EA
100
AcDbEntity
  8
0
100
AcDbPolyline
 62
7
  6
CONTINUOUS
 90
6
 70
0
 10
133.1825184405
 20
109.8452390953
 10
133.3377478909
 20
109.829296879
 10
133.4785004372
 20
109.8263796499
 10
133.6160410005
 20
109.8348026339
 10
133.749600398
 20
109.8545187263
 10
133.8784317114
 20
109.8854176667
  0
LWPOLYLINE
  5
3EB
100
AcDbEntity
  8
RACCORDO
100
AcDbPolyline
 62
7
  6
CONTINUOUS
 90
31
 70
0
 10
133.4950761802
 20
110.538625247
 10
133.4587772776
 20
110.5437500259
 10
133.4223722501
 20
110.5496806885
 10
133.3858610978
 20
110.5564172347
 10
133.3492506135
 20
110.5639030987
 10
133.3125340044
 20
110.5721948464
 10
133.2756908921
 20
110.5814621756
 10
133.2385870342
 20
110.5917173402
 10
133.2013566732
 20
110.6029480864
 10
133.1643821583
 20
110.6152873499
 10
133.1275313205
 20
110.6287960244
 10
133.0909363288
 20
110.6434132162
 10
133.0553760392
 20
110.6590891804
 10
133.0209404636
 20
110.6758134807
 10
132.9875395902
 20
110.6935965533
 10
132.9556822393
 20
110.7124199616
 10
132.925352089
 20
110.7323280402
 10
132.8965654612
 20
110.7532764545
 10
132.8698801424
 20
110.7751137634
 10
132.8453103722
 20
110.7979471357
 10
132.822841911
 20
110.8216694027
 10
132.8029898266
 20
110.8458076171
 10
132.7859257583
 20
110.8702672204
 10
132.7714780667
 20
110.8951427713
 10
132.7596469017
 20
110.9202449981
 10
132.7504267297
 20
110.9454932118
 10
132.7438230842
 20
110.9709681016
 10
132.739852716
 20
110.9967224636
 10
132.7385212086
 20
111.0227738967
 10
132.7398229785
 20
111.049104802
 10
132.7437580256
 20
111.0757151797
  0
LINE
  5
3EC
100
AcDbEntity
  8
ASSI
100
AcDbLine
 62
7
  6
CONTINUOUS
 10
133.0891547998
 20
109.8015330428
 11
132.9478350265
 21
109.826405633
  0
LINE
  5
3ED
100
AcDbEntity
  8
ASSI
100
AcDbLine
 62
7
  6
CONTINUOUS
 10
132.9478350265
 20
109.826405633
 11
132.8041531321
 21
109.862309238
  0
LWPOLYLINE
  5
3EE
100
AcDbEntity
  8
0
100
AcDbPolyline
 62
7
  6
CONTINUOUS
 90
3
 70
0
 10
132.9041531321
 20
109.9056105082
 10
133.049768991
 20
109.8690233916
 10
133.1825184405
 20
109.8452390953
  0
LWPOLYLINE
  5
3EF
100
AcDbEntity
  8
RACCORDO
100
AcDbPolyline
 62
253
  6
CONTINUOUS
 90
16
 70
0
 10
129.9610300194
 20
112.0053315078
 10
130.0076607923
 20
111.9935668532
 10
130.0565191856
 20
111.9842124309
 10
130.1070699277
 20
111.9773707238
 10
130.1587592066
 20
111.9731166867
 10
130.2110207366
 20
111.9714969251
 10
130.2632819629
 20
111.9725291842
 10
130.3149703339
 20
111.9762021552
 10
130.3655195741
 20
111.9824755985
 10
130.4143758877
 20
111.9912807849
 10
130.461004026
 20
112.0025212486
 10
130.504893151
 20
112.0160738439
 10
130.5455624324
 20
112.0317900943
 10
130.5825663151
 20
112.0494978193
 10
130.6154994003
 20
112.0690030207
 10
130.6440008875
 20
112.0900920079
  0
LINE
  5
3F0
100
AcDbEntity
  8
RACCORDO
100
AcDbLine
 62
7
  6
CONTINUOUS
 10
133.3362805676
 20
109.8294475746
 11
133.1873581597
 21
109.8670462663
  0
LINE
  5
3F1
100
AcDbEntity
  8
RACCORDO
100
AcDbLine
 62
253
  6
CONTINUOUS
 10
133.1791531321
 20
109.8687674942
 11
133.3330091218
 21
109.8297835553
  0
LINE
  5
3F2
100
AcDbEntity
  8
ASSI
100
AcDbLine
 62
7
  6
CONTINUOUS
 10
133.4041531321
 20
109.862309238
 11
133.5319369562
 21
109.8296521023
  0
LINE
  5
3F3
100
AcDbEntity
  8
RACCORDO
100
AcDbLine
 62
253
  6
CONTINUOUS
 10
123.1965026532
 20
113.9580801906
 11
129.9610280891
 21
112.0053298999
  0
LINE
  5
3F4
100
AcDbEntity
  8
RACCORDO
100
AcDbLine
 62
253
  6
CONTINUOUS
 10
134.6375363217
 20
110.6553382564
 11
141.4020617576
 21
108.7025879657
  0
LWPOLYLINE
  5
3F5
100
AcDbEntity
  8
RACCORDO
100
AcDbPolyline
 62
7
  6
CONTINUOUS
 90
5
 70
0
 10
134.3019186537
 20
110.3669611899
 10
134.2392508115
 20
110.3858315041
 10
133.9914421445
 20
110.4485604231
 10
133.7433839341
 20
110.4994916708
 10
133.4950761802
 20
110.538625247
  0
LWPOLYLINE
  5
3F6
100
AcDbEntity
  8
0
100
AcDbPolyline
 62
7
  6
CONTINUOUS
 90
16
 70
0
 10
133.9588846651
 20
109.9201772118
 10
133.8146831684
 20
109.9665790585
 10
133.6252132046
 20
110.0399354884
 10
133.4381599962
 20
110.1247441111
 10
133.2535545015
 20
110.2211516271
 10
133.0713657622
 20
110.3290113358
 10
132.8939176591
 20
110.4469474491
 10
132.721270919
 20
110.5750890439
 10
132.5533648152
 20
110.7133070433
 10
132.3923410486
 20
110.8598384285
 10
132.2382877806
 20
111.0147896925
 10
132.0911168497
 20
111.1780543423
 10
131.9527054726
 20
111.3475498805
 10
131.8231658573
 20
111.5233561236
 10
131.7023857957
 20
111.705393255
 10
131.5919058796
 20
111.8913393277
  0
LWPOLYLINE
  5
3F7
100
AcDbEntity
  8
RACCORDO
100
AcDbPolyline
 62
253
  6
CONTINUOUS
 90
11
 70
0
 10
134.6375379956
 20
110.6553396511
 10
134.5936478423
 20
110.6697061106
 10
134.552976809
 20
110.6861965895
 10
134.5159704711
 20
110.7046304248
 10
134.4830342554
 20
110.7248056626
 10
134.454528998
 20
110.7465012712
 10
134.4307669911
 20
110.7694795621
 10
134.4120085618
 20
110.7934887942
 10
134.39845922
 20
110.818265932
 10
134.3902674069
 20
110.8435395271
 10
134.3875343391
 20
110.8707103091
  0
LWPOLYLINE
  5
3F8
100
AcDbEntity
  8
RACCORDO
100
AcDbPolyline
 62
253
  6
CONTINUOUS
 90
9
 70
0
 10
137.8475216606
 20
129.2211876819
 10
137.8461037656
 20
129.2272405798
 10
137.8446868061
 20
129.2325266003
 10
137.8432768848
 20
129.2370207031
 10
137.8418795549
 20
129.2407024409
 10
137.8405014609
 20
129.2435515271
 10
137.8391502188
 20
129.2455512763
 10
137.8378310602
 20
129.2466938759
 10
137.8366826529
 20
129.2469849795
  0
LWPOLYLINE
  5
3F9
100
AcDbEntity
  8
RACCORDO
100
AcDbPolyline
 62
253
  6
CONTINUOUS
 90
11
 70
0
 10
142.1306472918
 20
123.831428835
 10
142.1321173271
 20
123.8166000707
 10
142.136244576
 20
123.8022073028
 10
142.142975418
 20
123.7882432991
 10
142.1522661064
 20
123.7748392978
 10
142.1640452444
 20
123.7621210108
 10
142.1781955438
 20
123.750225401
 10
142.1945985298
 20
123.7393006605
 10
142.213103903
 20
123.7294749166
 10
142.2335222919
 20
123.7208520052
 10
142.2556453101
 20
123.7135344289
  0
LWPOLYLINE
  5
3FA
100
AcDbEntity
  8
0
100
AcDbPolyline
 62
253
  6
CONTINUOUS
 90
40
 70
0
 10
142.8292718565
 20
119.8583813076
 10
142.8283836785
 20
119.8754372123
 10
142.8268025747
 20
119.892674078
 10
142.8245311093
 20
119.9100639808
 10
142.8215730642
 20
119.9275788392
 10
142.8179331356
 20
119.9451901885
 10
142.813616926
 20
119.9628692264
 10
142.8086314515
 20
119.9805873316
 10
142.8029847697
 20
119.9983157804
 10
142.7966856694
 20
120.0160255215
 10
142.7897443629
 20
120.0336878691
 10
142.7821720877
 20
120.0512742005
 10
142.7739807276
 20
120.0687556722
 10
142.7651834148
 20
120.0861038338
 10
142.7557945306
 20
120.1032906982
 10
142.7458293004
 20
120.1202884376
 10
142.7353037569
 20
120.1370694105
 10
142.7242350438
 20
120.1536065137
 10
142.7126414094
 20
120.1698732509
 10
142.7005416709
 20
120.1858433013
 10
142.687955367
 20
120.2014907311
 10
142.6749030552
 20
120.2167903425
 10
142.6614059249
 20
120.2317173902
 10
142.6474857642
 20
120.246247616
 10
142.6331651068
 20
120.2603574577
 10
142.6184671245
 20
120.2740240279
 10
142.6034156191
 20
120.287225176
 10
142.5880349844
 20
120.2999395195
 10
142.5723500956
 20
120.3121464189
 10
142.5563863626
 20
120.3238260972
 10
142.5401697191
 20
120.3349596972
 10
142.5237264103
 20
120.3455291558
 10
142.5070830549
 20
120.3555173293
 10
142.4902666958
 20
120.3649081089
 10
142.4733045502
 20
120.3736862553
 10
142.4562240739
 20
120.3818375236
 10
142.4390530202
 20
120.389348783
 10
142.4218192171
 20
120.3962078726
 10
142.4045505221
 20
120.4024036211
 10
142.3872748851
 20
120.4079259651
  0
LWPOLYLINE
  5
3FB
100
AcDbEntity
  8
0
100
AcDbPolyline
 62
253
  6
CONTINUOUS
 90
22
 70
0
 10
143.8164645917
 20
82.2005836128
 10
143.8166051276
 20
82.1904416597
 10
143.8170264196
 20
82.180565927
 10
143.8177275202
 20
82.170978621
 10
143.8187068529
 20
82.1617012995
 10
143.8199622157
 20
82.1527548233
 10
143.8214907858
 20
82.1441593093
 10
143.8232891261
 20
82.135934085
 10
143.8253531929
 20
82.1280976455
 10
143.8276783449
 20
82.1206676117
 10
143.830259354
 20
82.1136606905
 10
143.8330904164
 20
82.1070926375
 10
143.8361651663
 20
82.1009782215
 10
143.83947669
 20
82.0953311913
 10
143.8430175412
 20
82.0901642445
 10
143.8467797581
 20
82.0854889995
 10
143.8507548809
 20
82.0813159689
 10
143.8549339714
 20
82.0776545361
 10
143.8593076326
 20
82.0745129341
 10
143.8638660299
 20
82.071898227
 10
143.8685989134
 20
82.0698162942
 10
143.8721270671
 20
82.0686445576
  0
LWPOLYLINE
  5
3FC
100
AcDbEntity
  8
0
100
AcDbPolyline
 62
253
  6
CONTINUOUS
 90
24
 70
0
 10
143.8164645917
 20
123.8401616863
 10
143.816583267
 20
123.8308323767
 10
143.8169392292
 20
123.8217232691
 10
143.8175320443
 20
123.8128519089
 10
143.8183609337
 20
123.8042344555
 10
143.8194245061
 20
123.7958886028
 10
143.8207204936
 20
123.7878332255
 10
143.8222462355
 20
123.7800845552
 10
143.8239989652
 20
123.7726563824
 10
143.8259753692
 20
123.7655627707
 10
143.8281717114
 20
123.7588171823
 10
143.8305838013
 20
123.7524325349
 10
143.833207015
 20
123.7464210794
 10
143.8360363354
 20
123.7407942971
 10
143.8390663911
 20
123.7355628552
 10
143.8422914345
 20
123.7307366789
 10
143.8457053503
 20
123.7263249352
 10
143.8493016198
 20
123.7223360632
 10
143.8530733486
 20
123.7187777061
 10
143.8570133225
 20
123.7156566486
 10
143.8611140613
 20
123.7129787961
 10
143.8653677891
 20
123.7107492192
 10
143.8697664194
 20
123.7089721588
 10
143.8721270672
 20
123.7082226311
  0
LINE
  5
3FD
100
AcDbEntity
  8
0
100
AcDbLine
 62
253
  6
CONTINUOUS
 10
143.8164645917
 20
82.2005836128
 11
143.8164645917
 21
82.5405575469
  0
LINE
  5
3FE
100
AcDbEntity
  8
0
100
AcDbLine
 62
253
  6
CONTINUOUS
 10
143.8164645917
 20
123.8401616863
 11
143.8164645917
 21
124.1801356205
  0
LINE
  5
3FF
100
AcDbEntity
  8
0
100
AcDbLine
 62
253
  6
CONTINUOUS
 10
144.0947248827
 20
128.2730992597
 11
144.0947248827
 21
128.7182709752
  0
LINE
  5
400
100
AcDbEntity
  8
0
100
AcDbLine
 62
253
  6
CONTINUOUS
 10
144.0947248827
 20
129.1457761831
 11
144.0947248827
 21
129.6568472246
  0
LINE
  5
401
100
AcDbEntity
  8
0
100
AcDbLine
 62
7
  6
CONTINUOUS
 10
144.1541098962
 20
128.3840897697
 11
144.1541098962
 21
129.7005817946
  0
LINE
  5
402
100
AcDbEntity
  8
0
100
AcDbLine
 62
253
  6
CONTINUOUS
 10
144.1572400622
 20
82.2457080581
 11
144.1572400622
 21
82.5856819922
  0
LINE
  5
403
100
AcDbEntity
  8
0
100
AcDbLine
 62
253
  6
CONTINUOUS
 10
144.1572400622
 20
123.8852861316
 11
144.1572400622
 21
124.2252600657
  0
LINE
  5
404
100
AcDbEntity
  8
RACCORDO
100
AcDbLine
 62
253
  6
CONTINUOUS
 10
144.3215029801
 20
123.1171726879
 11
144.3215029801
 21
123.6407089846
  0
LINE
  5
405
100
AcDbEntity
  8
RACCORDO
100
AcDbLine
 62
253
  6
CONTINUOUS
 10
144.6622784506
 20
83.5172402367
 11
144.6622784506
 21
83.7019643332
  0
LINE
  5
406
100
AcDbEntity
  8
RACCORDO
100
AcDbLine
 62
253
  6
CONTINUOUS
 10
144.6622784506
 20
123.1826022231
 11
144.6622784506
 21
123.816844376
  0
LWPOLYLINE
  5
407
100
AcDbEntity
  8
0
100
AcDbPolyline
 62
253
  6
CONTINUOUS
 90
25
 70
0
 10
143.8164645917
 20
82.5405575469
 10
143.8165835948
 20
82.550105705
 10
143.8169403777
 20
82.5598418027
 10
143.817534261
 20
82.5697473019
 10
143.8183641115
 20
82.5798033151
 10
143.8194283502
 20
82.5899907213
 10
143.8207249623
 20
82.6002902064
 10
143.8222514956
 20
82.6106822326
 10
143.8240050408
 20
82.6211469446
 10
143.8259822384
 20
82.6316642868
 10
143.8281793058
 20
82.6422141637
 10
143.8305920688
 20
82.652776555
 10
143.8332159497
 20
82.6633314236
 10
143.8360459754
 20
82.673858748
 10
143.8390767406
 20
82.684338406
 10
143.842302427
 20
82.6947502901
 10
143.8457168544
 20
82.7050744858
 10
143.849313543
 20
82.7152914328
 10
143.8530856854
 20
82.7253818046
 10
143.8570265826
 20
82.7353275737
 10
143.8611282869
 20
82.7451085797
 10
143.8653814813
 20
82.7547028901
 10
143.8697773979
 20
82.7640913694
 10
143.8743080167
 20
82.7732575103
 10
143.8789645917
 20
82.7821841347
  0
LWPOLYLINE
  5
408
100
AcDbEntity
  8
0
100
AcDbPolyline
 62
253
  6
CONTINUOUS
 90
34
 70
0
 10
143.8164645917
 20
124.1801356205
 10
143.8166051276
 20
124.190520989
 10
143.8170264196
 20
124.2011264208
 10
143.8177275202
 20
124.2119280686
 10
143.8187068529
 20
124.2229016442
 10
143.8199622157
 20
124.2340224725
 10
143.8214907858
 20
124.2452655477
 10
143.8232891261
 20
124.2566055887
 10
143.8253531929
 20
124.2680170967
 10
143.8276783449
 20
124.279474412
 10
143.830259354
 20
124.290951772
 10
143.8330904164
 20
124.3024233689
 10
143.8361651663
 20
124.313863408
 10
143.83947669
 20
124.3252461656
 10
143.8430175412
 20
124.3365460465
 10
143.8467797581
 20
124.3477376422
 10
143.8507548809
 20
124.3587957876
 10
143.8549339714
 20
124.3696956175
 10
143.8593076326
 20
124.3804126228
 10
143.8638660299
 20
124.3909227057
 10
143.8685989134
 20
124.4012022332
 10
143.873495641
 20
124.4112280912
 10
143.8785452018
 20
124.4209777358
 10
143.8837362417
 20
124.4304292441
 10
143.8890570881
 20
124.4395613637
 10
143.8944957768
 20
124.4483535603
 10
143.9000400784
 20
124.456786064
 10
143.9056775262
 20
124.4648399138
 10
143.9113954439
 20
124.4724969998
 10
143.9171809743
 20
124.4797401047
 10
143.9230211083
 20
124.4865529416
 10
143.9289027139
 20
124.4929201914
 10
143.9348125658
 20
124.4988275369
 10
143.9407373752
 20
124.504261695
  0
LWPOLYLINE
  5
409
100
AcDbEntity
  8
0
100
AcDbPolyline
 62
253
  6
CONTINUOUS
 90
17
 70
0
 10
144.1572400622
 20
82.2457080581
 10
144.1569606511
 20
82.235446901
 10
144.1561929573
 20
82.2253520212
 10
144.1549387185
 20
82.2154462931
 10
144.1532007736
 20
82.2057521569
 10
144.1509830592
 20
82.1962915848
 10
144.1482906036
 20
82.18708603
 10
144.1451295098
 20
82.1781563547
 10
144.1415069398
 20
82.1695227877
 10
144.1374311039
 20
82.1612048936
 10
144.1329112376
 20
82.1532215178
 10
144.1279575839
 20
82.14559075
 10
144.1225813722
 20
82.138329885
 10
144.116794787
 20
82.131455374
 10
144.1106109409
 20
82.1249827908
 10
144.1040438493
 20
82.1189268012
 10
144.1028405184
 20
82.1178975218
  0
LINE
  5
40A
100
AcDbEntity
  8
0
100
AcDbLine
 62
253
  6
CONTINUOUS
 10
145.6990221743
 20
125.2452712369
 11
145.6987842566
 21
125.2398191661
  0
LWPOLYLINE
  5
40B
100
AcDbEntity
  8
0
100
AcDbPolyline
 62
253
  6
CONTINUOUS
 90
12
 70
0
 10
145.6990221085
 20
125.5927121529
 10
145.6987858971
 20
125.5873695035
 10
145.6979898044
 20
125.5814546799
 10
145.6966337355
 20
125.5755653768
 10
145.694720739
 20
125.5697148396
 10
145.6922551172
 20
125.5639162291
 10
145.6892424134
 20
125.5581825846
 10
145.6856894041
 20
125.5525268055
 10
145.681604088
 20
125.5469616228
 10
145.676995659
 20
125.5414995568
 10
145.671874482
 20
125.5361528887
 10
145.6662520777
 20
125.5309336436
  0
LWPOLYLINE
  5
40C
100
AcDbEntity
  8
0
100
AcDbPolyline
 62
253
  6
CONTINUOUS
 90
20
 70
0
 10
142.8289425245
 20
82.5134811631
 10
142.8280530598
 20
82.495732551
 10
142.82647068
 20
82.4782212993
 10
142.8241979487
 20
82.4609757785
 10
142.821238548
 20
82.4440239282
 10
142.8175972726
 20
82.4273932124
 10
142.8132800216
 20
82.411110575
 10
142.8082937897
 20
82.3952023956
 10
142.8026466549
 20
82.3796944474
 10
142.7963477665
 20
82.3646118551
 10
142.7894073293
 20
82.3499790543
 10
142.7818365876
 20
82.3358197519
 10
142.7736478069
 20
82.3221568876
 10
142.7648542541
 20
82.3090125969
 10
142.7554701757
 20
82.296408175
 10
142.745510775
 20
82.2843640426
 10
142.7349921875
 20
82.2728997127
 10
142.7239314545
 20
82.2620337587
 10
142.7123464957
 20
82.2517837849
 10
142.7002560801
 20
82.2421663974
  0
LINE
  5
40D
100
AcDbEntity
  8
0
100
AcDbLine
 62
7
  6
CONTINUOUS
 10
145.6971830799
 20
125.2150030649
 11
145.6990221356
 21
125.2453408313
  0
LWPOLYLINE
  5
40E
100
AcDbEntity
  8
0
100
AcDbPolyline
 62
253
  6
CONTINUOUS
 90
11
 70
0
 10
145.6987842566
 20
125.2398191661
 10
145.6979864611
 20
125.2339048406
 10
145.6966288358
 20
125.2280162735
 10
145.6947144602
 20
125.2221666248
 10
145.6922476174
 20
125.2163689293
 10
145.6892335877
 20
125.2106357617
 10
145.6856793272
 20
125.2049804884
 10
145.6815937998
 20
125.1994170585
 10
145.6769869044
 20
125.1939583156
 10
145.6718690532
 20
125.1886160332
 10
145.6662520777
 20
125.1834021269
  0
LINE
  5
40F
100
AcDbEntity
  8
RACCORDO
100
AcDbLine
 62
7
  6
CONTINUOUS
 10
157.494532505
 20
123.4045644095
 11
157.5697008426
 21
123.510071913
  0
LINE
  5
410
100
AcDbEntity
  8
RACCORDO
100
AcDbLine
 62
7
  6
CONTINUOUS
 10
157.4148566291
 20
123.2946337636
 11
157.494532505
 21
123.4045644095
  0
LWPOLYLINE
  5
411
100
AcDbEntity
  8
RACCORDO
100
AcDbPolyline
 62
7
  6
CONTINUOUS
 90
3
 70
0
 10
157.2863437312
 20
123.1207521618
 10
157.3303703837
 20
123.1798969779
 10
157.4148566291
 20
123.2946337636
  0
LINE
  5
412
100
AcDbEntity
  8
DRAFT
100
AcDbLine
 62
253
  6
CONTINUOUS
 10
131.8364703648
 20
94.2619199625
 11
133.8036484916
 21
95.9311848885
  0
LINE
  5
413
100
AcDbEntity
  8
RACCORDO
100
AcDbLine
 62
253
  6
CONTINUOUS
 10
157.9112028682
 20
112.3594275978
 11
157.3312668968
 21
112.0189498944
  0
LINE
  5
414
100
AcDbEntity
  8
RACCORDO
100
AcDbLine
 62
7
  6
CONTINUOUS
 10
157.3312668968
 20
112.21204259
 11
157.6514208464
 21
112.3760186639
  0
LINE
  5
415
100
AcDbEntity
  8
RACCORDO
100
AcDbLine
 62
253
  6
CONTINUOUS
 10
157.3312668968
 20
112.1400598719
 11
157.8142273862
 21
112.3874220081
  0
LWPOLYLINE
  5
416
100
AcDbEntity
  8
RACCORDO
100
AcDbPolyline
 62
253
  6
CONTINUOUS
 90
7
 70
0
 10
157.8142273862
 20
112.3874220081
 10
157.8678281432
 20
112.4118362662
 10
157.9203385756
 20
112.4285826791
 10
157.9714570649
 20
112.4375572373
 10
158.0209008714
 20
112.4386992602
 10
158.0683753334
 20
112.4320030334
 10
158.0833549034
 20
112.4281381865
  0
LINE
  5
417
100
AcDbEntity
  8
0
100
AcDbLine
 62
7
  6
CONTINUOUS
 10
133.9920607484
 20
101.7078153637
 11
133.8775923355
 21
101.6564762306
  0
LWPOLYLINE
  5
418
100
AcDbEntity
  8
0
100
AcDbPolyline
 62
7
  6
CONTINUOUS
 90
6
 70
0
 10
133.8775923355
 20
101.6564762306
 10
133.7565054061
 20
101.6153470558
 10
133.6308126809
 20
101.5851114931
 10
133.5004371755
 20
101.5659516262
 10
133.3654558742
 20
101.5576853714
 10
133.2281124518
 20
101.5604501313
  0
LWPOLYLINE
  5
419
100
AcDbEntity
  8
RACCORDO
100
AcDbPolyline
 62
253
  6
CONTINUOUS
 90
4
 70
0
 10
133.4951007453
 20
110.5386207804
 10
133.7891820786
 20
110.5900576319
 10
134.084321484
 20
110.6329060242
 10
134.3720163017
 20
110.666307111
  0
LWPOLYLINE
  5
41A
100
AcDbEntity
  8
RACCORDO
100
AcDbPolyline
 62
253
  6
CONTINUOUS
 90
37
 70
0
 10
132.3458199597
 20
113.7302417024
 10
132.4058465145
 20
113.7122299099
 10
132.4665676821
 20
113.6922353011
 10
132.527983554
 20
113.6702579477
 10
132.5899087883
 20
113.6464828599
 10
132.652529095
 20
113.6207253148
 10
132.7164013063
 20
113.5924309112
 10
132.7816701027
 20
113.5616090545
 10
132.8481917874
 20
113.5282511084
 10
132.916091002
 20
113.4917759024
 10
132.9853858217
 20
113.4522490002
 10
133.0560602214
 20
113.4096064437
 10
133.1281884386
 20
113.3630733655
 10
133.2018605737
 20
113.3126889624
 10
133.2769904839
 20
113.2584171455
 10
133.3533894205
 20
113.1993712029
 10
133.4311801701
 20
113.1355726311
 10
133.5102471582
 20
113.0670056194
 10
133.5900464147
 20
112.992729328
 10
133.6707413953
 20
112.9127333715
 10
133.7521811077
 20
112.8270380152
 10
133.8333534924
 20
112.7347512455
 10
133.9144790899
 20
112.635789137
 10
133.9953577424
 20
112.5302518929
 10
134.0743512307
 20
112.4175276178
 10
134.1518204546
 20
112.2971123458
 10
134.2274359713
 20
112.1695354122
 10
134.2985275373
 20
112.0357377481
 10
134.365144069
 20
111.8952039795
 10
134.4272754364
 20
111.748481212
 10
134.4821596467
 20
111.5981016633
 10
134.5295152592
 20
111.4437849888
 10
134.5696590259
 20
111.2858410726
 10
134.6007137508
 20
111.1276774475
 10
134.6220562134
 20
110.9704323944
 10
134.6343270699
 20
110.8129830453
 10
134.6375363217
 20
110.6553382564
  0
LWPOLYLINE
  5
41B
100
AcDbEntity
  8
RACCORDO
100
AcDbPolyline
 62
7
  6
CONTINUOUS
 90
25
 70
0
 10
132.4568708709
 20
113.4447554014
 10
132.513407215
 20
113.4275568642
 10
132.6447630362
 20
113.380821143
 10
132.7760539611
 20
113.3245629795
 10
132.9064983168
 20
113.2589943728
 10
133.0353117492
 20
113.1844068419
 10
133.1617493446
 20
113.1011492597
 10
133.2850642094
 20
113.0096539583
 10
133.4045483953
 20
112.9104057969
 10
133.5195747048
 20
112.8039009032
 10
133.6294875264
 20
112.6907386071
 10
133.7336824947
 20
112.5715538846
 10
133.8316693829
 20
112.4469343778
 10
133.9229165883
 20
112.3175944359
 10
134.0069363967
 20
112.1842838468
 10
134.0833614385
 20
112.047682503
 10
134.1517891724
 20
111.9085899997
 10
134.2118940393
 20
111.7678372309
 10
134.2634415444
 20
111.6261781531
 10
134.3061942205
 20
111.4844736589
 10
134.340014719
 20
111.3435560091
 10
134.3648321489
 20
111.2041730989
 10
134.3806077782
 20
111.0671521683
 10
134.3874136974
 20
110.9333990764
 10
134.387536521
 20
110.870801981
  0
LINE
  5
41C
100
AcDbEntity
  8
0
100
AcDbLine
 62
253
  6
CONTINUOUS
 10
145.6660402292
 20
125.5413366152
 11
145.6662520777
 21
125.5309336436
  0
LWPOLYLINE
  5
41D
100
AcDbEntity
  8
0
100
AcDbPolyline
 62
7
  6
CONTINUOUS
 90
26
 70
0
 10
146.1607142688
 20
122.9229796972
 10
146.1603682301
 20
122.940473707
 10
146.1593227621
 20
122.9581163418
 10
146.1575778649
 20
122.9759076015
 10
146.155126652
 20
122.9938925733
 10
146.1519760098
 20
123.0120261701
 10
146.1481465978
 20
123.0301731309
 10
146.1436355987
 20
123.0483167877
 10
146.1384458297
 20
123.0664738086
 10
146.1326064021
 20
123.084558937
 10
146.1261232789
 20
123.1025565685
 10
146.1189904971
 20
123.1204823075
 10
146.1112192782
 20
123.1382977104
 10
146.1027926508
 20
123.1560334662
 10
146.0937275864
 20
123.1736588858
 10
146.0840862207
 20
123.1910434582
 10
146.0738647454
 20
123.2081780788
 10
146.063066969
 20
123.2250718522
 10
146.0517664524
 20
123.2416215802
 10
146.0399833665
 20
123.2577985184
 10
146.0276975404
 20
123.2736314112
 10
146.0149220225
 20
123.2891032943
 10
146.0016335135
 20
123.3042412677
 10
145.9878553127
 20
123.3190182314
 10
145.973670366
 20
123.3333359213
 10
145.9590688654
 20
123.3471930002
  0
LINE
  5
41E
100
AcDbEntity
  8
0
100
AcDbLine
 62
7
  6
CONTINUOUS
 10
145.2943109806
 20
125.2082374901
 11
145.2943109806
 21
124.4811926377
  0
LINE
  5
41F
100
AcDbEntity
  8
0
100
AcDbLine
 62
7
  6
CONTINUOUS
 10
145.2943109806
 20
83.9330429311
 11
145.2943109806
 21
83.2059980786
  0
LINE
  5
420
100
AcDbEntity
  8
RACCORDO
100
AcDbLine
 62
7
  6
CONTINUOUS
 10
145.2943109806
 20
83.9330429311
 11
145.2943109806
 21
84.1722158841
  0
LINE
  5
421
100
AcDbEntity
  8
RACCORDO
100
AcDbLine
 62
7
  6
CONTINUOUS
 10
145.2943109806
 20
123.779476798
 11
145.2943109806
 21
124.4811926377
  0
LINE
  5
422
100
AcDbEntity
  8
0
100
AcDbLine
 62
253
  6
CONTINUOUS
 10
145.6662520777
 20
125.5309336436
 11
145.6662520777
 21
125.1834021269
  0
LINE
  5
423
100
AcDbEntity
  8
0
100
AcDbLine
 62
253
  6
CONTINUOUS
 10
145.6662520777
 20
83.8837979875
 11
145.6662520777
 21
83.5362664708
  0
LINE
  5
424
100
AcDbEntity
  8
0
100
AcDbLine
 62
7
  6
CONTINUOUS
 10
145.6990221743
 20
125.592802798
 11
145.6990221743
 21
125.2452712813
  0
LINE
  5
425
100
AcDbEntity
  8
0
100
AcDbLine
 62
7
  6
CONTINUOUS
 10
145.6990221743
 20
83.9456671419
 11
145.6990221743
 21
83.5981356252
  0
LINE
  5
426
100
AcDbEntity
  8
0
100
AcDbLine
 62
7
  6
CONTINUOUS
 10
146.1595805579
 20
122.9230941239
 11
146.1595805579
 21
119.9788059427
  0
LINE
  5
427
100
AcDbEntity
  8
0
100
AcDbLine
 62
7
  6
CONTINUOUS
 10
146.1595805579
 20
84.9915778215
 11
146.1595805579
 21
87.9358660027
  0
LINE
  5
428
100
AcDbEntity
  8
0
100
AcDbLine
 62
7
  6
CONTINUOUS
 10
146.1607142688
 20
122.9229796972
 11
146.1607142688
 21
119.9784786686
  0
LINE
  5
429
100
AcDbEntity
  8
0
100
AcDbLine
 62
7
  6
CONTINUOUS
 10
146.1607142688
 20
84.9910376999
 11
146.1607142688
 21
87.9355387285
  0
LINE
  5
42A
100
AcDbEntity
  8
DRAFT
100
AcDbLine
 62
7
  6
CONTINUOUS
 10
146.6531565796
 20
123.3531357276
 11
146.6531565796
 21
120.4208528921
  0
LINE
  5
42B
100
AcDbEntity
  8
DRAFT
100
AcDbLine
 62
7
  6
CONTINUOUS
 10
146.6531565796
 20
88.3635533426
 11
146.6531565796
 21
85.4312705071
  0
LINE
  5
42C
100
AcDbEntity
  8
DRAFT
100
AcDbLine
 62
7
  6
CONTINUOUS
 10
147.1455988904
 20
120.8529168136
 11
147.1455988904
 21
120.5434602169
  0
LINE
  5
42D
100
AcDbEntity
  8
DRAFT
100
AcDbLine
 62
7
  6
CONTINUOUS
 10
147.1455988904
 20
89.0486711038
 11
147.1455988904
 21
88.8018782588
  0
LINE
  5
42E
100
AcDbEntity
  8
0
100
AcDbLine
 62
7
  6
CONTINUOUS
 10
147.1898136172
 20
120.5306965247
 11
147.1898136172
 21
89.0985711633
  0
LINE
  5
42F
100
AcDbEntity
  8
0
100
AcDbLine
 62
253
  6
CONTINUOUS
 10
145.6990221743
 20
125.5928028057
 11
145.6990221085
 21
125.5927121529
  0
LWPOLYLINE
  5
430
100
AcDbEntity
  8
0
100
AcDbPolyline
 62
7
  6
CONTINUOUS
 90
8
 70
0
 10
146.1595805579
 20
84.9915778215
 10
146.1592338984
 20
84.9742519807
 10
146.158187432
 20
84.9571833717
 10
146.1564411586
 20
84.9403719944
 10
146.1539880486
 20
84.923776743
 10
146.1508351316
 20
84.9074387234
 10
146.1470034967
 20
84.8914812532
 10
146.1424903711
 20
84.8759227367
  0
LWPOLYLINE
  5
431
100
AcDbEntity
  8
0
100
AcDbPolyline
 62
253
  6
CONTINUOUS
 90
14
 70
0
 10
145.6662520777
 20
83.5362664708
 10
145.6660402292
 20
83.5260638246
 10
145.6653366495
 20
83.5160244693
 10
145.664142931
 20
83.5061711533
 10
145.6624617754
 20
83.4965261981
 10
145.6602969907
 20
83.4871114645
 10
145.6576534852
 20
83.4779483016
 10
145.6545372507
 20
83.4690574757
 10
145.650955348
 20
83.4604591275
 10
145.6469158948
 20
83.4521727418
 10
145.6424280445
 20
83.4442170927
 10
145.6375019674
 20
83.4366102069
 10
145.6321488305
 20
83.4293693252
 10
145.626380766
 20
83.4225108537
  0
LWPOLYLINE
  5
432
100
AcDbEntity
  8
0
100
AcDbPolyline
 62
7
  6
CONTINUOUS
 90
16
 70
0
 10
145.2943109806
 20
83.2059980786
 10
145.2940656511
 20
83.1957671482
 10
145.2933305795
 20
83.1857010895
 10
145.2921073565
 20
83.1758226411
 10
145.2903986235
 20
83.1661540674
 10
145.2882082444
 20
83.1567172674
 10
145.285541297
 20
83.1475337252
 10
145.2824037792
 20
83.1386242079
 10
145.2788027323
 20
83.1300088423
 10
145.2747464034
 20
83.1217072287
 10
145.2702439532
 20
83.11373815
 10
145.2653055289
 20
83.1061196146
 10
145.2599423797
 20
83.0988689393
 10
145.2541666428
 20
83.09200254
 10
145.2479913648
 20
83.0855359399
 10
145.2427800576
 20
83.0806667967
  0
LINE
  5
433
100
AcDbEntity
  8
0
100
AcDbLine
 62
253
  6
CONTINUOUS
 10
145.6990221743
 20
83.5981356328
 11
145.6987858971
 21
83.5927023306
  0
LWPOLYLINE
  5
434
100
AcDbEntity
  8
0
100
AcDbPolyline
 62
253
  6
CONTINUOUS
 90
12
 70
0
 10
145.6990221743
 20
83.9456671436
 10
145.6987852902
 20
83.9402268775
 10
145.697988661
 20
83.9343127539
 10
145.6966321851
 20
83.9284241539
 10
145.6947189125
 20
83.9225743248
 10
145.6922531511
 20
83.9167764345
 10
145.6892404532
 20
83.9110435283
 10
145.6856875931
 20
83.905388489
 10
145.6816025551
 20
83.8998240223
 10
145.6769945219
 20
83.8943626375
 10
145.671873858
 20
83.8890166188
 10
145.6662520777
 20
83.8837979875
  0
LINE
  5
435
100
AcDbEntity
  8
0
100
AcDbLine
 62
7
  6
CONTINUOUS
 10
145.6975390185
 20
83.5709448692
 11
145.6990221519
 21
83.5981885305
  0
LWPOLYLINE
  5
436
100
AcDbEntity
  8
RACCORDO
100
AcDbPolyline
 62
7
  6
CONTINUOUS
 90
72
 70
0
 10
157.5697008426
 20
123.510071913
 10
157.6056257523
 20
123.5612062347
 10
157.6405118018
 20
123.6113529974
 10
157.674362117
 20
123.660513343
 10
157.7071735719
 20
123.7086861296
 10
157.739005513
 20
123.7559611379
 10
157.7698615376
 20
123.8023391541
 10
157.7997380483
 20
123.8478193919
 10
157.8286835993
 20
123.8924892737
 10
157.8567026853
 20
123.9363492155
 10
157.8837908116
 20
123.9793988013
 10
157.9099830477
 20
124.0217242051
 10
157.9352856152
 20
124.0633256037
 10
157.9596922924
 20
124.1042028203
 10
157.983219484
 20
124.1444414988
 10
158.0058768784
 20
124.1840423302
 10
158.0276547871
 20
124.2230046235
 10
158.0485405484
 20
124.2614119485
 10
158.0685511715
 20
124.2992687614
 10
158.0876696471
 20
124.3365706061
 10
158.1058322863
 20
124.3733876848
 10
158.1230714494
 20
124.4097408781
 10
158.1393547761
 20
124.4456093054
 10
158.1545214955
 20
124.4810005274
 10
158.1686314576
 20
124.516014268
 10
158.1816248125
 20
124.5505508032
 10
158.1931612403
 20
124.5843185214
 10
158.2032529107
 20
124.6174053968
 10
158.211887654
 20
124.6497234553
 10
158.2186886412
 20
124.6807171628
 10
158.2235834556
 20
124.7103557006
 10
158.226644514
 20
124.7386698875
 10
158.2277122365
 20
124.7651966457
 10
158.2266827649
 20
124.7898477647
 10
158.2236599574
 20
124.812711455
 10
158.2187958099
 20
124.8335892706
 10
158.2120143277
 20
124.852375697
 10
158.2033915053
 20
124.8691762487
 10
158.1933073219
 20
124.8841090232
 10
158.1817747608
 20
124.8971047599
 10
158.1687808385
 20
124.9082327194
 10
158.1546665845
 20
124.9178187808
 10
158.1394914542
 20
124.9258720008
 10
158.1231959921
 20
124.9323833226
 10
158.1059428602
 20
124.9376514559
 10
158.0877649334
 20
124.9417138945
 10
158.0686293368
 20
124.9445331445
 10
158.0486001076
 20
124.9462954334
 10
158.02769428
 20
124.9470271712
 10
158.0058948198
 20
124.9467019478
 10
157.9832146625
 20
124.9454267604
 10
157.9596635466
 20
124.9432184769
 10
157.9352317337
 20
124.9400602295
 10
157.909902943
 20
124.9360084113
 10
157.8836837895
 20
124.9310742309
 10
157.8565676582
 20
124.9252464796
 10
157.8285184241
 20
124.9185479253
 10
157.7995372977
 20
124.9109851758
 10
157.7696230685
 20
124.9025516232
 10
157.7387359804
 20
124.8932502118
 10
157.706879932
 20
124.8830862808
 10
157.6740510247
 20
124.872054491
 10
157.6401978061
 20
124.8601417682
 10
157.6053295931
 20
124.8473550434
 10
157.5694370688
 20
124.8336873857
 10
157.5324408307
 20
124.8191049282
 10
157.4943426967
 20
124.8036114979
 10
157.4551408489
 20
124.7872032679
 10
157.4147504314
 20
124.7698348907
 10
157.373143159
 20
124.7514912503
 10
157.330347317
 20
124.7321874626
 10
157.2863629053
 20
124.7119235276
  0
LWPOLYLINE
  5
437
100
AcDbEntity
  8
RACCORDO
100
AcDbPolyline
 62
253
  6
CONTINUOUS
 90
17
 70
0
 10
157.2058866039
 20
122.9724350084
 10
157.2192459992
 20
122.9914253246
 10
157.2320744636
 20
123.0075543487
 10
157.2443296704
 20
123.0208194506
 10
157.2559875398
 20
123.0312459704
 10
157.2669826044
 20
123.0388008941
 10
157.2772219773
 20
123.0433900698
 10
157.2866902199
 20
123.0448138865
 10
157.2953359874
 20
123.0432536886
 10
157.3030532385
 20
123.039179017
 10
157.3098113903
 20
123.0325145442
 10
157.315644959
 20
123.0233054126
 10
157.3205666663
 20
123.0121986446
 10
157.3245601869
 20
122.9992673038
 10
157.3276307494
 20
122.9844103177
 10
157.3297885382
 20
122.9680154554
 10
157.3310000293
 20
122.9501175687
  0
LINE
  5
438
100
AcDbEntity
  8
RACCORDO
100
AcDbLine
 62
7
  6
CONTINUOUS
 10
134.0146251764
 20
93.4510558744
 11
134.0140557844
 21
93.4505637334
  0
LWPOLYLINE
  5
439
100
AcDbEntity
  8
RACCORDO
100
AcDbPolyline
 62
253
  6
CONTINUOUS
 90
26
 70
0
 10
134.0140557844
 20
93.4505637334
 10
134.003377521
 20
93.4414524338
 10
133.9390484805
 20
93.3909920133
 10
133.8737104375
 20
93.3466389523
 10
133.8076723983
 20
93.3078850211
 10
133.7414265542
 20
93.2743831073
 10
133.6753795863
 20
93.2457541435
 10
133.6095954148
 20
93.2215139344
 10
133.5444021644
 20
93.2013345121
 10
133.4801000127
 20
93.1848906742
 10
133.4166124549
 20
93.171798685
 10
133.3541658291
 20
93.161781565
 10
133.2929603479
 20
93.1545659679
 10
133.2328077361
 20
93.1498705117
 10
133.1738612232
 20
93.1474743494
 10
133.1162494628
 20
93.1471597226
 10
133.0596958958
 20
93.1487429561
 10
133.0042875488
 20
93.152058452
 10
132.9501201026
 20
93.1569416167
 10
132.8968961471
 20
93.1632933639
 10
132.8447075291
 20
93.1709882596
 10
132.7935824857
 20
93.1799084285
 10
132.7431069673
 20
93.1900452253
 10
132.6931680979
 20
93.2013626044
 10
132.643959356
 20
93.213753012
 10
132.5955162875
 20
93.2271417585
  0
LINE
  5
43A
100
AcDbEntity
  8
RACCORDO
100
AcDbLine
 62
253
  6
CONTINUOUS
 10
158.2263211155
 20
111.8912415143
 11
157.2058866039
 21
111.2921491729
  0
LWPOLYLINE
  5
43B
100
AcDbEntity
  8
RACCORDO
100
AcDbPolyline
 62
253
  6
CONTINUOUS
 90
6
 70
0
 10
132.7437580128
 20
111.0757151284
 10
133.102877282
 20
111.1541415569
 10
133.4639425584
 20
111.2202999382
 10
133.8269538421
 20
111.2741902722
 10
134.1928671699
 20
111.3158348208
 10
134.3428183974
 20
111.3278096221
  0
LWPOLYLINE
  5
43C
100
AcDbEntity
  8
RACCORDO
100
AcDbPolyline
 62
7
  6
CONTINUOUS
 90
7
 70
0
 10
157.984166284
 20
112.4466174781
 10
157.9294360054
 20
112.4486769955
 10
157.873685843
 20
112.4451613183
 10
157.8172420653
 20
112.4359501882
 10
157.7609509214
 20
112.4211261663
 10
157.7051776288
 20
112.400862467
 10
157.6516386111
 20
112.3761117136
  0
LWPOLYLINE
  5
43D
100
AcDbEntity
  8
0
100
AcDbPolyline
 62
253
  6
CONTINUOUS
 90
16
 70
0
 10
130.5378802139
 20
130.0478838823
 10
130.5448110241
 20
130.0382553559
 10
130.5513688187
 20
130.028410538
 10
130.5575387401
 20
130.0183717293
 10
130.5633068046
 20
130.0081616783
 10
130.5686599415
 20
129.9978035171
 10
130.5735860186
 20
129.9873207166
 10
130.578073869
 20
129.976737037
 10
130.5821133221
 20
129.9660764608
 10
130.5856952249
 20
129.9553631416
 10
130.5888114593
 20
129.9446213578
 10
130.5914549649
 20
129.9338754436
 10
130.5936197496
 20
129.923149753
 10
130.5953009052
 20
129.9124686075
 10
130.5964946237
 20
129.901856215
 10
130.5971982033
 20
129.8913366152
  0
LINE
  5
43E
100
AcDbEntity
  8
DRAFT
100
AcDbLine
 62
7
  6
CONTINUOUS
 10
148.1369665551
 20
129.255706477
 11
148.1369461505
 21
129.3528480509
  0
LINE
  5
43F
100
AcDbEntity
  8
RACCORDO
100
AcDbLine
 62
253
  6
CONTINUOUS
 10
148.569865689
 20
129.1307392612
 11
148.569865689
 21
129.1542543386
  0
LINE
  5
440
100
AcDbEntity
  8
RACCORDO
100
AcDbLine
 62
253
  6
CONTINUOUS
 10
148.5965604999
 20
127.2269910293
 11
148.5965604999
 21
127.1519376045
  0
LINE
  5
441
100
AcDbEntity
  8
RACCORDO
100
AcDbLine
 62
253
  6
CONTINUOUS
 10
148.7060286051
 20
129.0885041658
 11
148.7060286051
 21
129.1001000745
  0
LINE
  5
442
100
AcDbEntity
  8
DRAFT
100
AcDbLine
 62
253
  6
CONTINUOUS
 10
149.2443703437
 20
128.2908799235
 11
149.2443703437
 21
127.8113309766
  0
LINE
  5
443
100
AcDbEntity
  8
0
100
AcDbLine
 62
7
  6
CONTINUOUS
 10
149.3070604901
 20
128.4677519248
 11
149.3070604901
 21
127.9325333817
  0
LWPOLYLINE
  5
444
100
AcDbEntity
  8
0
100
AcDbPolyline
 62
7
  6
CONTINUOUS
 90
14
 70
0
 10
149.3070592496
 20
127.9325266088
 10
149.306861781
 20
127.9254858704
 10
149.3059029869
 20
127.9155460446
 10
149.304152264
 20
127.9056173855
 10
149.3016179212
 20
127.895747014
 10
149.2982962335
 20
127.885935207
 10
149.2941909258
 20
127.8761816876
 10
149.2893214817
 20
127.8665327454
 10
149.283684269
 20
127.8569888774
 10
149.2772829198
 20
127.8475495866
 10
149.2701478146
 20
127.8382596713
 10
149.2622890803
 20
127.8291340642
 10
149.25369659
 20
127.8201578327
 10
149.2443703437
 20
127.8113309766
  0
LWPOLYLINE
  5
445
100
AcDbEntity
  8
RACCORDO
100
AcDbPolyline
 62
7
  6
CONTINUOUS
 90
6
 70
0
 10
148.6354520879
 20
127.2615724025
 10
148.6342100328
 20
127.2358717636
 10
148.6300374309
 20
127.2117133514
 10
148.6225606619
 20
127.1896349054
 10
148.6114877625
 20
127.1696266111
 10
148.5965604999
 20
127.1519376045
  0
LWPOLYLINE
  5
446
100
AcDbEntity
  8
0
100
AcDbPolyline
 62
253
  6
CONTINUOUS
 90
11
 70
0
 10
145.6987858971
 20
83.5927023306
 10
145.6979898044
 20
83.5867875071
 10
145.6966337355
 20
83.580898204
 10
145.694720739
 20
83.5750476667
 10
145.6922551172
 20
83.5692490562
 10
145.6892424134
 20
83.5635154117
 10
145.6856894041
 20
83.5578596326
 10
145.681604088
 20
83.5522944499
 10
145.676995659
 20
83.5468323839
 10
145.671874482
 20
83.5414857158
 10
145.6662520777
 20
83.5362664708
  0
LWPOLYLINE
  5
447
100
AcDbEntity
  8
RACCORDO
100
AcDbPolyline
 62
253
  6
CONTINUOUS
 90
5
 70
0
 10
157.3179788529
 20
129.3634303249
 10
157.3003535676
 20
129.3214716009
 10
157.2756245827
 20
129.2805065924
 10
157.2440172978
 20
129.2407936173
 10
157.2058168923
 20
129.202614178
  0
LINE
  5
448
100
AcDbEntity
  8
ASSI
100
AcDbLine
 62
7
  6
CONTINUOUS
 10
134.1155084122
 20
93.553467547
 11
134.0998000182
 21
93.5422937758
  0
LWPOLYLINE
  5
449
100
AcDbEntity
  8
0
100
AcDbPolyline
 62
253
  6
CONTINUOUS
 90
4
 70
0
 10
130.5150108445
 20
130.0752562042
 10
130.5229632034
 20
130.0664053076
 10
130.5305920971
 20
130.0572742968
 10
130.5378802139
 20
130.0478838823
  0
LINE
  5
44A
100
AcDbEntity
  8
CONTATTI
100
AcDbLine
 62
7
  6
CONTINUOUS
 10
149.4316499918
 20
128.2429776521
 11
149.4316499918
 21
127.9075323449
  0
LINE
  5
44B
100
AcDbEntity
  8
CONTATTI
100
AcDbLine
 62
7
  6
CONTINUOUS
 10
149.9290912912
 20
128.1835795176
 11
149.9290912912
 21
127.8762350734
  0
LINE
  5
44C
100
AcDbEntity
  8
RACCORDO
100
AcDbLine
 62
7
  6
CONTINUOUS
 10
150.4760471268
 20
131.7040045052
 11
150.4760471268
 21
131.3841225167
  0
LWPOLYLINE
  5
44D
100
AcDbEntity
  8
0
100
AcDbPolyline
 62
253
  6
CONTINUOUS
 90
11
 70
0
 10
145.6662520777
 20
83.8837979875
 10
145.6689453544
 20
83.8953524011
 10
145.6711422587
 20
83.9070203763
 10
145.6728378323
 20
83.9187755783
 10
145.6740282476
 20
83.9305914687
 10
145.6747108189
 20
83.9424413852
 10
145.6748840056
 20
83.9542986021
 10
145.6745474133
 20
83.9661363725
 10
145.6737017988
 20
83.9779279625
 10
145.6723490715
 20
83.989646732
 10
145.6704922874
 20
84.001266221
  0
LWPOLYLINE
  5
44E
100
AcDbEntity
  8
RACCORDO
100
AcDbPolyline
 62
7
  6
CONTINUOUS
 90
7
 70
0
 10
157.2058866039
 20
122.9724350084
 10
157.2170659752
 20
122.9993980956
 10
157.2291374065
 20
123.0254637581
 10
157.2421008977
 20
123.050631996
 10
157.2559564489
 20
123.0749028092
 10
157.2707040601
 20
123.0982761979
 10
157.2863437312
 20
123.1207521618
  0
LWPOLYLINE
  5
44F
100
AcDbEntity
  8
RACCORDO
100
AcDbPolyline
 62
253
  6
CONTINUOUS
 90
9
 70
0
 10
153.0248825133
 20
104.8954393898
 10
153.0638825956
 20
104.9356785696
 10
153.1042424448
 20
104.9874606126
 10
153.1388073663
 20
105.0441041374
 10
153.1673143746
 20
105.1051782383
 10
153.1895465341
 20
105.1702181879
 10
153.2053346995
 20
105.2387291357
 10
153.2145587698
 20
105.3101898933
 10
153.2171485697
 20
105.3840567983
  0
LINE
  5
450
100
AcDbEntity
  8
RACCORDO
100
AcDbLine
 62
253
  6
CONTINUOUS
 10
157.1004475265
 20
109.0079493285
 11
153.217148572
 21
105.3840568004
  0
LINE
  5
451
100
AcDbEntity
  8
RACCORDO
100
AcDbLine
 62
7
  6
CONTINUOUS
 10
157.0135328408
 20
108.6176457459
 11
153.0247948074
 21
104.8953575251
  0
LWPOLYLINE
  5
452
100
AcDbEntity
  8
RACCORDO
100
AcDbPolyline
 62
7
  6
CONTINUOUS
 90
6
 70
0
 10
157.23831428
 20
108.9679060831
 10
157.2306327459
 20
108.9611864608
 10
157.2221848881
 20
108.9534593032
 10
157.2130007316
 20
108.9441096993
 10
157.2031741137
 20
108.9328812798
 10
157.1927736712
 20
108.9199289429
  0
LINE
  5
453
100
AcDbEntity
  8
ASSI
100
AcDbLine
 62
7
  6
CONTINUOUS
 10
134.0998000182
 20
93.5422937758
 11
133.9920607484
 21
93.4805740278
  0
LINE
  5
454
100
AcDbEntity
  8
ASSI
100
AcDbLine
 62
7
  6
CONTINUOUS
 10
133.9920607484
 20
93.4805740278
 11
133.8775923355
 21
93.4292348947
  0
LWPOLYLINE
  5
455
100
AcDbEntity
  8
RACCORDO
100
AcDbPolyline
 62
7
  6
CONTINUOUS
 90
3
 70
0
 10
158.0832974093
 20
112.4281541689
 10
158.0375012624
 20
112.4391411885
 10
157.984166284
 20
112.4466174781
  0
LWPOLYLINE
  5
456
100
AcDbEntity
  8
RACCORDO
100
AcDbPolyline
 62
253
  6
CONTINUOUS
 90
4
 70
0
 10
158.1616785004
 20
112.4055244941
 10
158.1487316523
 20
112.4088040862
 10
158.1043700867
 20
112.4145967025
 10
158.0581502281
 20
112.4125213273
  0
LINE
  5
457
100
AcDbEntity
  8
RACCORDO
100
AcDbLine
 62
7
  6
CONTINUOUS
 10
158.1629363799
 20
112.4051650641
 11
158.1616785004
 21
112.4055244941
  0
LINE
  5
458
100
AcDbEntity
  8
RACCORDO
100
AcDbLine
 62
7
  6
CONTINUOUS
 10
158.0833549034
 20
112.4281381865
 11
158.083540095
 21
112.4280847973
  0
LINE
  5
459
100
AcDbEntity
  8
RACCORDO
100
AcDbLine
 62
253
  6
CONTINUOUS
 10
157.9112028682
 20
112.3594275978
 11
157.8142273862
 21
112.3874220081
  0
LINE
  5
45A
100
AcDbEntity
  8
ASSI
100
AcDbLine
 62
7
  6
CONTINUOUS
 10
158.083459921
 20
112.4281079415
 11
158.1629759876
 21
112.4051536303
  0
LWPOLYLINE
  5
45B
100
AcDbEntity
  8
CONTATTI
100
AcDbPolyline
 62
7
  6
CONTINUOUS
 90
13
 70
0
 10
151.5320156616
 20
128.5816592131
 10
151.5317557319
 20
128.5939601637
 10
151.5309694065
 20
128.6056658365
 10
151.5296566856
 20
128.6167762314
 10
151.5278058643
 20
128.6273625025
 10
151.5254286475
 20
128.6373534957
 10
151.5225601496
 20
128.6465357492
 10
151.5191855387
 20
128.6548834438
 10
151.5153196467
 20
128.6624223987
 10
151.5110420841
 20
128.6690166083
 10
151.5063793877
 20
128.6746207374
 10
151.5013050208
 20
128.6792801212
 10
151.4958189833
 20
128.6829947598
  0
LINE
  5
45C
100
AcDbEntity
  8
CONTATTI
100
AcDbLine
 62
7
  6
CONTINUOUS
 10
151.5320156616
 20
128.5816592131
 11
151.5320156616
 21
128.4459197178
  0
LINE
  5
45D
100
AcDbEntity
  8
RACCORDO
100
AcDbLine
 62
253
  6
CONTINUOUS
 10
152.5025169416
 20
94.3378865746
 11
152.5025169416
 21
103.4406017502
  0
LINE
  5
45E
100
AcDbEntity
  8
RACCORDO
100
AcDbLine
 62
7
  6
CONTINUOUS
 10
152.6278972344
 20
94.5802913848
 11
152.6278972344
 21
103.6830065622
  0
LWPOLYLINE
  5
45F
100
AcDbEntity
  8
RACCORDO
100
AcDbPolyline
 62
7
  6
CONTINUOUS
 90
25
 70
0
 10
152.6278840275
 20
103.6830391509
 10
152.627965399
 20
103.697569323
 10
152.6292202179
 20
103.7440947146
 10
152.6322200553
 20
103.7959914656
 10
152.6372399323
 20
103.8527759825
 10
152.6444272661
 20
103.9133321572
 10
152.6539050144
 20
103.9771845141
 10
152.6657705661
 20
104.0438845763
 10
152.6799465867
 20
104.1121896932
 10
152.696392886
 20
104.1815157978
 10
152.7150071825
 20
104.2512499374
 10
152.7354559102
 20
104.3200728745
 10
152.7575450989
 20
104.3874060676
 10
152.7810236529
 20
104.4526800736
 10
152.8053346816
 20
104.5146816095
 10
152.8301611177
 20
104.572973759
 10
152.8551772209
 20
104.6272142314
 10
152.8797322222
 20
104.6765336827
 10
152.9033708857
 20
104.7206131244
 10
152.9258622404
 20
104.7595839132
 10
152.9468573986
 20
104.7934101098
 10
152.9660428004
 20
104.8221702852
 10
152.9830993977
 20
104.8459504247
 10
152.9976502581
 20
104.8647904585
 10
153.0044243293
 20
104.8730563413
  0
LWPOLYLINE
  5
460
100
AcDbEntity
  8
RACCORDO
100
AcDbPolyline
 62
253
  6
CONTINUOUS
 90
15
 70
0
 10
152.5025169416
 20
103.4406017502
 10
152.5045521145
 20
103.5389154917
 10
152.5104660996
 20
103.639303381
 10
152.5202588969
 20
103.7417654182
 10
152.5340324961
 20
103.8469472285
 10
152.5516849074
 20
103.9542031866
 10
152.5729101623
 20
104.0615964167
 10
152.5977549106
 20
104.1690393082
 10
152.6261725024
 20
104.2766194716
 10
152.657717019
 20
104.3826628633
 10
152.6924495215
 20
104.4871827751
 10
152.7303089488
 20
104.5901659151
 10
152.7706661994
 20
104.6898983634
 10
152.8135490395
 20
104.7862986143
 10
152.8589297029
 20
104.8794481736
  0
LWPOLYLINE
  5
461
100
AcDbEntity
  8
RACCORDO
100
AcDbPolyline
 62
253
  6
CONTINUOUS
 90
7
 70
0
 10
152.6278972344
 20
103.6830065767
 10
152.6251118505
 20
103.6457137707
 10
152.6149722301
 20
103.6028770548
 10
152.5974860582
 20
103.5606367224
 10
152.5727834969
 20
103.5193071822
 10
152.5410483927
 20
103.4791960135
 10
152.5025169416
 20
103.4406017535
  0
LINE
  5
462
100
AcDbEntity
  8
RACCORDO
100
AcDbLine
 62
253
  6
CONTINUOUS
 10
157.3282888814
 20
129.4060416123
 11
157.3179788529
 21
129.3634303249
  0
LWPOLYLINE
  5
463
100
AcDbEntity
  8
0
100
AcDbPolyline
 62
7
  6
CONTINUOUS
 90
13
 70
0
 10
146.1424903711
 20
84.8759227367
 10
146.1372985277
 20
84.8607447696
 10
146.1314573734
 20
84.8460154576
 10
146.1249728223
 20
84.8317468597
 10
146.1178389604
 20
84.8179269168
 10
146.110067453
 20
84.8045875575
 10
146.1016413529
 20
84.7917079674
 10
146.0925776072
 20
84.7793089608
 10
146.0829387236
 20
84.7674849092
 10
146.072721005
 20
84.756247212
 10
146.0619281484
 20
84.7455844698
 10
146.0506337523
 20
84.7355568569
 10
146.0388579975
 20
84.7261814313
  0
LWPOLYLINE
  5
464
100
AcDbEntity
  8
RACCORDO
100
AcDbPolyline
 62
253
  6
CONTINUOUS
 90
8
 70
0
 10
152.8589297029
 20
104.8794481736
 10
152.9060957891
 20
104.9678776387
 10
152.9551066022
 20
105.0515541287
 10
153.0059028381
 20
105.1305105245
 10
153.0575941843
 20
105.2033760657
 10
153.1098838699
 20
105.2696938319
 10
153.1630686658
 20
105.3299207435
 10
153.217148572
 20
105.3840568004
  0
LWPOLYLINE
  5
465
100
AcDbEntity
  8
RACCORDO
100
AcDbPolyline
 62
7
  6
CONTINUOUS
 90
9
 70
0
 10
157.2058866039
 20
111.2921491729
 10
157.2392305797
 20
111.3543500566
 10
157.2669007053
 20
111.4158492401
 10
157.2891799723
 20
111.4760637071
 10
157.3064805324
 20
111.5344466993
 10
157.3190900509
 20
111.590559993
 10
157.3271064961
 20
111.6440596597
 10
157.3308379518
 20
111.694527525
 10
157.3312439028
 20
111.7176741717
  0
LWPOLYLINE
  5
466
100
AcDbEntity
  8
RACCORDO
100
AcDbPolyline
 62
7
  6
CONTINUOUS
 90
7
 70
0
 10
157.1817822191
 20
108.9052631819
 10
157.1607120874
 20
108.8766337329
 10
157.1393620665
 20
108.8480488918
 10
157.1177331414
 20
108.8195130079
 10
157.0958264415
 20
108.791030373
 10
157.0736432412
 20
108.762605219
 10
157.0511849599
 20
108.7342417141
  0
LINE
  5
467
100
AcDbEntity
  8
RACCORDO
100
AcDbLine
 62
7
  6
CONTINUOUS
 10
157.1927736712
 20
108.9199289429
 11
157.1817822191
 21
108.9052631819
  0
LWPOLYLINE
  5
468
100
AcDbEntity
  8
RACCORDO
100
AcDbPolyline
 62
253
  6
CONTINUOUS
 90
37
 70
0
 10
158.2263211155
 20
110.2707913036
 10
158.2613999482
 20
110.3160561965
 10
158.2954355756
 20
110.3649280295
 10
158.3284279976
 20
110.4174068026
 10
158.3605775012
 20
110.4738668758
 10
158.3916837995
 20
110.5339338892
 10
158.4211460315
 20
110.5964847627
 10
158.448922259
 20
110.6615533721
 10
158.4750544203
 20
110.7291058415
 10
158.4990674694
 20
110.7979174639
 10
158.5209195305
 20
110.8680016453
 10
158.5406524794
 20
110.9393449796
 10
158.5579168982
 20
111.0106825408
 10
158.5726701791
 20
111.0820203009
 10
158.5849549299
 20
111.1533522881
 10
158.5945495554
 20
111.2233956606
 10
158.6014048367
 20
111.2921254772
 10
158.6055699928
 20
111.3595666792
 10
158.6069710857
 20
111.4245112496
 10
158.6055583257
 20
111.486913192
 10
158.6013815025
 20
111.5468185027
 10
158.5945160473
 20
111.603157154
 10
158.5849132758
 20
111.6558655853
 10
158.5726218721
 20
111.7050073571
 10
158.5578633199
 20
111.7497031228
 10
158.5405950169
 20
111.7898712694
 10
158.5208595652
 20
111.8255934098
 10
158.499006255
 20
111.8562350374
 10
158.4749935602
 20
111.8817069242
 10
158.4488630069
 20
111.9020982981
 10
158.4210884631
 20
111.9170423358
 10
158.3916258115
 20
111.9264292571
 10
158.3605191695
 20
111.9303688422
 10
158.3283747568
 20
111.9288236087
 10
158.295394647
 20
111.9217810625
 10
158.2613767665
 20
111.9092536977
 10
158.2263211155
 20
111.8912415143
  0
LWPOLYLINE
  5
469
100
AcDbEntity
  8
RACCORDO
100
AcDbPolyline
 62
7
  6
CONTINUOUS
 90
48
 70
0
 10
157.0597240456
 20
108.7450994617
 10
157.0680209065
 20
108.7557534854
 10
157.0760773358
 20
108.7662018183
 10
157.0838903217
 20
108.7764362199
 10
157.0914665214
 20
108.7864611094
 10
157.0988219714
 20
108.7962937689
 10
157.1059580053
 20
108.8059322425
 10
157.112876364
 20
108.815375341
 10
157.1195931339
 20
108.8246419435
 10
157.1261096364
 20
108.8337307245
 10
157.132427021
 20
108.8426404809
 10
157.1385604712
 20
108.8513907453
 10
157.144513262
 20
108.859983732
 10
157.1502838823
 20
108.8684153047
 10
157.1558797282
 20
108.8766958835
 10
157.1613022776
 20
108.8848255812
 10
157.1665513276
 20
108.8928027682
 10
157.1716311941
 20
108.9006356074
 10
157.1765332213
 20
108.9083080521
 10
157.1812669569
 20
108.9158349301
 10
157.1858625577
 20
108.9232715465
 10
157.1903298846
 20
108.9306326558
 10
157.1946573687
 20
108.9379037114
 10
157.1988409367
 20
108.945097175
 10
157.2029011435
 20
108.9522507517
 10
157.2068135137
 20
108.9593279563
 10
157.210506228
 20
108.966230043
 10
157.2139628528
 20
108.9729200758
 10
157.2171983052
 20
108.9794348671
 10
157.2201863895
 20
108.9857868967
 10
157.222948509
 20
108.9919891893
 10
157.2254572255
 20
108.9980304921
 10
157.2276057272
 20
109.0038900491
 10
157.2294407084
 20
109.0097374387
 10
157.2308933702
 20
109.0154109825
 10
157.2316884705
 20
109.0203909701
 10
157.2317043375
 20
109.024543336
 10
157.2310631932
 20
109.0280001528
 10
157.2298792774
 20
109.0306318847
 10
157.2281283454
 20
109.0322837449
 10
157.2258621526
 20
109.0330996311
 10
157.2233191049
 20
109.0333946372
 10
157.2205519372
 20
109.0332018024
 10
157.2175248494
 20
109.0324820408
 10
157.2143382267
 20
109.0314441351
 10
157.2110271663
 20
109.0301570961
 10
157.207564495
 20
109.0285492256
 10
157.203954094
 20
109.0266192824
  0
LWPOLYLINE
  5
46A
100
AcDbEntity
  8
RACCORDO
100
AcDbPolyline
 62
7
  6
CONTINUOUS
 90
3
 70
0
 10
158.1851506482
 20
110.1133676486
 10
158.2060161689
 20
110.1393774997
 10
158.2656029704
 20
110.220967841
  0
LINE
  5
46B
100
AcDbEntity
  8
RACCORDO
100
AcDbLine
 62
253
  6
CONTINUOUS
 10
157.203954094
 20
109.0266192824
 11
158.2263211155
 21
110.2707913036
  0
LINE
  5
46C
100
AcDbEntity
  8
RACCORDO
100
AcDbLine
 62
7
  6
CONTINUOUS
 10
157.2610466139
 20
108.988764101
 11
158.1855188304
 21
110.1138028023
  0
LWPOLYLINE
  5
46D
100
AcDbEntity
  8
RACCORDO
100
AcDbPolyline
 62
7
  6
CONTINUOUS
 90
5
 70
0
 10
157.2612870409
 20
108.9890584831
 10
157.2605065975
 20
108.9881377863
 10
157.2559203382
 20
108.9832532599
 10
157.2507775335
 20
108.9784925693
 10
157.23831428
 20
108.9679060831
  0
LWPOLYLINE
  5
46E
100
AcDbEntity
  8
RACCORDO
100
AcDbPolyline
 62
7
  6
CONTINUOUS
 90
5
 70
0
 10
153.0044243293
 20
104.8730563413
 10
153.0094162526
 20
104.8789174171
 10
153.0181235358
 20
104.8885970126
 10
153.0234235894
 20
104.8940474839
 10
153.0248777119
 20
104.8954445226
  0
LWPOLYLINE
  5
46F
100
AcDbEntity
  8
RACCORDO
100
AcDbPolyline
 62
7
  6
CONTINUOUS
 90
6
 70
0
 10
157.0135328408
 20
108.6176457459
 10
157.0630625886
 20
108.6672259709
 10
157.1092572061
 20
108.7204737072
 10
157.1517701525
 20
108.7771079775
 10
157.190259284
 20
108.8367614782
 10
157.2244724736
 20
108.899101332
  0
LWPOLYLINE
  5
470
100
AcDbEntity
  8
0
100
AcDbPolyline
 62
253
  6
CONTINUOUS
 90
37
 70
0
 10
142.0806002789
 20
92.3440402845
 10
142.0690952655
 20
92.3345633567
 10
142.0568138582
 20
92.3253437568
 10
142.0437789191
 20
92.316398647
 10
142.0300147126
 20
92.3077446787
 10
142.015546861
 20
92.2993979612
 10
142.0004022961
 20
92.2913740321
 10
141.9846092097
 20
92.2836878279
 10
141.9681970007
 20
92.2763536565
 10
141.9511962204
 20
92.2693851706
 10
141.9336385159
 20
92.2627953419
 10
141.915556571
 20
92.2565964375
 10
141.8969840453
 20
92.2507999967
 10
141.8779555116
 20
92.2454168096
 10
141.8585063916
 20
92.2404568969
 10
141.8386728899
 20
92.2359294917
 10
141.8184919268
 20
92.2318430216
 10
141.7980010691
 20
92.2282050938
 10
141.7772384607
 20
92.2250224801
 10
141.7562427512
 20
92.222301105
 10
141.7350530244
 20
92.2200460345
 10
141.713708725
 20
92.2182614662
 10
141.6922495854
 20
92.2169507223
 10
141.670715552
 20
92.2161162426
 10
141.6491467104
 20
92.2157595805
 10
141.6275832112
 20
92.2158814001
 10
141.606065195
 20
92.2164814744
 10
141.5846327175
 20
92.2175586865
 10
141.5633256755
 20
92.2191110311
 10
141.5421837322
 20
92.2211356185
 10
141.5212462433
 20
92.22362868
 10
141.500552184
 20
92.2265855748
 10
141.4801400766
 20
92.2300007984
 10
141.4600479181
 20
92.2338679935
 10
141.4403131103
 20
92.2381799613
 10
141.4209723896
 20
92.242928675
 10
141.4020617588
 20
92.2481052949
  0
LWPOLYLINE
  5
471
100
AcDbEntity
  8
ASSI
100
AcDbPolyline
 62
7
  6
CONTINUOUS
 90
6
 70
0
 10
133.8775923355
 20
93.4292348947
 10
133.7565054061
 20
93.3881057199
 10
133.6308126809
 20
93.3578701571
 10
133.5004371755
 20
93.3387102903
 10
133.3654558742
 20
93.3304440355
 10
133.2281124518
 20
93.3332087954
  0
LINE
  5
472
100
AcDbEntity
  8
0
100
AcDbLine
 62
253
  6
CONTINUOUS
 10
123.6766308545
 20
124.5328471384
 11
141.9119550521
 21
119.2687624713
  0
LWPOLYLINE
  5
473
100
AcDbEntity
  8
0
100
AcDbPolyline
 62
7
  6
CONTINUOUS
 90
7
 70
0
 10
141.7042230831
 20
124.3699026496
 10
141.6827551142
 20
124.3958540271
 10
141.6648229624
 20
124.4247329993
 10
141.6508606954
 20
124.4560879865
 10
141.6412765172
 20
124.4892841921
 10
141.6363405656
 20
124.5237568603
 10
141.635684249
 20
124.5416053577
  0
LINE
  5
474
100
AcDbEntity
  8
0
100
AcDbLine
 62
7
  6
CONTINUOUS
 10
137.3072181688
 20
131.6771341093
 11
137.3072390764
 21
131.6771077238
  0
LWPOLYLINE
  5
475
100
AcDbEntity
  8
DRAFT
100
AcDbPolyline
 62
7
  6
CONTINUOUS
 90
3
 70
0
 10
146.7549853501
 20
121.3562907702
 10
146.7310182334
 20
121.3924155876
 10
146.6530304482
 20
121.4983657038
  0
LWPOLYLINE
  5
476
100
AcDbEntity
  8
0
100
AcDbPolyline
 62
253
  6
CONTINUOUS
 90
12
 70
0
 10
145.6662520777
 20
125.1834021269
 10
145.6689453083
 20
125.1771460458
 10
145.6711421854
 20
125.1710437194
 10
145.6728377507
 20
125.1651089202
 10
145.6740281776
 20
125.1593550428
 10
145.6747107791
 20
125.1537950732
 10
145.6748840148
 20
125.14844156
 10
145.6745474937
 20
125.1433065857
 10
145.6737019752
 20
125.1384017398
 10
145.6723493677
 20
125.1337380921
 10
145.670492724
 20
125.1293261682
 10
145.669945324
 20
125.1282543512
  0
LINE
  5
477
100
AcDbEntity
  8
RACCORDO
100
AcDbLine
 62
7
  6
CONTINUOUS
 10
157.2244724736
 20
108.899101332
 11
157.2542335443
 21
108.9638698906
  0
LINE
  5
478
100
AcDbEntity
  8
0
100
AcDbLine
 62
253
  6
CONTINUOUS
 10
144.1851627064
 20
83.3469756135
 11
143.8789645917
 21
82.7821841347
  0
LWPOLYLINE
  5
479
100
AcDbEntity
  8
RACCORDO
100
AcDbPolyline
 62
7
  6
CONTINUOUS
 90
27
 70
0
 10
158.3211681425
 20
110.3078870383
 10
158.3727359565
 20
110.399437918
 10
158.4204229211
 20
110.4951748349
 10
158.4642057712
 20
110.5946118311
 10
158.5039497357
 20
110.6970437411
 10
158.5395087387
 20
110.8018459185
 10
158.5707108169
 20
110.9083159331
 10
158.5973969098
 20
111.0157741773
 10
158.6193854862
 20
111.1235542519
 10
158.6365180012
 20
111.2309745382
 10
158.6486340494
 20
111.3376488031
 10
158.655513765
 20
111.4427589935
 10
158.6569679723
 20
111.5453136311
 10
158.652769185
 20
111.6456062288
 10
158.6426774469
 20
111.7425796759
 10
158.6267788919
 20
111.8339966792
 10
158.6050616828
 20
111.9199102617
 10
158.5773797777
 20
112.0005290762
 10
158.5441252613
 20
112.0745952213
 10
158.5055799403
 20
112.1419146685
 10
158.4616536372
 20
112.2029033268
 10
158.4126677418
 20
112.2571904903
 10
158.3590801763
 20
112.3044104259
 10
158.3013351003
 20
112.3443467359
 10
158.2401821647
 20
112.3766474748
 10
158.1764699119
 20
112.4010715148
 10
158.1616355085
 20
112.405536522
  0
LINE
  5
47A
100
AcDbEntity
  8
RACCORDO
100
AcDbLine
 62
7
  6
CONTINUOUS
 10
158.2656029704
 20
110.220967841
 11
158.3211681425
 21
110.3078870383
  0
LINE
  5
47B
100
AcDbEntity
  8
0
100
AcDbLine
 62
253
  6
CONTINUOUS
 10
124.1377943101
 20
125.6760972263
 11
142.3872748851
 21
120.4079259651
  0
LINE
  5
47C
100
AcDbEntity
  8
0
100
AcDbLine
 62
7
  6
CONTINUOUS
 10
146.1595805579
 20
119.9788059427
 11
146.1607142688
 21
119.9784786686
  0
LINE
  5
47D
100
AcDbEntity
  8
0
100
AcDbLine
 62
7
  6
CONTINUOUS
 10
147.1898136172
 20
120.5306965247
 11
147.1455988904
 21
120.5434602169
  0
LWPOLYLINE
  5
47E
100
AcDbEntity
  8
0
100
AcDbPolyline
 62
253
  6
CONTINUOUS
 90
8
 70
0
 10
130.4518819701
 20
130.1277770212
 10
130.4615581586
 20
130.1214072928
 10
130.4710501579
 20
130.1146328032
 10
130.4803365745
 20
130.1074687805
 10
130.4893962277
 20
130.0999315232
 10
130.4982083909
 20
130.0920382616
 10
130.5067530213
 20
130.0838069615
 10
130.5150108445
 20
130.0752562042
  0
LINE
  5
47F
100
AcDbEntity
  8
DRAFT
100
AcDbLine
 62
7
  6
CONTINUOUS
 10
146.6531565796
 20
121.4875149748
 11
147.1455988904
 21
120.8529168136
  0
LWPOLYLINE
  5
480
100
AcDbEntity
  8
0
100
AcDbPolyline
 62
253
  6
CONTINUOUS
 90
16
 70
0
 10
145.6067222397
 20
125.6978838823
 10
145.61365305
 20
125.6882553559
 10
145.6202108445
 20
125.678410538
 10
145.626380766
 20
125.6683717293
 10
145.6321488305
 20
125.6581616783
 10
145.6375019674
 20
125.6478035171
 10
145.6424280445
 20
125.6373207166
 10
145.6469158948
 20
125.626737037
 10
145.650955348
 20
125.6160764608
 10
145.6545372507
 20
125.6053631416
 10
145.6576534852
 20
125.5946213578
 10
145.6602969907
 20
125.5838754436
 10
145.6624617754
 20
125.573149753
 10
145.664142931
 20
125.5624686075
 10
145.6653366495
 20
125.551856215
 10
145.6660402292
 20
125.5413366152
  0
LINE
  5
481
100
AcDbEntity
  8
RACCORDO
100
AcDbLine
 62
253
  6
CONTINUOUS
 10
157.3311905681
 20
129.4463100803
 11
157.3311918432
 21
129.4461777413
  0
LINE
  5
482
100
AcDbEntity
  8
RACCORDO
100
AcDbLine
 62
253
  6
CONTINUOUS
 10
157.2058168924
 20
129.2026141654
 11
157.2058866039
 21
129.188500385
  0
LINE
  5
483
100
AcDbEntity
  8
RACCORDO
100
AcDbLine
 62
7
  6
CONTINUOUS
 10
157.3312668968
 20
129.4309051952
 11
157.3311905729
 21
129.44630959
  0
LINE
  5
484
100
AcDbEntity
  8
RACCORDO
100
AcDbLine
 62
253
  6
CONTINUOUS
 10
157.2058866039
 20
129.188500385
 11
157.2058866039
 21
124.7150879791
  0
LINE
  5
485
100
AcDbEntity
  8
RACCORDO
100
AcDbLine
 62
253
  6
CONTINUOUS
 10
157.2058866039
 20
111.2921491729
 11
157.2058866039
 21
122.9724350084
  0
LINE
  5
486
100
AcDbEntity
  8
RACCORDO
100
AcDbLine
 62
7
  6
CONTINUOUS
 10
157.3312668968
 20
129.4309051952
 11
157.3312668968
 21
125.2371892845
  0
LINE
  5
487
100
AcDbEntity
  8
RACCORDO
100
AcDbLine
 62
7
  6
CONTINUOUS
 10
157.3312668968
 20
122.9347700259
 11
157.3312668968
 21
111.7139585579
  0
LINE
  5
488
100
AcDbEntity
  8
RACCORDO
100
AcDbLine
 62
7
  6
CONTINUOUS
 10
157.331266749
 20
122.9363465856
 11
157.3312667634
 21
122.9356850026
  0
LINE
  5
489
100
AcDbEntity
  8
RACCORDO
100
AcDbLine
 62
7
  6
CONTINUOUS
 10
157.3312668966
 20
125.2362687196
 11
157.331266829
 21
125.2357028571
  0
LWPOLYLINE
  5
48A
100
AcDbEntity
  8
RACCORDO
100
AcDbPolyline
 62
253
  6
CONTINUOUS
 90
21
 70
0
 10
157.331266829
 20
125.2357028571
 10
157.3312580592
 20
125.229489098
 10
157.3307693204
 20
125.1857766704
 10
157.3295495321
 20
125.1434381587
 10
157.3276226313
 20
125.1025198631
 10
157.3249967158
 20
125.0631339957
 10
157.3216834914
 20
125.0252466312
 10
157.3176971775
 20
124.9889091281
 10
157.313029731
 20
124.9543622435
 10
157.3076819484
 20
124.9215695941
 10
157.3016629086
 20
124.8905852266
 10
157.294964629
 20
124.8617865597
 10
157.2875764525
 20
124.8351726483
 10
157.2795123922
 20
124.8107630173
 10
157.2708043983
 20
124.7889652528
 10
157.261467908
 20
124.7698886079
 10
157.2515089779
 20
124.7534393867
 10
157.2409552141
 20
124.739718866
 10
157.2298265983
 20
124.7287648937
 10
157.2181322146
 20
124.7205525549
 10
157.2058866039
 20
124.7150879791
  0
LWPOLYLINE
  5
48B
100
AcDbEntity
  8
RACCORDO
100
AcDbPolyline
 62
7
  6
CONTINUOUS
 90
5
 70
0
 10
157.3312684936
 20
122.935667735
 10
157.3313677754
 20
122.9409385828
 10
157.331896601
 20
122.9478932041
 10
157.3323864615
 20
122.9512722367
 10
157.3325102054
 20
122.9519221216
  0
LWPOLYLINE
  5
48C
100
AcDbEntity
  8
RACCORDO
100
AcDbPolyline
 62
253
  6
CONTINUOUS
 90
15
 70
0
 10
157.3800520251
 20
125.2191467029
 10
157.3789260373
 20
125.1728876341
 10
157.3768726011
 20
125.1279725562
 10
157.3739497518
 20
125.0843739815
 10
157.3701805616
 20
125.0421436666
 10
157.3655319471
 20
125.0013846498
 10
157.360055403
 20
124.9620639002
 10
157.3537761377
 20
124.9242330223
 10
157.3466272433
 20
124.8881219225
 10
157.3386458706
 20
124.8536839658
 10
157.3298670116
 20
124.8209811397
 10
157.320227587
 20
124.7904074532
 10
157.3097297248
 20
124.7620996905
 10
157.2984337337
 20
124.7359360906
 10
157.2863629054
 20
124.7119235276
  0
LINE
  5
48D
100
AcDbEntity
  8
RACCORDO
100
AcDbLine
 62
253
  6
CONTINUOUS
 10
157.3311918432
 20
129.4461777413
 11
157.3282888814
 21
129.4060416123
  0
LWPOLYLINE
  5
48E
100
AcDbEntity
  8
RACCORDO
100
AcDbPolyline
 62
253
  6
CONTINUOUS
 90
7
 70
0
 10
157.3312668968
 20
129.4309051952
 10
157.3284810359
 20
129.3936092142
 10
157.3183410775
 20
129.3507731765
 10
157.3008547967
 20
129.3085335232
 10
157.2761523353
 20
129.2672046239
 10
157.2444175421
 20
129.2270940699
 10
157.2058866039
 20
129.188500385
  0
LWPOLYLINE
  5
48F
100
AcDbEntity
  8
RACCORDO
100
AcDbPolyline
 62
253
  6
CONTINUOUS
 90
6
 70
0
 10
157.1817822191
 20
108.9052631819
 10
157.1604603025
 20
108.8387305315
 10
157.1326683877
 20
108.7761678968
 10
157.0986209671
 20
108.7180647952
 10
157.0585776701
 20
108.6648717519
 10
157.0135328408
 20
108.6176457459
  0
LWPOLYLINE
  5
490
100
AcDbEntity
  8
RACCORDO
100
AcDbPolyline
 62
253
  6
CONTINUOUS
 90
7
 70
0
 10
157.0511849599
 20
108.7342417141
 10
157.0660279054
 20
108.7761471281
 10
157.0782949918
 20
108.8197079751
 10
157.0879223712
 20
108.8648015852
 10
157.0948540314
 20
108.9112983033
 10
157.0990421663
 20
108.9590617855
 10
157.1004475265
 20
109.0079493285
  0
LWPOLYLINE
  5
491
100
AcDbEntity
  8
RACCORDO
100
AcDbPolyline
 62
253
  6
CONTINUOUS
 90
8
 70
0
 10
152.404678628
 20
93.8213728379
 10
152.4295566676
 20
93.8865966482
 10
152.4511121815
 20
93.9548485013
 10
152.4691393687
 20
94.0259764212
 10
152.4834765865
 20
94.0999636335
 10
152.4939408748
 20
94.1767217978
 10
152.5003452276
 20
94.2560820541
 10
152.5025169416
 20
94.3378865746
  0
LINE
  5
492
100
AcDbEntity
  8
RACCORDO
100
AcDbLine
 62
7
  6
CONTINUOUS
 10
157.2542335443
 20
108.9638698906
 11
157.2636052857
 21
108.9877603876
  0
LINE
  5
493
100
AcDbEntity
  8
0
100
AcDbLine
 62
253
  6
CONTINUOUS
 10
144.6622784506
 20
83.5172402367
 11
144.1572400622
 21
82.5856819922
  0
LINE
  5
494
100
AcDbEntity
  8
0
100
AcDbLine
 62
7
  6
CONTINUOUS
 10
146.1853363843
 20
87.9649336317
 11
146.1607142688
 21
87.9355387285
  0
LINE
  5
495
100
AcDbEntity
  8
0
100
AcDbLine
 62
7
  6
CONTINUOUS
 10
143.9078919895
 20
123.7006793569
 11
144.3504192148
 21
123.6407089846
  0
LINE
  5
496
100
AcDbEntity
  8
0
100
AcDbLine
 62
253
  6
CONTINUOUS
 10
144.1572400622
 20
123.8852861316
 11
144.6622784506
 21
123.816844376
  0
LWPOLYLINE
  5
497
100
AcDbEntity
  8
0
100
AcDbPolyline
 62
7
  6
CONTINUOUS
 90
3
 70
0
 10
143.9077330364
 20
123.7007009624
 10
143.8852020524
 20
123.7048282677
 10
143.872309372
 20
123.7081704035
  0
LWPOLYLINE
  5
498
100
AcDbEntity
  8
RACCORDO
100
AcDbPolyline
 62
253
  6
CONTINUOUS
 90
8
 70
0
 10
141.9948650796
 20
123.7850218897
 10
142.0174993588
 20
123.7800097795
 10
142.0396569341
 20
123.7779643235
 10
142.0609588275
 20
123.7789204866
 10
142.081040699
 20
123.7828618935
 10
142.0995590838
 20
123.7897211105
 10
142.1161972649
 20
123.799380803
 10
142.1287478827
 20
123.8097678846
  0
LWPOLYLINE
  5
499
100
AcDbEntity
  8
RACCORDO
100
AcDbPolyline
 62
253
  6
CONTINUOUS
 90
16
 70
0
 10
144.2267365757
 20
122.8621348651
 10
144.2699941802
 20
122.8514068194
 10
144.3140991338
 20
122.84330403
 10
144.3590514364
 20
122.8378264969
 10
144.4053389328
 20
122.834995958
 10
144.4524737782
 20
122.8347906755
 10
144.4989924392
 20
122.8371454354
 10
144.5448307286
 20
122.8421136423
 10
144.5900528336
 20
122.8496418916
 10
144.6333877817
 20
122.8595047554
 10
144.6748227602
 20
122.8717602031
 10
144.7143705819
 20
122.8863502653
 10
144.7507987124
 20
122.9028756054
 10
144.783696307
 20
122.9212031112
 10
144.8134742104
 20
122.9414658949
 10
144.8401324227
 20
122.9636639565
  0
LWPOLYLINE
  5
49A
100
AcDbEntity
  8
RACCORDO
100
AcDbPolyline
 62
253
  6
CONTINUOUS
 90
16
 70
0
 10
129.1578945498
 20
127.2121348651
 10
129.2011521543
 20
127.2014068194
 10
129.2452571079
 20
127.19330403
 10
129.2902094106
 20
127.1878264969
 10
129.3364969069
 20
127.184995958
 10
129.3836317524
 20
127.1847906755
 10
129.4301504133
 20
127.1871454354
 10
129.4759887028
 20
127.1921136423
 10
129.5212108077
 20
127.1996418916
 10
129.5645457558
 20
127.2095047554
 10
129.6059807344
 20
127.2217602031
 10
129.645528556
 20
127.2363502653
 10
129.6819566865
 20
127.2528756054
 10
129.7148542811
 20
127.2712031112
 10
129.7446321846
 20
127.2914658949
 10
129.7712903968
 20
127.3136639565
  0
LWPOLYLINE
  5
49B
100
AcDbEntity
  8
RACCORDO
100
AcDbPolyline
 62
253
  6
CONTINUOUS
 90
16
 70
0
 10
144.3215029801
 20
123.1171726879
 10
144.3450184576
 20
123.111315566
 10
144.3695801626
 20
123.106953843
 10
144.3949063624
 20
123.1041265018
 10
144.4207020032
 20
123.1028695475
 10
144.4466905313
 20
123.1031780752
 10
144.4726175882
 20
123.1050115208
 10
144.498183129
 20
123.1083533955
 10
144.52313789
 20
123.1131705539
 10
144.5473067652
 20
123.1193949346
 10
144.570439809
 20
123.1269900966
 10
144.5922702266
 20
123.1358918814
 10
144.6125957487
 20
123.1459912601
 10
144.6311909272
 20
123.1571985552
 10
144.6478197407
 20
123.1694364947
 10
144.6622784506
 20
123.1826022231
  0
LWPOLYLINE
  5
49C
100
AcDbEntity
  8
RACCORDO
100
AcDbPolyline
 62
253
  6
CONTINUOUS
 90
16
 70
0
 10
129.2526609542
 20
127.4671726879
 10
129.2761764318
 20
127.461315566
 10
129.3007381368
 20
127.456953843
 10
129.3260643365
 20
127.4541265018
 10
129.3518599774
 20
127.4528695475
 10
129.3778485055
 20
127.4531780752
 10
129.4037755624
 20
127.4550115208
 10
129.4293411031
 20
127.4583533955
 10
129.4542958641
 20
127.4631705539
 10
129.4784647394
 20
127.4693949346
 10
129.5015977832
 20
127.4769900966
 10
129.5234282007
 20
127.4858918814
 10
129.5437537228
 20
127.4959912601
 10
129.5623489014
 20
127.5071985552
 10
129.5789777148
 20
127.5194364947
 10
129.5934364248
 20
127.5326022231
  0
LWPOLYLINE
  5
49D
100
AcDbEntity
  8
0
100
AcDbPolyline
 62
253
  6
CONTINUOUS
 90
34
 70
0
 10
143.8164645917
 20
123.8401616863
 10
143.8268687885
 20
123.8373205304
 10
143.8375306627
 20
123.8347291784
 10
143.8484262402
 20
123.8323934574
 10
143.8595310214
 20
123.8303186192
 10
143.8708200365
 20
123.8285093294
 10
143.8822679012
 20
123.8269696562
 10
143.8938488742
 20
123.8257030618
 10
143.9055369147
 20
123.8247123941
 10
143.9173057413
 20
123.8239998808
 10
143.9291288909
 20
123.8235671241
 10
143.9409797783
 20
123.8234150968
 10
143.9528317558
 20
123.8235441411
 10
143.9646581734
 20
123.8239539666
 10
143.9764324384
 20
123.8246436518
 10
143.9881280756
 20
123.825611646
 10
143.9997187864
 20
123.8268557725
 10
144.0111785083
 20
123.8283732338
 10
144.0224814731
 20
123.8301606178
 10
144.0336022654
 20
123.8322139054
 10
144.0445158791
 20
123.8345284797
 10
144.0551977742
 20
123.8370991361
 10
144.0656239317
 20
123.8399200943
 10
144.0757709074
 20
123.8429850113
 10
144.0856158853
 20
123.8462869952
 10
144.095136728
 20
123.8498186214
 10
144.1043120273
 20
123.8535719487
 10
144.1131211519
 20
123.8575385374
 10
144.1215442936
 20
123.8617094685
 10
144.1295625125
 20
123.8660753631
 10
144.1371577791
 20
123.8706264044
 10
144.1443130146
 20
123.8753523589
 10
144.1510121302
 20
123.8802426
 10
144.1572400622
 20
123.8852861316
  0
LINE
  5
49E
100
AcDbEntity
  8
RACCORDO
100
AcDbLine
 62
253
  6
CONTINUOUS
 10
127.0920368798
 20
127.8084966061
 11
129.1578945498
 21
127.2121348651
  0
LINE
  5
49F
100
AcDbEntity
  8
RACCORDO
100
AcDbLine
 62
253
  6
CONTINUOUS
 10
142.1608789057
 20
123.4584966061
 11
144.2267365757
 21
122.8621348651
  0
LINE
  5
4A0
100
AcDbEntity
  8
0
100
AcDbLine
 62
7
  6
CONTINUOUS
 10
131.9078976679
 20
126.5363063878
 11
132.7230642189
 21
126.300988074
  0
LINE
  5
4A1
100
AcDbEntity
  8
0
100
AcDbLine
 62
7
  6
CONTINUOUS
 10
138.7852420454
 20
124.550988074
 11
139.6004085964
 21
124.3156697602
  0
LINE
  5
4A2
100
AcDbEntity
  8
RACCORDO
100
AcDbLine
 62
253
  6
CONTINUOUS
 10
127.1868032842
 20
128.0635344289
 11
129.2526609542
 21
127.4671726879
  0
LINE
  5
4A3
100
AcDbEntity
  8
RACCORDO
100
AcDbLine
 62
253
  6
CONTINUOUS
 10
142.2556453101
 20
123.7135344289
 11
144.3215029801
 21
123.1171726879
  0
LINE
  5
4A4
100
AcDbEntity
  8
0
100
AcDbLine
 62
7
  6
CONTINUOUS
 10
138.7852420454
 20
125.1737248114
 11
137.2933836167
 21
125.6043872441
  0
LINE
  5
4A5
100
AcDbEntity
  8
0
100
AcDbLine
 62
7
  6
CONTINUOUS
 10
135.2149226476
 20
126.2043872441
 11
133.2230642189
 21
126.7793872441
  0
LINE
  5
4A6
100
AcDbEntity
  8
0
100
AcDbLine
 62
7
  6
CONTINUOUS
 10
126.7475041481
 20
128.6516754571
 11
128.8032850413
 21
128.0582226311
  0
LINE
  5
4A7
100
AcDbEntity
  8
0
100
AcDbLine
 62
7
  6
CONTINUOUS
 10
141.816346174
 20
124.3016754571
 11
143.8721270671
 21
123.7082226311
  0
LINE
  5
4A8
100
AcDbEntity
  8
0
100
AcDbLine
 62
253
  6
CONTINUOUS
 10
126.6918416726
 20
128.7836145124
 11
128.7476225658
 21
128.1901616863
  0
LINE
  5
4A9
100
AcDbEntity
  8
0
100
AcDbLine
 62
253
  6
CONTINUOUS
 10
141.7606836985
 20
124.4336145124
 11
143.8164645917
 21
123.8401616863
  0
LINE
  5
4AA
100
AcDbEntity
  8
RACCORDO
100
AcDbLine
 62
7
  6
CONTINUOUS
 10
145.7277070628
 20
123.4809761568
 11
145.4674662546
 21
123.5561012071
  0
LINE
  5
4AB
100
AcDbEntity
  8
RACCORDO
100
AcDbLine
 62
7
  6
CONTINUOUS
 10
141.6356836985
 20
124.6622415522
 11
140.357966179
 21
125.0310868292
  0
LINE
  5
4AC
100
AcDbEntity
  8
RACCORDO
100
AcDbLine
 62
7
  6
CONTINUOUS
 10
131.9078976679
 20
127.4704114939
 11
130.3986242287
 21
127.9061012071
  0
LINE
  5
4AD
100
AcDbEntity
  8
0
100
AcDbLine
 62
7
  6
CONTINUOUS
 10
135.6381277284
 20
126.3935868292
 11
137.1933836167
 21
125.9446231263
  0
LWPOLYLINE
  5
4AE
100
AcDbEntity
  8
0
100
AcDbPolyline
 62
253
  6
CONTINUOUS
 90
23
 70
0
 10
126.6918416726
 20
128.7836145124
 10
126.6817212079
 20
128.7866982293
 10
126.6719037267
 20
128.7900185447
 10
126.6624113623
 20
128.7935680448
 10
126.6532653139
 20
128.7973388895
 10
126.6444864492
 20
128.8013225652
 10
126.6360951691
 20
128.8055098546
 10
126.6281105328
 20
128.8098912326
 10
126.6205502859
 20
128.8144569465
 10
126.6134314135
 20
128.8191967402
 10
126.6067699159
 20
128.824099965
 10
126.6005807877
 20
128.8291555884
 10
126.594877965
 20
128.834352228
 10
126.5896742762
 20
128.8396781918
 10
126.584981415
 20
128.8451215091
 10
126.5808099308
 20
128.8506699426
 10
126.5771692033
 20
128.8563110166
 10
126.5740674199
 20
128.8620320455
 10
126.5715115549
 20
128.8678201654
 10
126.5695073558
 20
128.873662361
 10
126.5680593295
 20
128.8795454951
 10
126.5671707324
 20
128.8854563383
 10
126.5668417153
 20
128.8917946393
  0
LWPOLYLINE
  5
4AF
100
AcDbEntity
  8
0
100
AcDbPolyline
 62
253
  6
CONTINUOUS
 90
23
 70
0
 10
141.7606836985
 20
124.4336145124
 10
141.7505598588
 20
124.4366993134
 10
141.7407398989
 20
124.4400206273
 10
141.7312459027
 20
124.4435709849
 10
141.7220992319
 20
124.4473423972
 10
141.713320445
 20
124.4513263867
 10
141.7049292558
 20
124.4555140089
 10
141.6969445214
 20
124.4598958588
 10
141.6893842233
 20
124.4644620743
 10
141.682265393
 20
124.4692023712
 10
141.6756040478
 20
124.474106083
 10
141.6694151603
 20
124.4791621869
 10
141.6637126491
 20
124.4843593119
 10
141.6585093388
 20
124.4896857697
 10
141.6538169313
 20
124.4951295816
 10
141.6496459794
 20
124.5006785049
 10
141.6460058607
 20
124.5063200646
 10
141.642904765
 20
124.512041569
 10
141.6403496714
 20
124.5178301383
 10
141.6383463251
 20
124.5236727453
 10
141.6368992238
 20
124.5295562585
 10
141.636011617
 20
124.5354674591
 10
141.635684249
 20
124.5416053577
  0
LWPOLYLINE
  5
4B0
100
AcDbEntity
  8
0
100
AcDbPolyline
 62
253
  6
CONTINUOUS
 90
23
 70
0
 10
126.6918416726
 20
129.1235884465
 10
126.6817171706
 20
129.1266734603
 10
126.6718965759
 20
129.1299950229
 10
126.6624019784
 20
129.1335456647
 10
126.6532547294
 20
129.1373174029
 10
126.6444754106
 20
129.1413017527
 10
126.636083786
 20
129.1454897453
 10
126.6280987339
 20
129.1498719583
 10
126.6205382092
 20
129.154438537
 10
126.6134192189
 20
129.1591792085
 10
126.6067577729
 20
129.1640833105
 10
126.6005688545
 20
129.1691398115
 10
126.594866387
 20
129.1743373339
 10
126.5896631949
 20
129.1796641861
 10
126.584970978
 20
129.1851083871
 10
126.5808002888
 20
129.1906576897
 10
126.5771605033
 20
129.1962996148
 10
126.5740598075
 20
129.2020214695
 10
126.5715051765
 20
129.2078103733
 10
126.5695023547
 20
129.213653289
 10
126.5680558329
 20
129.2195370907
 10
126.5671688542
 20
129.2254485835
 10
126.5668427396
 20
129.2314764217
  0
LWPOLYLINE
  5
4B1
100
AcDbEntity
  8
0
100
AcDbPolyline
 62
7
  6
CONTINUOUS
 90
3
 70
0
 10
145.7623551621
 20
123.4695825365
 10
145.7448775764
 20
123.4756735025
 10
145.7273022643
 20
123.4810930121
  0
LWPOLYLINE
  5
4B2
100
AcDbEntity
  8
0
100
AcDbPolyline
 62
7
  6
CONTINUOUS
 90
12
 70
0
 10
126.7475041481
 20
128.6516754571
 10
126.7204000273
 20
128.6612189778
 10
126.6944685053
 20
128.6738661081
 10
126.670124533
 20
128.6894471332
 10
126.6478602333
 20
128.7076252842
 10
126.6278724949
 20
128.7281892084
 10
126.6101943
 20
128.7511663609
 10
126.5951662309
 20
128.7762822478
 10
126.5831255909
 20
128.8031164613
 10
126.574234126
 20
128.8315221966
 10
126.5687413608
 20
128.8611068564
 10
126.5668417153
 20
128.8917946393
  0
LWPOLYLINE
  5
4B3
100
AcDbEntity
  8
RACCORDO
100
AcDbPolyline
 62
253
  6
CONTINUOUS
 90
13
 70
0
 10
129.7712903968
 20
127.3136639565
 10
129.7487182931
 20
127.3217017707
 10
129.7264427411
 20
127.3324829677
 10
129.7048447343
 20
127.3458231497
 10
129.6842936776
 20
127.3614941507
 10
129.665141069
 20
127.3792279395
 10
129.6477144883
 20
127.3987212035
 10
129.6323119935
 20
127.4196405365
 10
129.6191970237
 20
127.4416281415
 10
129.6085938927
 20
127.4643079503
 10
129.6006839529
 20
127.487292055
 10
129.5956024931
 20
127.5101873437
 10
129.5934364248
 20
127.5326022231
  0
LWPOLYLINE
  5
4B4
100
AcDbEntity
  8
RACCORDO
100
AcDbPolyline
 62
253
  6
CONTINUOUS
 90
13
 70
0
 10
144.8401324227
 20
122.9636639565
 10
144.8175603189
 20
122.9717017707
 10
144.795284767
 20
122.9824829677
 10
144.7736867602
 20
122.9958231497
 10
144.7531357034
 20
123.0114941507
 10
144.7339830949
 20
123.0292279395
 10
144.7165565141
 20
123.0487212035
 10
144.7011540194
 20
123.0696405365
 10
144.6880390496
 20
123.0916281415
 10
144.6774359186
 20
123.1143079503
 10
144.6695259787
 20
123.137292055
 10
144.6644445189
 20
123.1601873437
 10
144.6622784506
 20
123.1826022231
  0
LWPOLYLINE
  5
4B5
100
AcDbEntity
  8
0
100
AcDbPolyline
 62
7
  6
CONTINUOUS
 90
5
 70
0
 10
141.8163605167
 20
124.3016713192
 10
141.7859596062
 20
124.3126204445
 10
141.7563790346
 20
124.327905528
 10
141.7289118187
 20
124.3471304862
 10
141.7042230831
 20
124.3699026496
  0
LINE
  5
4B6
100
AcDbEntity
  8
0
100
AcDbLine
 62
7
  6
CONTINUOUS
 10
145.7616928674
 20
123.4697746524
 11
145.7797350215
 21
123.4628201141
  0
LWPOLYLINE
  5
4B7
100
AcDbEntity
  8
0
100
AcDbPolyline
 62
253
  6
CONTINUOUS
 90
3
 70
0
 10
141.8096005881
 20
124.3041957074
 10
141.8139965048
 20
124.302421179
 10
141.816347949
 20
124.3016749448
  0
LINE
  5
4B8
100
AcDbEntity
  8
0
100
AcDbLine
 62
7
  6
CONTINUOUS
 10
145.7788756837
 20
123.4630703462
 11
145.7970455129
 21
123.4553711421
  0
LINE
  5
4B9
100
AcDbEntity
  8
0
100
AcDbLine
 62
7
  6
CONTINUOUS
 10
145.8142582779
 20
123.4472507137
 11
145.7961083699
 21
123.4556455944
  0
LINE
  5
4BA
100
AcDbEntity
  8
0
100
AcDbLine
 62
7
  6
CONTINUOUS
 10
145.8312882414
 20
123.4385041085
 11
145.8133327327
 21
123.4475240917
  0
LINE
  5
4BB
100
AcDbEntity
  8
0
100
AcDbLine
 62
7
  6
CONTINUOUS
 10
145.8303741918
 20
123.4387769221
 11
145.8481330097
 21
123.4291290212
  0
LINE
  5
4BC
100
AcDbEntity
  8
0
100
AcDbLine
 62
7
  6
CONTINUOUS
 10
145.8647949766
 20
123.419127757
 11
145.8472004189
 21
123.4294104372
  0
LINE
  5
4BD
100
AcDbEntity
  8
0
100
AcDbLine
 62
7
  6
CONTINUOUS
 10
145.8811962481
 20
123.4085525116
 11
145.8638437424
 21
123.4194182853
  0
LINE
  5
4BE
100
AcDbEntity
  8
0
100
AcDbLine
 62
7
  6
CONTINUOUS
 10
145.8973220865
 20
123.3974138654
 11
145.8802265676
 21
123.4088524957
  0
LINE
  5
4BF
100
AcDbEntity
  8
0
100
AcDbLine
 62
7
  6
CONTINUOUS
 10
145.896334071
 20
123.3977237559
 11
145.9131872295
 21
123.3857012379
  0
LINE
  5
4C0
100
AcDbEntity
  8
0
100
AcDbLine
 62
7
  6
CONTINUOUS
 10
145.9121810762
 20
123.3860213784
 11
145.928757997
 21
123.3734350843
  0
LINE
  5
4C1
100
AcDbEntity
  8
0
100
AcDbLine
 62
7
  6
CONTINUOUS
 10
145.9277344593
 20
123.3737653298
 11
145.944060619
 21
123.3605908053
  0
LINE
  5
4C2
100
AcDbEntity
  8
0
100
AcDbLine
 62
7
  6
CONTINUOUS
 10
145.9430204945
 20
123.3609310461
 11
145.9590688654
 21
123.3471930002
  0
LWPOLYLINE
  5
4C3
100
AcDbEntity
  8
0
100
AcDbPolyline
 62
7
  6
CONTINUOUS
 90
26
 70
0
 10
145.9580129076
 20
123.3475430914
 10
145.972599752
 20
123.333695124
 10
145.9867713502
 20
123.3193857271
 10
146.0005373795
 20
123.3046163176
 10
146.0138149259
 20
123.2894848048
 10
146.0265807032
 20
123.2740183125
 10
146.0388579974
 20
123.2581897169
 10
146.0506337523
 20
123.2420155561
 10
146.0619281483
 20
123.2254671206
 10
146.0727210049
 20
123.2085731197
 10
146.0829387236
 20
123.1914362198
 10
146.0925776072
 20
123.1740471563
 10
146.1016413528
 20
123.1564151937
 10
146.110067453
 20
123.1386707923
 10
146.1178389604
 20
123.1208445511
 10
146.1249728223
 20
123.1029058712
 10
146.1314573734
 20
123.084893416
 10
146.1372985277
 20
123.066791712
 10
146.1424903711
 20
123.0486162327
 10
146.1470034967
 20
123.0304520618
 10
146.1508351316
 20
123.0122823963
 10
146.1539880486
 20
122.9941240392
 10
146.1564411586
 20
122.9761124841
 10
146.158187432
 20
122.9582928954
 10
146.1592338984
 20
122.9406201086
 10
146.1595805579
 20
122.9230941239
  0
LWPOLYLINE
  5
4C4
100
AcDbEntity
  8
0
100
AcDbPolyline
 62
253
  6
CONTINUOUS
 90
4
 70
0
 10
145.5838528703
 20
125.7252562042
 10
145.5918052292
 20
125.7164053076
 10
145.5994341229
 20
125.7072742968
 10
145.6067222397
 20
125.6978838823
  0
LINE
  5
4C5
100
AcDbEntity
  8
SMUSSO
100
AcDbLine
 62
253
  6
CONTINUOUS
 10
147.1868021412
 20
130.292995337
 11
147.6182906116
 21
129.4054353248
  0
LWPOLYLINE
  5
4C6
100
AcDbEntity
  8
RACCORDO
100
AcDbPolyline
 62
7
  6
CONTINUOUS
 90
16
 70
0
 10
157.3298549046
 20
129.4890364017
 10
157.3217372557
 20
129.5739443122
 10
157.306394703
 20
129.6579342608
 10
157.2839052113
 20
129.740429559
 10
157.2543518693
 20
129.8209390347
 10
157.2178769013
 20
129.8988733195
 10
157.17470099
 20
129.97359722
 10
157.1250648096
 20
130.0445530584
 10
157.0692672142
 20
130.1111773113
 10
157.0076818397
 20
130.172902261
 10
156.9407337532
 20
130.2291969449
 10
156.868857514
 20
130.2795947902
 10
156.7925953016
 20
130.3236213155
 10
156.7126217536
 20
130.3608233877
 10
156.629586141
 20
130.3908633867
 10
156.6086995738
 20
130.3971429297
  0
LWPOLYLINE
  5
4C7
100
AcDbEntity
  8
RACCORDO
100
AcDbPolyline
 62
253
  6
CONTINUOUS
 90
6
 70
0
 10
158.2263211155
 20
110.2707913036
 10
158.2277260069
 20
110.2311316695
 10
158.2231442502
 20
110.193800391
 10
158.2126538527
 20
110.1594337703
 10
158.1964335294
 20
110.1286175925
 10
158.1855189423
 20
110.1138029385
  0
LINE
  5
4C8
100
AcDbEntity
  8
RACCORDO
100
AcDbLine
 62
7
  6
CONTINUOUS
 10
157.3311931242
 20
129.4461768941
 11
157.3298549046
 21
129.4890364017
  0
LINE
  5
4C9
100
AcDbEntity
  8
RACCORDO
100
AcDbLine
 62
253
  6
CONTINUOUS
 10
157.3310000293
 20
122.9501175687
 11
157.331266749
 21
122.9363465856
  0
LWPOLYLINE
  5
4CA
100
AcDbEntity
  8
RACCORDO
100
AcDbPolyline
 62
253
  6
CONTINUOUS
 90
3
 70
0
 10
157.3794404386
 20
125.3156978775
 10
157.3802320877
 20
125.2667639835
 10
157.3800520251
 20
125.2191467029
  0
LWPOLYLINE
  5
4CB
100
AcDbEntity
  8
RACCORDO
100
AcDbPolyline
 62
253
  6
CONTINUOUS
 90
13
 70
0
 10
158.2263211155
 20
111.8912415143
 10
158.2277259671
 20
111.9404678719
 10
158.2231439224
 20
111.9905078541
 10
158.2126530795
 20
112.0405085589
 10
158.1964322487
 20
112.0896177535
 10
158.1747579045
 20
112.1369984008
 10
158.1479994734
 20
112.1818429255
 10
158.1166130371
 20
112.2233869789
 10
158.0811335588
 20
112.2609224672
 10
158.042165766
 20
112.2938096202
 10
158.0003738417
 20
112.3214878958
 10
157.9564701046
 20
112.3434855339
 10
157.9112028682
 20
112.3594275978
  0
LWPOLYLINE
  5
4CC
100
AcDbEntity
  8
RACCORDO
100
AcDbPolyline
 62
7
  6
CONTINUOUS
 90
9
 70
0
 10
152.3991901174
 20
93.7538286703
 10
152.4084693079
 20
93.7690766838
 10
152.4647728584
 20
93.8718079769
 10
152.5133275411
 20
93.9796641329
 10
152.5537499167
 20
94.0921478679
 10
152.5857581017
 20
94.208997211
 10
152.6090046694
 20
94.329769631
 10
152.6231377664
 20
94.4537464096
 10
152.6278972344
 20
94.5802913847
  0
LWPOLYLINE
  5
4CD
100
AcDbEntity
  8
0
100
AcDbPolyline
 62
7
  6
CONTINUOUS
 90
15
 70
0
 10
146.0937275864
 20
84.7790332904
 10
146.1027926508
 20
84.7914249926
 10
146.1112192782
 20
84.8042956329
 10
146.1189904971
 20
84.8176243204
 10
146.1261232789
 20
84.8314319459
 10
146.1326064021
 20
84.8456865445
 10
146.1384458297
 20
84.8604002778
 10
146.1436355987
 20
84.8755609841
 10
146.1481465978
 20
84.8911002144
 10
146.1519760098
 20
84.9070362632
 10
146.155126652
 20
84.9233508358
 10
146.1575778649
 20
84.9399205992
 10
146.1593227621
 20
84.9567044421
 10
146.1603682301
 20
84.9737434757
 10
146.1607142688
 20
84.9910376999
  0
LWPOLYLINE
  5
4CE
100
AcDbEntity
  8
RACCORDO
100
AcDbPolyline
 62
253
  6
CONTINUOUS
 90
6
 70
0
 10
152.2347998983
 20
93.5396400395
 10
152.2744099719
 20
93.5899955694
 10
152.3113638972
 20
93.6434260117
 10
152.3455064826
 20
93.6998748622
 10
152.37664462
 20
93.7591913239
 10
152.404678628
 20
93.8213728379
  0
LWPOLYLINE
  5
4CF
100
AcDbEntity
  8
RACCORDO
100
AcDbPolyline
 62
7
  6
CONTINUOUS
 90
5
 70
0
 10
152.2347998983
 20
93.5396400395
 10
152.2900088494
 20
93.6030337601
 10
152.3399729828
 20
93.6667738863
 10
152.3846922985
 20
93.7308604179
 10
152.3992832643
 20
93.7537764895
  0
LINE
  5
4D0
100
AcDbEntity
  8
0
100
AcDbLine
 62
7
  6
CONTINUOUS
 10
147.1898136172
 20
89.0985711633
 11
146.1595805579
 21
87.9358660027
  0
LWPOLYLINE
  5
4D1
100
AcDbEntity
  8
0
100
AcDbPolyline
 62
253
  6
CONTINUOUS
 90
37
 70
0
 10
142.5877435136
 20
82.6806186965
 10
142.5763592719
 20
82.6688113106
 10
142.5641982201
 20
82.6572656554
 10
142.5512830015
 20
82.6460032285
 10
142.5376376638
 20
82.6350450001
 10
142.5232876143
 20
82.624411374
 10
142.508259572
 20
82.6141221497
 10
142.4925815189
 20
82.6041964854
 10
142.4762826467
 20
82.5946528622
 10
142.4593933034
 20
82.5855090501
 10
142.4419449364
 20
82.5767820745
 10
142.4239700339
 20
82.5684881847
 10
142.4055020645
 20
82.5606428237
 10
142.3865754149
 20
82.5532605992
 10
142.3672253259
 20
82.5463552566
 10
142.3474878266
 20
82.5399396536
 10
142.3273996676
 20
82.5340257356
 10
142.3069982522
 20
82.5286245142
 10
142.2863215672
 20
82.5237460463
 10
142.2654081119
 20
82.5193994154
 10
142.2442968262
 20
82.5155927147
 10
142.2230270188
 20
82.5123330323
 10
142.2016382931
 20
82.5096264375
 10
142.1801704743
 20
82.5074779699
 10
142.1586635346
 20
82.5058916299
 10
142.1371575193
 20
82.5048703711
 10
142.1156924716
 20
82.5044160952
 10
142.0943083588
 20
82.504529648
 10
142.0730449973
 20
82.505210818
 10
142.0519419788
 20
82.506458337
 10
142.0310385963
 20
82.508269882
 10
142.0103737711
 20
82.5106420801
 10
141.9899859804
 20
82.5135705143
 10
141.9699131856
 20
82.517049732
 10
141.9501927614
 20
82.5210732551
 10
141.9308614266
 20
82.5256335917
 10
141.9119551755
 20
82.5307222508
  0
LWPOLYLINE
  5
4D2
100
AcDbEntity
  8
RACCORDO
100
AcDbPolyline
 62
253
  6
CONTINUOUS
 90
7
 70
0
 10
152.5025169416
 20
94.3378865746
 10
152.5410478797
 20
94.3764802595
 10
152.5727826729
 20
94.4165908135
 10
152.5974851343
 20
94.4579197128
 10
152.6149714152
 20
94.5001593661
 10
152.6251113735
 20
94.5429954038
 10
152.6278972344
 20
94.5802913847
  0
LINE
  5
4D3
100
AcDbEntity
  8
DRAFT
100
AcDbLine
 62
7
  6
CONTINUOUS
 10
152.0690612423
 20
93.3759365519
 11
147.1455988904
 21
88.8793543071
  0
LINE
  5
4D4
100
AcDbEntity
  8
RACCORDO
100
AcDbLine
 62
253
  6
CONTINUOUS
 10
152.5025169416
 20
94.3378865746
 11
147.1898136172
 21
89.5457013212
  0
LINE
  5
4D5
100
AcDbEntity
  8
DRAFT
100
AcDbLine
 62
7
  6
CONTINUOUS
 10
146.6531565796
 20
88.3635533426
 11
147.1455988904
 21
88.8018782588
  0
LWPOLYLINE
  5
4D6
100
AcDbEntity
  8
CONTATTI
100
AcDbPolyline
 62
253
  6
CONTINUOUS
 90
27
 70
0
 10
149.0643128715
 20
128.8904554958
 10
149.1565383163
 20
128.9135773469
 10
149.2525135269
 20
128.9352970865
 10
149.3467545412
 20
128.9542408332
 10
149.4394827767
 20
128.9704630953
 10
149.5298254713
 20
128.9844891969
 10
149.617615032
 20
128.9963189603
 10
149.7030190517
 20
129.0059525633
 10
149.785667547
 20
129.0139158631
 10
149.8654191373
 20
129.0202329264
 10
149.9424152032
 20
129.0248796865
 10
150.0167099023
 20
129.0283098007
 10
150.0882501629
 20
129.0305583763
 10
150.1570890568
 20
129.0315903059
 10
150.2234399575
 20
129.0317539253
 10
150.2872711804
 20
129.0310807137
 10
150.3486144101
 20
129.0295391919
 10
150.4077780732
 20
129.0273832578
 10
150.4647436462
 20
129.0246401547
 10
150.5195296526
 20
129.0212826393
 10
150.572500089
 20
129.0174828798
 10
150.6236461814
 20
129.0132633553
 10
150.6729767038
 20
129.0086015866
 10
150.7208819749
 20
129.0036023048
 10
150.7674921009
 20
128.9983004203
 10
150.8126769755
 20
128.9926610227
 10
150.8564365989
 20
128.9866841121
  0
LINE
  5
4D7
100
AcDbEntity
  8
0
100
AcDbLine
 62
7
  6
CONTINUOUS
 10
128.8390499637
 20
128.0506793569
 11
129.2815764286
 21
127.9907090876
  0
LWPOLYLINE
  5
4D8
100
AcDbEntity
  8
0
100
AcDbPolyline
 62
7
  6
CONTINUOUS
 90
10
 70
0
 10
128.8390499637
 20
128.0506793569
 10
128.8349632476
 20
128.0512675864
 10
128.8308818877
 20
128.0519240592
 10
128.8268075229
 20
128.0526487497
 10
128.8227409902
 20
128.0534417441
 10
128.8186848417
 20
128.0543027525
 10
128.8146432546
 20
128.0552309819
 10
128.8106187096
 20
128.056225841
 10
128.8066120825
 20
128.0572870615
 10
128.803284454
 20
128.0582228006
  0
LWPOLYLINE
  5
4D9
100
AcDbEntity
  8
RACCORDO
100
AcDbPolyline
 62
253
  6
CONTINUOUS
 90
8
 70
0
 10
126.9260230537
 20
128.1350218897
 10
126.948657333
 20
128.1300097795
 10
126.9708149083
 20
128.1279643235
 10
126.9921168017
 20
128.1289204866
 10
127.0121986732
 20
128.1328618935
 10
127.030717058
 20
128.1397211105
 10
127.0473552391
 20
128.149380803
 10
127.0599058568
 20
128.1597678846
  0
LWPOLYLINE
  5
4DA
100
AcDbEntity
  8
0
100
AcDbPolyline
 62
253
  6
CONTINUOUS
 90
19
 70
0
 10
137.3928018435
 20
127.0973024554
 10
137.384559873
 20
127.099486232
 10
137.3763378844
 20
127.1012737314
 10
137.3681545086
 20
127.1026609013
 10
137.3600282842
 20
127.1036445971
 10
137.3519776309
 20
127.1042225867
 10
137.3440208076
 20
127.1043935587
 10
137.3361758491
 20
127.1041571264
 10
137.3284605272
 20
127.1035138264
 10
137.3208923266
 20
127.1024651172
 10
137.3134883951
 20
127.1010133758
 10
137.3062655112
 20
127.0991618929
 10
137.2992400474
 20
127.0969148669
 10
137.2924279242
 20
127.0942773922
 10
137.2858445749
 20
127.0912554465
 10
137.2795049165
 20
127.0878558796
 10
137.2734233087
 20
127.0840863938
 10
137.2676135358
 20
127.0799555348
 10
137.2616750846
 20
127.075112781
  0
LWPOLYLINE
  5
4DB
100
AcDbEntity
  8
0
100
AcDbPolyline
 62
7
  6
CONTINUOUS
 90
21
 70
0
 10
137.5433836167
 20
127.2292274752
 10
137.5358284232
 20
127.2312436021
 10
137.5282876263
 20
127.2329261801
 10
137.5207755775
 20
127.2342720039
 10
137.5133065619
 20
127.2352784995
 10
137.5058947995
 20
127.2359437534
 10
137.4985544177
 20
127.2362665164
 10
137.4912993719
 20
127.2362461592
 10
137.4841434651
 20
127.2358827148
 10
137.4771003499
 20
127.2351769027
 10
137.47018341
 20
127.2341300467
 10
137.4634057984
 20
127.2327441283
 10
137.4567804594
 20
127.2310218236
 10
137.4503199756
 20
127.2289663868
 10
137.4440366253
 20
127.2265817139
 10
137.4379424226
 20
127.223872392
 10
137.4320489341
 20
127.2208435496
 10
137.4263673529
 20
127.2175009309
 10
137.4209085574
 20
127.2138509551
 10
137.4156829004
 20
127.2099005377
 10
137.4129471984
 20
127.2076327695
  0
LWPOLYLINE
  5
4DC
100
AcDbEntity
  8
0
100
AcDbPolyline
 62
253
  6
CONTINUOUS
 90
34
 70
0
 10
135.2149226476
 20
127.4380015958
 10
135.2232785764
 20
127.4357202734
 10
135.2318421822
 20
127.4336403573
 10
135.240594061
 20
127.4317665613
 10
135.2495143878
 20
127.4301031315
 10
135.258582944
 20
127.4286538394
 10
135.2677791625
 20
127.4274219724
 10
135.277082199
 20
127.4264103221
 10
135.2864709778
 20
127.4256211799
 10
135.2959242214
 20
127.4250563338
 10
135.3054205106
 20
127.4247170632
 10
135.3149383248
 20
127.4246041364
 10
135.3244560883
 20
127.4247178089
 10
135.3339522315
 20
127.4250578216
 10
135.3434052391
 20
127.4256234032
 10
135.3527936902
 20
127.4264132708
 10
135.3620963181
 20
127.4274256344
 10
135.3712920371
 20
127.4286581983
 10
135.3803599896
 20
127.430108165
 10
135.389279604
 20
127.431772241
 10
135.3980306981
 20
127.4336466571
 10
135.4065935007
 20
127.4357271781
 10
135.414948683
 20
127.4380091128
 10
135.4230772319
 20
127.4404872741
 10
135.4309605654
 20
127.4431559906
 10
135.4385807366
 20
127.4460091665
 10
135.4459206
 20
127.449040361
 10
135.4529636695
 20
127.4522427578
 10
135.4596950366
 20
127.455609652
 10
135.4660982964
 20
127.4591329149
 10
135.472156226
 20
127.462802838
 10
135.4778547429
 20
127.4666103168
 10
135.4831824172
 20
127.4705471062
 10
135.4881277284
 20
127.4746041361
  0
LWPOLYLINE
  5
4DD
100
AcDbEntity
  8
0
100
AcDbPolyline
 62
253
  6
CONTINUOUS
 90
34
 70
0
 10
128.7476225658
 20
128.1901616863
 10
128.7580275177
 20
128.1873203357
 10
128.7686901822
 20
128.1847288252
 10
128.77958658
 20
128.1823929831
 10
128.7906921931
 20
128.1803180646
 10
128.8019820588
 20
128.1785087331
 10
128.8134308279
 20
128.1769690527
 10
128.8250127817
 20
128.1757024862
 10
128.836701848
 20
128.1747118889
 10
128.8484716981
 20
128.1739994934
 10
128.8602958487
 20
128.1735669022
 10
128.8721477214
 20
128.1734150873
 10
128.8840006615
 20
128.17354439
 10
128.8958280122
 20
128.1739545195
 10
128.9076031747
 20
128.1746445534
 10
128.9192996678
 20
128.1756129398
 10
128.9308911952
 20
128.1768575021
 10
128.9423516794
 20
128.1783754405
 10
128.9536553222
 20
128.1801633371
 10
128.9647766875
 20
128.1822171662
 10
128.9756907819
 20
128.1845323096
 10
128.9863730851
 20
128.1871035648
 10
128.99679965
 20
128.1899251713
 10
129.0069469474
 20
128.1929907653
 10
129.0167919619
 20
128.1962933836
 10
129.0263124468
 20
128.1998255362
 10
129.0354871478
 20
128.2035793095
 10
129.0442956296
 20
128.2075463315
 10
129.0527187522
 20
128.2117180284
 10
129.0607368426
 20
128.216084705
 10
129.0683302222
 20
128.2206355052
 10
129.0754815946
 20
128.2253597209
 10
129.0821757735
 20
128.2302469567
 10
129.0883980364
 20
128.2352861316
  0
LWPOLYLINE
  5
4DE
100
AcDbEntity
  8
0
100
AcDbPolyline
 62
253
  6
CONTINUOUS
 90
34
 70
0
 10
143.8164645917
 20
124.1801356205
 10
143.8268518979
 20
124.1772988207
 10
143.8375006083
 20
124.1747099829
 10
143.8483871432
 20
124.1723752314
 10
143.8594889023
 20
124.1702998608
 10
143.8707796749
 20
124.1684892103
 10
143.8822294539
 20
124.1669482771
 10
143.8938107902
 20
124.1656806919
 10
143.9054992927
 20
124.1646890614
 10
143.9172688809
 20
124.1639756057
 10
143.9290932381
 20
124.1635419401
 10
143.940945625
 20
124.1633890653
 10
143.9527991448
 20
124.1635173341
 10
143.9646270322
 20
124.1639264509
 10
143.976402791
 20
124.1646154928
 10
143.9881000121
 20
124.165582915
 10
143.9996924175
 20
124.1668265482
 10
144.0111539016
 20
124.168343596
 10
144.0224586651
 20
124.170130646
 10
144.0335812762
 20
124.1721836794
 10
144.0444967223
 20
124.1744980807
 10
144.0551804483
 20
124.1770686451
 10
144.065608425
 20
124.1798895924
 10
144.0757571953
 20
124.1829545787
 10
144.0856039239
 20
124.1862567088
 10
144.0951264616
 20
124.1897885554
 10
144.1043033911
 20
124.1935421758
 10
144.1131140683
 20
124.1975091266
 10
144.1215386799
 20
124.2016804879
 10
144.1295582721
 20
124.2060468756
 10
144.1371547931
 20
124.2105984607
 10
144.1443111545
 20
124.215325002
 10
144.1510112668
 20
124.2202158707
 10
144.1572400622
 20
124.2252600657
  0
LWPOLYLINE
  5
4DF
100
AcDbEntity
  8
0
100
AcDbPolyline
 62
253
  6
CONTINUOUS
 90
34
 70
0
 10
128.7476225658
 20
128.5301356205
 10
128.7580282174
 20
128.5272940894
 10
128.7686916301
 20
128.5247024284
 10
128.7795888207
 20
128.522366468
 10
128.7906952874
 20
128.5202914621
 10
128.8019860431
 20
128.5184820805
 10
128.8134356714
 20
128.5169423967
 10
128.825018413
 20
128.5156758742
 10
128.8367082217
 20
128.5146853604
 10
128.8484788008
 20
128.5139730829
 10
128.8603036776
 20
128.5135406432
 10
128.8721562534
 20
128.5133890134
 10
128.8840098601
 20
128.5135185337
 10
128.8958378348
 20
128.5139289115
 10
128.907613576
 20
128.5146192225
 10
128.9193105946
 20
128.5155879124
 10
128.9309025883
 20
128.5168328017
 10
128.9423634793
 20
128.5183510883
 10
128.9536674703
 20
128.5201393525
 10
128.964789108
 20
128.5221935631
 10
128.9757034124
 20
128.5245091017
 10
128.9863859076
 20
128.527080775
 10
128.9968126618
 20
128.529902829
 10
129.0069601199
 20
128.5329688956
 10
129.016805247
 20
128.5362720069
 10
129.0263257922
 20
128.5398046717
 10
129.0355004977
 20
128.5435589756
 10
129.0443089126
 20
128.5475265399
 10
129.0527324642
 20
128.5516990841
 10
129.0607508507
 20
128.5560666416
 10
129.0683428463
 20
128.5606173812
 10
129.0754909479
 20
128.5653401486
 10
129.0821808132
 20
128.5702247641
 10
129.0883980364
 20
128.5752600657
  0
LINE
  5
4E0
100
AcDbEntity
  8
0
100
AcDbLine
 62
253
  6
CONTINUOUS
 10
143.8164645917
 20
124.1801356205
 11
141.7606836985
 21
124.7735884465
  0
LINE
  5
4E1
100
AcDbEntity
  8
0
100
AcDbLine
 62
253
  6
CONTINUOUS
 10
128.7476225658
 20
128.5301356205
 11
126.6918416726
 21
129.1235884465
  0
LINE
  5
4E2
100
AcDbEntity
  8
0
100
AcDbLine
 62
253
  6
CONTINUOUS
 10
143.9407373752
 20
124.504261695
 11
141.8849564821
 21
125.097714521
  0
LINE
  5
4E3
100
AcDbEntity
  8
0
100
AcDbLine
 62
253
  6
CONTINUOUS
 10
128.8718953494
 20
128.854261695
 11
126.8161144562
 21
129.447714521
  0
LINE
  5
4E4
100
AcDbEntity
  8
0
100
AcDbLine
 62
7
  6
CONTINUOUS
 10
131.9078976679
 20
127.9824691536
 11
132.7230642189
 21
127.7471508398
  0
LINE
  5
4E5
100
AcDbEntity
  8
0
100
AcDbLine
 62
7
  6
CONTINUOUS
 10
138.7852420454
 20
125.9971508398
 11
139.6004085964
 21
125.7618325259
  0
LINE
  5
4E6
100
AcDbEntity
  8
DRAFT
100
AcDbLine
 62
7
  6
CONTINUOUS
 10
146.2201493736
 20
123.9111321872
 11
145.2943109806
 21
124.1783987099
  0
LINE
  5
4E7
100
AcDbEntity
  8
DRAFT
100
AcDbLine
 62
7
  6
CONTINUOUS
 10
130.7204305663
 20
128.3855156001
 11
130.2254689547
 21
128.5283987099
  0
LINE
  5
4E8
100
AcDbEntity
  8
0
100
AcDbLine
 62
7
  6
CONTINUOUS
 10
137.1933836167
 20
126.5219733955
 11
136.1381277284
 21
126.8265995311
  0
LINE
  5
4E9
100
AcDbEntity
  8
0
100
AcDbLine
 62
253
  6
CONTINUOUS
 10
139.1374023407
 20
126.3056792424
 11
137.2933836167
 21
126.8380015958
  0
LINE
  5
4EA
100
AcDbEntity
  8
0
100
AcDbLine
 62
253
  6
CONTINUOUS
 10
135.2149226476
 20
127.4380015958
 11
133.2230642189
 21
128.0130015958
  0
LINE
  5
4EB
100
AcDbEntity
  8
0
100
AcDbLine
 62
253
  6
CONTINUOUS
 10
139.3846602723
 20
126.5223024554
 11
137.3928018435
 21
127.0973024554
  0
LINE
  5
4EC
100
AcDbEntity
  8
0
100
AcDbLine
 62
253
  6
CONTINUOUS
 10
135.3143408745
 20
127.6973024554
 11
133.3224824458
 21
128.2723024554
  0
LINE
  5
4ED
100
AcDbEntity
  8
0
100
AcDbLine
 62
7
  6
CONTINUOUS
 10
132.6503400853
 20
128.6417274752
 11
135.4649226476
 21
127.8292274752
  0
LINE
  5
4EE
100
AcDbEntity
  8
0
100
AcDbLine
 62
7
  6
CONTINUOUS
 10
137.5433836167
 20
127.2292274752
 11
140.357966179
 21
126.4167274752
  0
LINE
  5
4EF
100
AcDbEntity
  8
0
100
AcDbLine
 62
7
  6
CONTINUOUS
 10
145.0778082936
 20
125.4872391194
 11
142.9993399966
 21
126.0872412348
  0
LINE
  5
4F0
100
AcDbEntity
  8
0
100
AcDbLine
 62
7
  6
CONTINUOUS
 10
130.0089662677
 20
129.8372391194
 11
127.9304979707
 21
130.4372412348
  0
LINE
  5
4F1
100
AcDbEntity
  8
0
100
AcDbLine
 62
7
  6
CONTINUOUS
 10
140.0352420454
 20
127.0822017887
 11
138.0433836167
 21
127.6572017887
  0
LINE
  5
4F2
100
AcDbEntity
  8
0
100
AcDbLine
 62
7
  6
CONTINUOUS
 10
135.9649226476
 20
128.2572017887
 11
133.9730642189
 21
128.8322017887
  0
LWPOLYLINE
  5
4F3
100
AcDbEntity
  8
0
100
AcDbPolyline
 62
253
  6
CONTINUOUS
 90
23
 70
0
 10
141.7606836985
 20
124.7735884465
 10
141.7505591964
 20
124.7766734603
 10
141.7407386017
 20
124.7799950229
 10
141.7312440043
 20
124.7835456647
 10
141.7220967552
 20
124.7873174029
 10
141.7133174364
 20
124.7913017527
 10
141.7049258118
 20
124.7954897453
 10
141.6969407597
 20
124.7998719583
 10
141.6893802351
 20
124.804438537
 10
141.6822612447
 20
124.8091792085
 10
141.6755997988
 20
124.8140833105
 10
141.6694108804
 20
124.8191398115
 10
141.6637084128
 20
124.8243373339
 10
141.6585052207
 20
124.8296641861
 10
141.6538130038
 20
124.8351083871
 10
141.6496423146
 20
124.8406576897
 10
141.6460025292
 20
124.8462996148
 10
141.6429018333
 20
124.8520214695
 10
141.6403472023
 20
124.8578103733
 10
141.6383443806
 20
124.863653289
 10
141.6368978588
 20
124.8695370907
 10
141.6360108801
 20
124.8754485835
 10
141.6356847655
 20
124.8814764217
  0
LWPOLYLINE
  5
4F4
100
AcDbEntity
  8
0
100
AcDbPolyline
 62
253
  6
CONTINUOUS
 90
23
 70
0
 10
137.2933836167
 20
126.8380015958
 10
137.2852554532
 20
126.8404787829
 10
137.2773722348
 20
126.8431465409
 10
137.2697518194
 20
126.8459988267
 10
137.2624114699
 20
126.8490291787
 10
137.2553678144
 20
126.8522307323
 10
137.2486368091
 20
126.855596235
 10
137.2422337018
 20
126.8591180627
 10
137.2361729977
 20
126.8627882375
 10
137.2304684263
 20
126.8665984452
 10
137.2251329101
 20
126.8705400544
 10
137.2201785359
 20
126.8746041361
 10
137.215616527
 20
126.878781484
 10
137.2114572176
 20
126.8830626348
 10
137.2077100301
 20
126.8874378906
 10
137.2043834529
 20
126.8918973398
 10
137.201485022
 20
126.8964308805
 10
137.199021303
 20
126.9010282426
 10
137.1969978772
 20
126.9056790117
 10
137.1954193283
 20
126.9103726523
 10
137.1942892322
 20
126.9150985318
 10
137.1936101488
 20
126.9198459446
 10
137.1933836167
 20
126.9246041361
  0
LWPOLYLINE
  5
4F5
100
AcDbEntity
  8
0
100
AcDbPolyline
 62
253
  6
CONTINUOUS
 90
8
 70
0
 10
130.3809073648
 20
130.1599352729
 10
130.3912255475
 20
130.1567508539
 10
130.4015232076
 20
130.1530817081
 10
130.4117770282
 20
130.1489355094
 10
130.4219651932
 20
130.1443203352
 10
130.4320630549
 20
130.1392466012
 10
130.4420433386
 20
130.1337276875
 10
130.4518819701
 20
130.1277770212
  0
LWPOLYLINE
  5
4F6
100
AcDbEntity
  8
0
100
AcDbPolyline
 62
7
  6
CONTINUOUS
 90
37
 70
0
 10
135.4649226476
 20
127.8292274752
 10
135.4724778236
 20
127.8268816142
 10
135.4800186226
 20
127.8242105104
 10
135.4875306868
 20
127.8212192464
 10
135.4949997018
 20
127.817913504
 10
135.5024114516
 20
127.8142995785
 10
135.5097518466
 20
127.8103843663
 10
135.5170068961
 20
127.8061753054
 10
135.5241627822
 20
127.8016804022
 10
135.5312059143
 20
127.7969082408
 10
135.5381228622
 20
127.7918678854
 10
135.5449004453
 20
127.7865689193
 10
135.5515258049
 20
127.7810214675
 10
135.5579863007
 20
127.7752360651
 10
135.5642696153
 20
127.7692237086
 10
135.5703638417
 20
127.7629958902
 10
135.5762573461
 20
127.756564436
 10
135.5819388849
 20
127.7499415671
 10
135.5873977069
 20
127.7431399467
 10
135.5926233834
 20
127.7361724891
 10
135.5976059371
 20
127.7290524311
 10
135.6023359564
 20
127.7217933898
 10
135.6068043965
 20
127.7144091472
 10
135.611002717
 20
127.7069137289
 10
135.6149230068
 20
127.6993214732
 10
135.6185577596
 20
127.6916467935
 10
135.6219000181
 20
127.6839042646
 10
135.6249435071
 20
127.6761087003
 10
135.6276823872
 20
127.668274899
 10
135.6301114029
 20
127.6604177354
 10
135.6322260225
 20
127.6525522452
 10
135.6340221732
 20
127.6446933586
 10
135.6354963915
 20
127.6368559956
 10
135.636645966
 20
127.6290551567
 10
135.6374687089
 20
127.6213056906
 10
135.6379629591
 20
127.613622265
 10
135.6381277284
 20
127.6060194632
  0
LWPOLYLINE
  5
4F7
100
AcDbEntity
  8
0
100
AcDbPolyline
 62
253
  6
CONTINUOUS
 90
34
 70
0
 10
135.3143408745
 20
127.6973024554
 10
135.322582963
 20
127.694727751
 10
135.3308076984
 20
127.6917676619
 10
135.3389964491
 20
127.6884288936
 10
135.3471306649
 20
127.6847190096
 10
135.3551919192
 20
127.6806464139
 10
135.3631619506
 20
127.6762203322
 10
135.3710227045
 20
127.6714507911
 10
135.3787563737
 20
127.6663485951
 10
135.386345439
 20
127.6609253022
 10
135.3937727087
 20
127.6551931981
 10
135.4010213577
 20
127.6491652678
 10
135.4080749653
 20
127.6428551665
 10
135.4149175531
 20
127.6362771885
 10
135.4215336202
 20
127.6294462351
 10
135.4279081791
 20
127.6223777807
 10
135.4340267895
 20
127.6150878375
 10
135.4398755907
 20
127.6075929197
 10
135.4454413333
 20
127.5999100055
 10
135.4507114091
 20
127.5920564994
 10
135.4556738796
 20
127.5840501919
 10
135.4603175034
 20
127.57590922
 10
135.464631761
 20
127.5676520256
 10
135.4686068794
 20
127.5592973139
 10
135.4722338535
 20
127.5508640109
 10
135.4755044672
 20
127.5423712209
 10
135.4784113114
 20
127.5338381828
 10
135.4809478011
 20
127.5252842265
 10
135.4831081906
 20
127.5167287296
 10
135.4848875856
 20
127.5081910731
 10
135.4862819554
 20
127.4996905974
 10
135.4872881413
 20
127.4912465589
 10
135.4879038639
 20
127.4828780861
 10
135.4881277284
 20
127.4746041361
  0
LWPOLYLINE
  5
4F8
100
AcDbEntity
  8
0
100
AcDbPolyline
 62
7
  6
CONTINUOUS
 90
34
 70
0
 10
130.0089662677
 20
129.8372391194
 10
130.0192677728
 20
129.8340199839
 10
130.0295460805
 20
129.8303178242
 10
130.0397778368
 20
129.8261409615
 10
130.049939738
 20
129.8214987446
 10
130.0600087602
 20
129.8164016829
 10
130.0699622107
 20
129.8108614238
 10
130.0797775016
 20
129.8048904792
 10
130.089432334
 20
129.7985023175
 10
130.0989049246
 20
129.7917114883
 10
130.1081737893
 20
129.7845333503
 10
130.1172178802
 20
129.7769841187
 10
130.1260167675
 20
129.7690809498
 10
130.1345505085
 20
129.7608417362
 10
130.1427997353
 20
129.7522851099
 10
130.1507457879
 20
129.7434304845
 10
130.1583706715
 20
129.7342979223
 10
130.1656570926
 20
129.7249080926
 10
130.1725885419
 20
129.7152822706
 10
130.1791493389
 20
129.7054422795
 10
130.1853246169
 20
129.6954104052
 10
130.1911003539
 20
129.6852093504
 10
130.1964635031
 20
129.674862255
 10
130.2014019273
 20
129.6643925669
 10
130.2059043775
 20
129.653823954
 10
130.2099607064
 20
129.643180401
 10
130.2135617534
 20
129.6324860406
 10
130.2166992712
 20
129.6217650227
 10
130.2193662185
 20
129.6110416889
 10
130.2215565977
 20
129.6003403648
 10
130.2232653307
 20
129.5896851906
 10
130.2244885537
 20
129.5791003064
 10
130.2252236253
 20
129.568609798
 10
130.2254689547
 20
129.5582374901
  0
LWPOLYLINE
  5
4F9
100
AcDbEntity
  8
0
100
AcDbPolyline
 62
7
  6
CONTINUOUS
 90
34
 70
0
 10
145.0778082936
 20
125.4872391194
 10
145.0881097986
 20
125.4840199839
 10
145.0983881064
 20
125.4803178242
 10
145.1086198626
 20
125.4761409615
 10
145.1187817639
 20
125.4714987446
 10
145.1288507861
 20
125.4664016829
 10
145.1388042366
 20
125.4608614238
 10
145.1486195275
 20
125.4548904792
 10
145.1582743599
 20
125.4485023175
 10
145.1677469504
 20
125.4417114883
 10
145.1770158151
 20
125.4345333503
 10
145.1860599061
 20
125.4269841187
 10
145.1948587934
 20
125.4190809498
 10
145.2033925343
 20
125.4108417362
 10
145.2116417611
 20
125.4022851099
 10
145.2195878137
 20
125.3934304845
 10
145.2272126973
 20
125.3842979223
 10
145.2344991185
 20
125.3749080926
 10
145.2414305677
 20
125.3652822706
 10
145.2479913648
 20
125.3554422795
 10
145.2541666428
 20
125.3454104052
 10
145.2599423797
 20
125.3352093504
 10
145.2653055289
 20
125.324862255
 10
145.2702439532
 20
125.3143925669
 10
145.2747464034
 20
125.303823954
 10
145.2788027323
 20
125.293180401
 10
145.2824037792
 20
125.2824860406
 10
145.285541297
 20
125.2717650227
 10
145.2882082444
 20
125.2610416889
 10
145.2903986235
 20
125.2503403648
 10
145.2921073565
 20
125.2396851906
 10
145.2933305795
 20
125.2291003064
 10
145.2940656511
 20
125.218609798
 10
145.2943109806
 20
125.2082374901
  0
LWPOLYLINE
  5
4FA
100
AcDbEntity
  8
0
100
AcDbPolyline
 62
253
  6
CONTINUOUS
 90
34
 70
0
 10
128.8718953494
 20
128.854261695
 10
128.8821629634
 20
128.8510131259
 10
128.8924089663
 20
128.847282915
 10
128.9026101486
 20
128.8430795121
 10
128.9127434023
 20
128.8384124389
 10
128.9227857733
 20
128.8332922674
 10
128.9327145134
 20
128.8277305958
 10
128.9425071318
 20
128.8217400226
 10
128.952141446
 20
128.8153341179
 10
128.9615956321
 20
128.8085273923
 10
128.9708482743
 20
128.8013352647
 10
128.9798784132
 20
128.7937740268
 10
128.9886655936
 20
128.7858608066
 10
128.9971899106
 20
128.7776135292
 10
129.0054320546
 20
128.7690508766
 10
129.0133733554
 20
128.7601922451
 10
129.0209958241
 20
128.7510577016
 10
129.0282821941
 20
128.7416679377
 10
129.0352159602
 20
128.7320442234
 10
129.0417814159
 20
128.7222083586
 10
129.0479636888
 20
128.7121826237
 10
129.0537487748
 20
128.7019897293
 10
129.0591235694
 20
128.6916527645
 10
129.0640758974
 20
128.6811951449
 10
129.0685945408
 20
128.6706405593
 10
129.0726692637
 20
128.6600129162
 10
129.076290836
 20
128.6493362897
 10
129.079451054
 20
128.6386348646
 10
129.0821427592
 20
128.6279328821
 10
129.0843598543
 20
128.6172545846
 10
129.0860973169
 20
128.6066241609
 10
129.0873512114
 20
128.5960656911
 10
129.0881186974
 20
128.5856030927
 10
129.0883980364
 20
128.5752600657
  0
LWPOLYLINE
  5
4FB
100
AcDbEntity
  8
0
100
AcDbPolyline
 62
253
  6
CONTINUOUS
 90
34
 70
0
 10
143.9407373752
 20
124.504261695
 10
143.9509881127
 20
124.5010188667
 10
143.9612217369
 20
124.4972942642
 10
143.9714150801
 20
124.4930956905
 10
143.9815464598
 20
124.4884313389
 10
143.9915913709
 20
124.4833117483
 10
144.0015226837
 20
124.4777504245
 10
144.0113164413
 20
124.4717608963
 10
144.0209519472
 20
124.4653559357
 10
144.0304075465
 20
124.4585499228
 10
144.039661928
 20
124.451358157
 10
144.0486939845
 20
124.4437970002
 10
144.0574830526
 20
124.4358837377
 10
144.066009142
 20
124.4276363805
 10
144.0742530198
 20
124.4190735461
 10
144.0821960605
 20
124.4102145797
 10
144.0898202844
 20
124.4010795249
 10
144.0971083906
 20
124.3916891011
 10
144.1040438493
 20
124.3820646004
 10
144.1106109409
 20
124.372227834
 10
144.116794787
 20
124.3622010844
 10
144.1225813722
 20
124.3520070728
 10
144.1279575839
 20
124.3416688949
 10
144.1329112376
 20
124.3312099765
 10
144.1374311039
 20
124.3206540235
 10
144.1415069398
 20
124.3100249558
 10
144.1451295098
 20
124.2993468554
 10
144.1482906036
 20
124.2886439209
 10
144.1509830592
 20
124.2779403987
 10
144.1532007736
 20
124.2672605466
 10
144.1549387185
 20
124.2566285821
 10
144.1561929573
 20
124.2460686017
 10
144.1569606511
 20
124.2356045263
 10
144.1572400622
 20
124.2252600657
  0
LWPOLYLINE
  5
4FC
100
AcDbEntity
  8
RACCORDO
100
AcDbPolyline
 62
253
  6
CONTINUOUS
 90
12
 70
0
 10
138.9606828974
 20
127.9221777629
 10
138.9855672654
 20
127.9135105199
 10
139.0088035262
 20
127.9024581993
 10
139.0301503765
 20
127.889102651
 10
139.0493699602
 20
127.8735077037
 10
139.0662707461
 20
127.8558104901
 10
139.0806932228
 20
127.836214844
 10
139.0924635037
 20
127.8147999421
 10
139.101415425
 20
127.7917406767
 10
139.1074194162
 20
127.7673942523
 10
139.1103715933
 20
127.7418694817
 10
139.1106826538
 20
127.7305000844
  0
LWPOLYLINE
  5
4FD
100
AcDbEntity
  8
0
100
AcDbPolyline
 62
7
  6
CONTINUOUS
 90
11
 70
0
 10
130.4495176729
 20
130.1829950288
 10
130.4811531903
 20
130.1715038456
 10
130.5112375397
 20
130.1556966205
 10
130.539069277
 20
130.1358163852
 10
130.5639296649
 20
130.1123200705
 10
130.5853541169
 20
130.0856440643
 10
130.6030450796
 20
130.0560777839
 10
130.6166032616
 20
130.0240683677
 10
130.6256017604
 20
129.9904287094
 10
130.6298349845
 20
129.9559353075
 10
130.6301800827
 20
129.9427121529
  0
LWPOLYLINE
  5
4FE
100
AcDbEntity
  8
RACCORDO
100
AcDbPolyline
 62
253
  6
CONTINUOUS
 90
13
 70
0
 10
137.4258532168
 20
128.2241493534
 10
137.4478330385
 20
128.2156401711
 10
137.4699064928
 20
128.2048780518
 10
137.4917027713
 20
128.1920438386
 10
137.5128557311
 20
128.1773531791
 10
137.5330100611
 20
128.1610528907
 10
137.5518272475
 20
128.1434168089
 10
137.5689912217
 20
128.1247412211
 10
137.5842137211
 20
128.1053398401
 10
137.5972391247
 20
128.0855385141
 10
137.6078486798
 20
128.0656698355
 10
137.6158641948
 20
128.0460675584
 10
137.6211510672
 20
128.0270609369
  0
LWPOLYLINE
  5
4FF
100
AcDbEntity
  8
RACCORDO
100
AcDbPolyline
 62
253
  6
CONTINUOUS
 90
13
 70
0
 10
139.8507243474
 20
127.5241493534
 10
139.8727041691
 20
127.5156401711
 10
139.8947776234
 20
127.5048780518
 10
139.9165739019
 20
127.4920438386
 10
139.9377268617
 20
127.4773531791
 10
139.9578811917
 20
127.4610528907
 10
139.9766983781
 20
127.4434168089
 10
139.9938623523
 20
127.4247412211
 10
140.0090848517
 20
127.4053398401
 10
140.0221102553
 20
127.3855385141
 10
140.0327198104
 20
127.3656698355
 10
140.0407353254
 20
127.3460675584
 10
140.0460221978
 20
127.3270609369
  0
LWPOLYLINE
  5
500
100
AcDbEntity
  8
0
100
AcDbPolyline
 62
253
  6
CONTINUOUS
 90
8
 70
0
 10
145.5207239959
 20
125.7777770212
 10
145.5304001845
 20
125.7714072928
 10
145.5398921838
 20
125.7646328032
 10
145.5491786003
 20
125.7574687805
 10
145.5582382535
 20
125.7499315232
 10
145.5670504167
 20
125.7420382616
 10
145.5755950472
 20
125.7338069615
 10
145.5838528703
 20
125.7252562042
  0
LINE
  5
501
100
AcDbEntity
  8
0
100
AcDbLine
 62
7
  6
CONTINUOUS
 10
144.1540886712
 20
129.700613647
 11
144.1541098961
 21
129.7005881735
  0
LINE
  5
502
100
AcDbEntity
  8
DRAFT
100
AcDbLine
 62
7
  6
CONTINUOUS
 10
149.9969431317
 20
125.6369267197
 11
149.0750849127
 21
126.8249024842
  0
LWPOLYLINE
  5
503
100
AcDbEntity
  8
0
100
AcDbPolyline
 62
253
  6
CONTINUOUS
 90
3
 70
0
 10
145.626380766
 20
83.4225108537
 10
145.6202108445
 20
83.4160503296
 10
145.6150159871
 20
83.4111969879
  0
LWPOLYLINE
  5
504
100
AcDbEntity
  8
0
100
AcDbPolyline
 62
7
  6
CONTINUOUS
 90
7
 70
0
 10
145.6147775434
 20
83.4109857428
 10
145.6281074291
 20
83.4236980389
 10
145.6494346019
 20
83.4486872147
 10
145.6673388015
 20
83.4763249108
 10
145.6815240954
 20
83.5062506064
 10
145.6916788379
 20
83.5379879437
 10
145.6975390185
 20
83.5709448692
  0
LWPOLYLINE
  5
505
100
AcDbEntity
  8
0
100
AcDbPolyline
 62
7
  6
CONTINUOUS
 90
5
 70
0
 10
146.0583369567
 20
84.7409943343
 10
146.063066969
 20
84.7453222397
 10
146.0738647454
 20
84.7559819139
 10
146.0840862207
 20
84.7672151631
 10
146.0937275864
 20
84.7790332904
  0
LINE
  5
506
100
AcDbEntity
  8
0
100
AcDbLine
 62
253
  6
CONTINUOUS
 10
146.1607142688
 20
84.9910376999
 11
146.6531565796
 21
85.4312705071
  0
LINE
  5
507
100
AcDbEntity
  8
0
100
AcDbLine
 62
7
  6
CONTINUOUS
 10
146.058362819
 20
84.7410123837
 11
146.5508051298
 21
85.181245191
  0
LWPOLYLINE
  5
508
100
AcDbEntity
  8
0
100
AcDbPolyline
 62
7
  6
CONTINUOUS
 90
43
 70
0
 10
129.2815400078
 20
127.9907137805
 10
129.2869056836
 20
127.9900556272
 10
129.2958014603
 20
127.9892550115
 10
129.3047646316
 20
127.9887971082
 10
129.3137675744
 20
127.9886832542
 10
129.3228087974
 20
127.9889098337
 10
129.3318765886
 20
127.989461897
 10
129.3409573281
 20
127.9903382238
 10
129.350037843
 20
127.991536864
 10
129.3591076712
 20
127.9930416506
 10
129.3681542321
 20
127.9948506649
 10
129.3771654061
 20
127.9969615146
 10
129.3861319836
 20
127.9993572695
 10
129.3950424583
 20
128.0020354401
 10
129.4038857766
 20
128.004993275
 10
129.4126539274
 20
128.0082134583
 10
129.4213365005
 20
128.0116930563
 10
129.4299234742
 20
128.0154290207
 10
129.4384078851
 20
128.0194039153
 10
129.446780393
 20
128.0236144666
 10
129.4550319808
 20
128.0280573816
 10
129.4631565756
 20
128.032715273
 10
129.4711458658
 20
128.0375846098
 10
129.4789918065
 20
128.0426618986
 10
129.4866890765
 20
128.0479298986
 10
129.4942303461
 20
128.0533848833
 10
129.50160851
 20
128.0590231981
 10
129.5088188924
 20
128.0648278003
 10
129.5158550996
 20
128.0707948133
 10
129.5227109373
 20
128.0769204577
 10
129.5293823066
 20
128.08318792
 10
129.53586371
 20
128.0895932073
 10
129.5421498393
 20
128.0961324499
 10
129.5482371394
 20
128.102789093
 10
129.5541209738
 20
128.1095590506
 10
129.5597969011
 20
128.1164383999
 10
129.5652619128
 20
128.1234108932
 10
129.5705122051
 20
128.130472374
 10
129.5755441837
 20
128.1376189009
 10
129.5803554076
 20
128.1448346051
 10
129.5849430977
 20
128.1521115024
 10
129.5893042477
 20
128.1594494527
 10
129.5934364248
 20
128.166844376
  0
LINE
  5
509
100
AcDbEntity
  8
0
100
AcDbLine
 62
253
  6
CONTINUOUS
 10
129.0883980364
 20
128.2352861316
 11
129.5934364248
 21
128.166844376
  0
LWPOLYLINE
  5
50A
100
AcDbEntity
  8
RACCORDO
100
AcDbPolyline
 62
253
  6
CONTINUOUS
 90
9
 70
0
 10
139.2286224239
 20
127.7037347098
 10
139.2058554411
 20
127.7081429477
 10
139.1839339076
 20
127.7100813477
 10
139.1632260585
 20
127.7095173486
 10
139.1440797417
 20
127.7064604245
 10
139.1268165746
 20
127.7009619253
 10
139.1117265419
 20
127.6931142139
 10
139.0990631239
 20
127.6830491154
 10
139.0888983522
 20
127.6707221376
  0
LWPOLYLINE
  5
50B
100
AcDbEntity
  8
0
100
AcDbPolyline
 62
253
  6
CONTINUOUS
 90
13
 70
0
 10
143.4460808541
 20
126.4311876062
 10
143.4410301952
 20
126.4321897024
 10
143.4358380391
 20
126.4326484654
 10
143.4305161791
 20
126.4325628665
 10
143.4250766652
 20
126.4319331407
 10
143.4195316664
 20
126.4307607374
 10
143.4138935512
 20
126.4290482862
 10
143.4081741339
 20
126.4267992598
 10
143.4023871216
 20
126.4240189344
 10
143.3965480666
 20
126.420715105
 10
143.3906710047
 20
126.4168964598
 10
143.3847683372
 20
126.4125717976
 10
143.3788533323
 20
126.4077514713
  0
LWPOLYLINE
  5
50C
100
AcDbEntity
  8
0
100
AcDbPolyline
 62
253
  6
CONTINUOUS
 90
13
 70
0
 10
128.3772530407
 20
130.7811839677
 10
128.3722034798
 20
130.7821875162
 10
128.36701244
 20
130.7826478797
 10
128.3616915935
 20
130.782564023
 10
128.3562529049
 20
130.7819361345
 10
128.3507086032
 20
130.7807656261
 10
128.3450711555
 20
130.7790551299
 10
128.3393532378
 20
130.776808492
 10
128.3335677074
 20
130.7740307642
 10
128.3277275734
 20
130.7707281923
 10
128.3218459678
 20
130.7669082025
 10
128.3159361159
 20
130.7625793843
 10
128.3100113064
 20
130.7577514713
  0
LINE
  5
50D
100
AcDbEntity
  8
RACCORDO
100
AcDbLine
 62
253
  6
CONTINUOUS
 10
137.896782472
 20
129.2405166077
 11
137.9021195734
 21
129.2393870829
  0
LWPOLYLINE
  5
50E
100
AcDbEntity
  8
0
100
AcDbPolyline
 62
7
  6
CONTINUOUS
 90
5
 70
0
 10
128.3786216145
 20
130.7808112271
 10
128.348557863
 20
130.7875145943
 10
128.3178308033
 20
130.7904726934
 10
128.2869039427
 20
130.7896152394
 10
128.2560579936
 20
130.7848872204
  0
LINE
  5
50F
100
AcDbEntity
  8
0
100
AcDbLine
 62
7
  6
CONTINUOUS
 10
143.4200080776
 20
126.4370857894
 11
143.4474696016
 21
126.4308095059
  0
LWPOLYLINE
  5
510
100
AcDbEntity
  8
RACCORDO
100
AcDbPolyline
 62
7
  6
CONTINUOUS
 90
13
 70
0
 10
137.182064888
 20
128.978979475
 10
137.1668669039
 20
128.9825146737
 10
137.152381092
 20
128.9847604716
 10
137.1386748198
 20
128.9858034093
 10
137.1257873745
 20
128.9857246176
 10
137.113753886
 20
128.9846327134
 10
137.1026077487
 20
128.9826610308
 10
137.0923754266
 20
128.9799188627
 10
137.083008127
 20
128.9764955366
 10
137.0744225282
 20
128.9724739215
 10
137.0665744423
 20
128.9679145378
 10
137.059465431
 20
128.9628986139
 10
137.0571697207
 20
128.9610689401
  0
LINE
  5
511
100
AcDbEntity
  8
RACCORDO
100
AcDbLine
 62
7
  6
CONTINUOUS
 10
137.8890916422
 20
129.2426781356
 11
137.9021347784
 21
129.2393826898
  0
LWPOLYLINE
  5
512
100
AcDbEntity
  8
0
100
AcDbPolyline
 62
7
  6
CONTINUOUS
 90
10
 70
0
 10
138.3890896227
 20
129.6697719318
 10
138.3316225574
 20
129.6851111606
 10
138.2728045034
 20
129.6984756762
 10
138.2126354609
 20
129.7098654787
 10
138.1508521876
 20
129.719311649
 10
138.0877179257
 20
129.7267831061
 10
138.0240224012
 20
129.7321866074
 10
137.960028856
 20
129.7354910719
 10
137.8954740482
 20
129.7367275806
 10
137.8303579778
 20
129.7358961335
  0
LINE
  5
513
100
AcDbEntity
  8
0
100
AcDbLine
 62
253
  6
CONTINUOUS
 10
143.4474636446
 20
126.4308112259
 11
143.4460808541
 21
126.4311876062
  0
LWPOLYLINE
  5
514
100
AcDbEntity
  8
0
100
AcDbPolyline
 62
253
  6
CONTINUOUS
 90
14
 70
0
 10
145.5183596988
 20
125.8329950288
 10
145.516991125
 20
125.8333677693
 10
145.5119415641
 20
125.8343713178
 10
145.5067505242
 20
125.8348316813
 10
145.5014296778
 20
125.8347478246
 10
145.4959909891
 20
125.8341199361
 10
145.4904466875
 20
125.8329494278
 10
145.4848092397
 20
125.8312389315
 10
145.4790913221
 20
125.8289922937
 10
145.4733057916
 20
125.8262145658
 10
145.4674656576
 20
125.8229119939
 10
145.4615840521
 20
125.8190920041
 10
145.4556742002
 20
125.8147631859
 10
145.4497493907
 20
125.8099352729
  0
LWPOLYLINE
  5
515
100
AcDbEntity
  8
0
100
AcDbPolyline
 62
253
  6
CONTINUOUS
 90
14
 70
0
 10
130.4495176729
 20
130.1829950288
 10
130.4481490991
 20
130.1833677693
 10
130.4430995382
 20
130.1843713178
 10
130.4379084984
 20
130.1848316813
 10
130.4325876519
 20
130.1847478246
 10
130.4271489633
 20
130.1841199361
 10
130.4216046617
 20
130.1829494278
 10
130.4159672139
 20
130.1812389315
 10
130.4102492962
 20
130.1789922937
 10
130.4044637658
 20
130.1762145658
 10
130.3986236318
 20
130.1729119939
 10
130.3927420262
 20
130.1690920041
 10
130.3868321743
 20
130.1647631859
 10
130.3809073648
 20
130.1599352729
  0
LINE
  5
516
100
AcDbEntity
  8
0
100
AcDbLine
 62
253
  6
CONTINUOUS
 10
128.3786216145
 20
130.7808112271
 11
128.3772530407
 21
130.7811839677
  0
LINE
  5
517
100
AcDbEntity
  8
0
100
AcDbLine
 62
253
  6
CONTINUOUS
 10
128.3100113064
 20
130.7577514713
 11
130.3809073648
 21
130.1599352729
  0
LINE
  5
518
100
AcDbEntity
  8
0
100
AcDbLine
 62
253
  6
CONTINUOUS
 10
143.3788533323
 20
126.4077514713
 11
145.4497493907
 21
125.8099352729
  0
LINE
  5
519
100
AcDbEntity
  8
0
100
AcDbLine
 62
7
  6
CONTINUOUS
 10
128.3786216145
 20
130.7808112271
 11
130.4495176729
 21
130.1829950288
  0
LINE
  5
51A
100
AcDbEntity
  8
0
100
AcDbLine
 62
7
  6
CONTINUOUS
 10
143.4474636404
 20
126.4308112271
 11
145.5183596988
 21
125.8329950288
  0
LINE
  5
51B
100
AcDbEntity
  8
RACCORDO
100
AcDbLine
 62
253
  6
CONTINUOUS
 10
138.0227522363
 20
128.1929350227
 11
138.9606828974
 21
127.9221777629
  0
LINE
  5
51C
100
AcDbEntity
  8
RACCORDO
100
AcDbLine
 62
253
  6
CONTINUOUS
 10
140.4476233669
 20
127.4929350227
 11
140.4980818756
 21
127.4783689059
  0
LINE
  5
51D
100
AcDbEntity
  8
RACCORDO
100
AcDbLine
 62
253
  6
CONTINUOUS
 10
138.0951885007
 20
128.4221620775
 11
139.0331191618
 21
128.1514048177
  0
LINE
  5
51E
100
AcDbEntity
  8
RACCORDO
100
AcDbLine
 62
253
  6
CONTINUOUS
 10
140.5200596313
 20
127.7221620775
 11
140.7166144726
 21
127.6654215822
  0
LINE
  5
51F
100
AcDbEntity
  8
RACCORDO
100
AcDbLine
 62
7
  6
CONTINUOUS
 10
140.9727871344
 20
127.8846922203
 11
137.182064888
 21
128.978979475
  0
LINE
  5
520
100
AcDbEntity
  8
RACCORDO
100
AcDbLine
 62
253
  6
CONTINUOUS
 10
141.3522210103
 20
128.2094681254
 11
137.8475216606
 21
129.2211876819
  0
LINE
  5
521
100
AcDbEntity
  8
RACCORDO
100
AcDbLine
 62
7
  6
CONTINUOUS
 10
141.3818905505
 20
128.2348637277
 11
137.9021190267
 21
129.2393872407
  0
LINE
  5
522
100
AcDbEntity
  8
0
100
AcDbLine
 62
7
  6
CONTINUOUS
 10
138.3890896227
 20
129.6697719318
 11
141.8807103485
 21
128.6618278489
  0
LINE
  5
523
100
AcDbEntity
  8
DRAFT
100
AcDbLine
 62
7
  6
CONTINUOUS
 10
149.0750849127
 20
126.8249024842
 11
148.3748836167
 21
127.0270331876
  0
LWPOLYLINE
  5
524
100
AcDbEntity
  8
0
100
AcDbPolyline
 62
253
  6
CONTINUOUS
 90
8
 70
0
 10
145.4497493907
 20
125.8099352729
 10
145.4600675734
 20
125.8067508539
 10
145.4703652335
 20
125.8030817081
 10
145.4806190541
 20
125.7989355094
 10
145.4908072191
 20
125.7943203352
 10
145.5009050807
 20
125.7892466012
 10
145.5108853645
 20
125.7837276875
 10
145.5207239959
 20
125.7777770212
  0
LWPOLYLINE
  5
525
100
AcDbEntity
  8
RACCORDO
100
AcDbPolyline
 62
253
  6
CONTINUOUS
 90
16
 70
0
 10
139.0331191618
 20
128.1514048177
 10
139.0751879241
 20
128.1371414961
 10
139.1137615839
 20
128.1199870535
 10
139.148840141
 20
128.0999414901
 10
139.1807288863
 20
128.0767898977
 10
139.2091225289
 20
128.0507471844
 10
139.2331051971
 20
128.0224580744
 10
139.2525866376
 20
127.9918318739
 10
139.2676571037
 20
127.9589592768
 10
139.2776714836
 20
127.9247570889
 10
139.282476492
 20
127.8891502256
 10
139.2822254142
 20
127.8522137715
 10
139.2767329941
 20
127.8150897869
 10
139.2659374796
 20
127.7781589584
 10
139.2499006229
 20
127.7410405994
 10
139.2286224239
 20
127.7037347098
  0
LWPOLYLINE
  5
526
100
AcDbEntity
  8
0
100
AcDbPolyline
 62
7
  6
CONTINUOUS
 90
11
 70
0
 10
145.5183596988
 20
125.8329950288
 10
145.5499952161
 20
125.8215038456
 10
145.5800795656
 20
125.8056966205
 10
145.6079113028
 20
125.7858163852
 10
145.6327716907
 20
125.7623200705
 10
145.6541961428
 20
125.7356440643
 10
145.6718871055
 20
125.7060777839
 10
145.6854452874
 20
125.6740683677
 10
145.6944437863
 20
125.6404287094
 10
145.6986770104
 20
125.6059353075
 10
145.6990221085
 20
125.5927121529
  0
LINE
  5
527
100
AcDbEntity
  8
RACCORDO
100
AcDbLine
 62
7
  6
CONTINUOUS
 10
148.6050539263
 20
129.2139767692
 11
148.7060286051
 21
129.1001000745
  0
LWPOLYLINE
  5
528
100
AcDbEntity
  8
DRAFT
100
AcDbPolyline
 62
7
  6
CONTINUOUS
 90
36
 70
0
 10
153.2319103447
 20
128.9127039153
 10
153.2017408582
 20
128.982818718
 10
153.1487953455
 20
129.0743643234
 10
153.083185609
 20
129.1635244759
 10
153.004947498
 20
129.2505319804
 10
152.9149173536
 20
129.3344407925
 10
152.8126677995
 20
129.4154148435
 10
152.698626212
 20
129.4932902019
 10
152.5749110617
 20
129.5666290293
 10
152.4417433995
 20
129.6351703808
 10
152.2989021744
 20
129.6991752011
 10
152.147842704
 20
129.7579884866
 10
151.9879962296
 20
129.811696127
 10
151.8199315098
 20
129.8602122326
 10
151.6468101382
 20
129.9026241299
 10
151.4690634608
 20
129.9387290034
 10
151.2862601315
 20
129.9687296687
 10
151.1002677052
 20
129.9923218988
 10
150.9105191577
 20
130.0094722465
 10
150.7175815133
 20
130.0202141591
 10
150.5250233996
 20
130.0243437513
 10
150.333343374
 20
130.0217576605
 10
150.1420428793
 20
130.0125592493
 10
149.9531948708
 20
129.9968547205
 10
149.7664084569
 20
129.9745137613
 10
149.5820745293
 20
129.9456666847
 10
149.403438719
 20
129.9108106324
 10
149.2309131174
 20
129.8699187582
 10
149.064085633
 20
129.8230179084
 10
148.9049656232
 20
129.7706857634
 10
148.7534515806
 20
129.712779439
 10
148.6096450125
 20
129.6494418196
 10
148.4758597976
 20
129.5816792377
 10
148.3528672287
 20
129.5098271378
 10
148.239896013
 20
129.4335500755
 10
148.1369461505
 20
129.3528480509
  0
LWPOLYLINE
  5
529
100
AcDbEntity
  8
RACCORDO
100
AcDbPolyline
 62
253
  6
CONTINUOUS
 90
9
 70
0
 10
157.3312668968
 20
125.7476943574
 10
157.3408154303
 20
125.6971061231
 10
157.3504416227
 20
125.6383172666
 10
157.358559047
 20
125.5809600719
 10
157.3652574919
 20
125.525061376
 10
157.3705735933
 20
125.4706618463
 10
157.3746672394
 20
125.417625426
 10
157.3776127299
 20
125.36595659
 10
157.3794404386
 20
125.3156978775
  0
LINE
  5
52A
100
AcDbEntity
  8
0
100
AcDbLine
 62
253
  6
CONTINUOUS
 10
145.2943109806
 20
83.2059980786
 11
145.6662520777
 21
83.5362664708
  0
LINE
  5
52B
100
AcDbEntity
  8
0
100
AcDbLine
 62
7
  6
CONTINUOUS
 10
145.2427807025
 20
83.0806673694
 11
145.6150159906
 21
83.411196991
  0
LINE
  5
52C
100
AcDbEntity
  8
0
100
AcDbLine
 62
7
  6
CONTINUOUS
 10
145.2427800576
 20
83.0806667967
 11
145.24014243
 21
83.0783825826
  0
LINE
  5
52D
100
AcDbEntity
  8
0
100
AcDbLine
 62
253
  6
CONTINUOUS
 10
144.1028405184
 20
82.1178975218
 11
144.1027692841
 21
82.1178373218
  0
LINE
  5
52E
100
AcDbEntity
  8
0
100
AcDbLine
 62
253
  6
CONTINUOUS
 10
144.1572400622
 20
82.2457080581
 11
145.2943109806
 21
83.2059980786
  0
LINE
  5
52F
100
AcDbEntity
  8
0
100
AcDbLine
 62
7
  6
CONTINUOUS
 10
144.1027692876
 20
82.1178373248
 11
145.2401418
 21
83.0783820504
  0
LINE
  5
530
100
AcDbEntity
  8
0
100
AcDbLine
 62
253
  6
CONTINUOUS
 10
142.8289425245
 20
82.5134811631
 11
146.1595805579
 21
84.9915778215
  0
LINE
  5
531
100
AcDbEntity
  8
0
100
AcDbLine
 62
7
  6
CONTINUOUS
 10
146.0388579975
 20
84.7261814313
 11
142.6976239515
 21
82.2402059591
  0
LWPOLYLINE
  5
532
100
AcDbEntity
  8
0
100
AcDbPolyline
 62
7
  6
CONTINUOUS
 90
5
 70
0
 10
146.0214005588
 20
84.7131927889
 10
146.0276975404
 20
84.7171832298
 10
146.0399833665
 20
84.7259228976
 10
146.0517664524
 20
84.735296868
 10
146.0583369567
 20
84.7409943343
  0
LINE
  5
533
100
AcDbEntity
  8
0
100
AcDbLine
 62
7
  6
CONTINUOUS
 10
139.8627756506
 20
130.7165986058
 11
138.6264108118
 21
130.4252981105
  0
LWPOLYLINE
  5
534
100
AcDbEntity
  8
RACCORDO
100
AcDbPolyline
 62
7
  6
CONTINUOUS
 90
5
 70
0
 10
137.1964756752
 20
129.062450009
 10
137.2162169867
 20
129.0661271174
 10
137.2370393321
 20
129.0666991223
 10
137.2585737678
 20
129.0641469057
 10
137.2804439169
 20
129.0585085713
  0
LWPOLYLINE
  5
535
100
AcDbEntity
  8
RACCORDO
100
AcDbPolyline
 62
253
  6
CONTINUOUS
 90
9
 70
0
 10
137.7724431092
 20
129.2156074045
 10
137.6999045423
 20
129.2067729665
 10
137.6299059599
 20
129.194684368
 10
137.5618107037
 20
129.179167788
 10
137.496255432
 20
129.1603970474
 10
137.4351501199
 20
129.1388936092
 10
137.3791314259
 20
129.1148312942
 10
137.3275626916
 20
129.0880362816
 10
137.2804439169
 20
129.0585085713
  0
LWPOLYLINE
  5
536
100
AcDbEntity
  8
RACCORDO
100
AcDbPolyline
 62
7
  6
CONTINUOUS
 90
6
 70
0
 10
137.7531872714
 20
129.2408507511
 10
137.670487349
 20
129.2307739487
 10
137.5891059726
 20
129.2167059422
 10
137.5095725807
 20
129.198591391
 10
137.4325333595
 20
129.1763986135
 10
137.3585757972
 20
129.1500829245
  0
LWPOLYLINE
  5
537
100
AcDbEntity
  8
RACCORDO
100
AcDbPolyline
 62
253
  6
CONTINUOUS
 90
3
 70
0
 10
137.8852070974
 20
129.2404375719
 10
137.8910879817
 20
129.2408816598
 10
137.896782472
 20
129.2405166077
  0
LINE
  5
538
100
AcDbEntity
  8
RACCORDO
100
AcDbLine
 62
253
  6
CONTINUOUS
 10
137.8475216606
 20
129.2211876819
 11
137.7724431092
 21
129.2156074045
  0
LINE
  5
539
100
AcDbEntity
  8
RACCORDO
100
AcDbLine
 62
7
  6
CONTINUOUS
 10
137.8366801464
 20
129.2469848562
 11
137.7531872714
 21
129.2408507511
  0
LWPOLYLINE
  5
53A
100
AcDbEntity
  8
RACCORDO
100
AcDbPolyline
 62
7
  6
CONTINUOUS
 90
5
 70
0
 10
137.8366826529
 20
129.2469849795
 10
137.8465821119
 20
129.2472334449
 10
137.8608364299
 20
129.2467296139
 10
137.8750287971
 20
129.2452096856
 10
137.8890916422
 20
129.2426781356
  0
LWPOLYLINE
  5
53B
100
AcDbEntity
  8
CONTATTI
100
AcDbPolyline
 62
7
  6
CONTINUOUS
 90
8
 70
0
 10
150.9095479952
 20
129.0079194664
 10
150.9029016697
 20
129.0083156629
 10
150.8955999469
 20
129.0075707276
 10
150.8879722466
 20
129.0056567715
 10
150.8802200519
 20
129.002606272
 10
150.8724105237
 20
128.998430055
 10
150.864476501
 20
128.9931172947
 10
150.8564179839
 20
128.986667991
  0
LWPOLYLINE
  5
53C
100
AcDbEntity
  8
0
100
AcDbPolyline
 62
7
  6
CONTINUOUS
 90
6
 70
0
 10
143.4188986766
 20
129.90714136
 10
143.4316170536
 20
129.9057203668
 10
143.4448559867
 20
129.9036115785
 10
143.458596858
 20
129.9007972439
 10
143.4728676471
 20
129.897222484
 10
143.4783254385
 20
129.8956888853
  0
LINE
  5
53D
100
AcDbEntity
  8
CONTATTI
100
AcDbLine
 62
7
  6
CONTINUOUS
 10
149.9290912912
 20
128.1835795176
 11
149.4316499918
 21
128.2429776521
  0
LWPOLYLINE
  5
53E
100
AcDbEntity
  8
CONTATTI
100
AcDbPolyline
 62
7
  6
CONTINUOUS
 90
16
 70
0
 10
150.9095418576
 20
129.0078959233
 10
150.7876844174
 20
129.024051238
 10
150.6584948848
 20
129.0376987733
 10
150.5282196371
 20
129.0479466666
 10
150.3971989013
 20
129.0547778355
 10
150.2657405854
 20
129.0581840819
 10
150.134120389
 20
129.0581617715
 10
150.0026666792
 20
129.0547109638
 10
149.8717020697
 20
129.0478384761
 10
149.7414927603
 20
129.0375525288
 10
149.6123631333
 20
129.023868937
 10
149.484633744
 20
129.0068099548
 10
149.3585596741
 20
128.9863931288
 10
149.2344577571
 20
128.9626481248
 10
149.1126431675
 20
128.9356109585
 10
149.0297588768
 20
128.9145530243
  0
LINE
  5
53F
100
AcDbEntity
  8
CONTATTI
100
AcDbLine
 62
7
  6
CONTINUOUS
 10
151.5320156616
 20
128.4459197178
 11
151.6015737248
 21
128.4319917925
  0
LINE
  5
540
100
AcDbEntity
  8
DRAFT
100
AcDbLine
 62
7
  6
CONTINUOUS
 10
134.0697545296
 20
131.4101171823
 11
134.1558886265
 21
131.3852524102
  0
LINE
  5
541
100
AcDbEntity
  8
DRAFT
100
AcDbLine
 62
7
  6
CONTINUOUS
 10
148.6285604523
 20
127.207351923
 11
151.0291540349
 21
126.5143602474
  0
LINE
  5
542
100
AcDbEntity
  8
0
100
AcDbLine
 62
7
  6
CONTINUOUS
 10
138.6264108118
 20
130.4252981105
 11
142.6006280477
 21
129.278040415
  0
LINE
  5
543
100
AcDbEntity
  8
0
100
AcDbLine
 62
7
  6
CONTINUOUS
 10
139.8627756506
 20
130.7165986058
 11
143.1669349018
 21
129.7627699892
  0
LINE
  5
544
100
AcDbEntity
  8
0
100
AcDbLine
 62
253
  6
CONTINUOUS
 10
144.0716180427
 20
129.6386924078
 11
143.2866964782
 21
129.8652797461
  0
LINE
  5
545
100
AcDbEntity
  8
0
100
AcDbLine
 62
253
  6
CONTINUOUS
 10
137.2245186517
 20
131.6152797461
 11
136.4395970872
 21
131.8418670844
  0
LINE
  5
546
100
AcDbEntity
  8
0
100
AcDbLine
 62
7
  6
CONTINUOUS
 10
144.1539158104
 20
129.7006667802
 11
143.4786691496
 21
129.8955937009
  0
LINE
  5
547
100
AcDbEntity
  8
0
100
AcDbLine
 62
7
  6
CONTINUOUS
 10
137.3069881007
 20
131.6772045584
 11
136.6317414369
 21
131.8721314799
  0
LINE
  5
548
100
AcDbEntity
  8
CONTATTI
100
AcDbLine
 62
7
  6
CONTINUOUS
 10
149.4316499918
 20
128.2429776521
 11
149.3070604901
 21
128.2789435432
  0
LINE
  5
549
100
AcDbEntity
  8
DRAFT
100
AcDbLine
 62
253
  6
CONTINUOUS
 10
135.7798702826
 20
132.6514295236
 11
139.3656845163
 21
131.616294117
  0
LINE
  5
54A
100
AcDbEntity
  8
DRAFT
100
AcDbLine
 62
253
  6
CONTINUOUS
 10
144.6484394794
 20
130.091294117
 11
148.2342537131
 21
129.0561587105
  0
LINE
  5
54B
100
AcDbEntity
  8
0
100
AcDbLine
 62
7
  6
CONTINUOUS
 10
135.9096576108
 20
132.7854265322
 11
139.6401257487
 21
131.7085331404
  0
LINE
  5
54C
100
AcDbEntity
  8
0
100
AcDbLine
 62
7
  6
CONTINUOUS
 10
144.9228807118
 20
130.1835331404
 11
148.6533488497
 21
129.1066397486
  0
LINE
  5
54D
100
AcDbEntity
  8
DRAFT
100
AcDbLine
 62
7
  6
CONTINUOUS
 10
151.9115861157
 20
126.07017944
 11
151.0291540349
 21
126.5143602474
  0
LWPOLYLINE
  5
54E
100
AcDbEntity
  8
RACCORDO
100
AcDbPolyline
 62
7
  6
CONTINUOUS
 90
10
 70
0
 10
152.7793482325
 20
125.5567955349
 10
152.6932993522
 20
125.616866187
 10
152.60422082
 20
125.6763455435
 10
152.5121126359
 20
125.7352336044
 10
152.4163916413
 20
125.7937513074
 10
152.3176409948
 20
125.8516777148
 10
152.2176101715
 20
125.908350013
 10
152.1168823297
 20
125.9635472644
 10
152.0148743111
 20
126.0174904068
 10
151.9115861157
 20
126.07017944
  0
LWPOLYLINE
  5
54F
100
AcDbEntity
  8
0
100
AcDbPolyline
 62
7
  6
CONTINUOUS
 90
6
 70
0
 10
136.5735303356
 20
131.8835281467
 10
136.5862543391
 20
131.8820335758
 10
136.5994975418
 20
131.8798531253
 10
136.6132412102
 20
131.8769694947
 10
136.6275104999
 20
131.873328513
 10
136.6314830921
 20
131.8722028176
  0
LWPOLYLINE
  5
550
100
AcDbEntity
  8
DRAFT
100
AcDbPolyline
 62
7
  6
CONTINUOUS
 90
24
 70
0
 10
151.7156178666
 20
129.4535720792
 10
151.5430091088
 20
129.4904662062
 10
151.3732055413
 20
129.5215070057
 10
151.2062071643
 20
129.5466944777
 10
151.0414976505
 20
129.5655907003
 10
150.8795933272
 20
129.5786335955
 10
150.7220431751
 20
129.5871369285
 10
150.5694776965
 20
129.5912010882
 10
150.4212663892
 20
129.5907256857
 10
150.2770667276
 20
129.5867233204
 10
150.136782621
 20
129.5793119209
 10
150.00051016
 20
129.5683735585
 10
149.8681950915
 20
129.554567046
 10
149.7398056218
 20
129.5379468876
 10
149.6153735445
 20
129.5184585791
 10
149.4949399871
 20
129.4965974206
 10
149.3786391373
 20
129.4724454422
 10
149.2663368075
 20
129.4459206139
 10
149.1576715618
 20
129.4172721456
 10
149.0525916256
 20
129.386554805
 10
148.9511487735
 20
129.3537138244
 10
148.853136893
 20
129.3188341118
 10
148.7583691662
 20
129.2818806762
 10
148.6670324109
 20
129.2428885086
  0
LWPOLYLINE
  5
551
100
AcDbEntity
  8
0
100
AcDbPolyline
 62
7
  6
CONTINUOUS
 90
8
 70
0
 10
144.9227475754
 20
130.1835145817
 10
144.897208173
 20
130.1890382968
 10
144.858823368
 20
130.1906738899
 10
144.8185468612
 20
130.1850466086
 10
144.7772800765
 20
130.1722823962
 10
144.7353234886
 20
130.1524232341
 10
144.6923766229
 20
130.1254271411
 10
144.6484394794
 20
130.091294117
  0
LWPOLYLINE
  5
552
100
AcDbEntity
  8
0
100
AcDbPolyline
 62
7
  6
CONTINUOUS
 90
8
 70
0
 10
139.6399926123
 20
131.7085145817
 10
139.6144532099
 20
131.7140382968
 10
139.576068405
 20
131.7156738899
 10
139.5357918981
 20
131.7100466086
 10
139.4945251134
 20
131.6972823962
 10
139.4525685255
 20
131.6774232341
 10
139.4096216598
 20
131.6504271411
 10
139.3656845163
 20
131.616294117
  0
LINE
  5
553
100
AcDbEntity
  8
RACCORDO
100
AcDbLine
 62
7
  6
CONTINUOUS
 10
152.6636662352
 20
129.0813319974
 11
150.9647184538
 21
129.5717759769
  0
LINE
  5
554
100
AcDbEntity
  8
DRAFT
100
AcDbLine
 62
7
  6
CONTINUOUS
 10
152.0858504279
 20
129.3675981155
 11
151.7157225761
 21
129.4744448229
  0
LWPOLYLINE
  5
555
100
AcDbEntity
  8
DRAFT
100
AcDbPolyline
 62
7
  6
CONTINUOUS
 90
10
 70
0
 10
152.0858504279
 20
129.3675981155
 10
152.0463992523
 20
129.3808774891
 10
152.0065203763
 20
129.393807629
 10
151.9662137999
 20
129.4063885355
 10
151.925467303
 20
129.418623736
 10
151.8842931057
 20
129.4305097029
 10
151.8427278683
 20
129.4420358534
 10
151.800783811
 20
129.4531986597
 10
151.7584487136
 20
129.4640016496
 10
151.7157225761
 20
129.4744448229
  0
LWPOLYLINE
  5
556
100
AcDbEntity
  8
CONTATTI
100
AcDbPolyline
 62
7
  6
CONTINUOUS
 90
3
 70
0
 10
150.9226494906
 20
129.0035038672
 10
150.9163928611
 20
129.0062768199
 10
150.9095479952
 20
129.0079194664
  0
LWPOLYLINE
  5
557
100
AcDbEntity
  8
CONTATTI
100
AcDbPolyline
 62
253
  6
CONTINUOUS
 90
17
 70
0
 10
151.8956689009
 20
128.6866856861
 10
151.9278850782
 20
128.670732439
 10
151.9602288177
 20
128.6539946542
 10
151.9927001193
 20
128.6364723315
 10
152.0252944165
 20
128.6182391774
 10
152.0580162758
 20
128.5992214854
 10
152.0908793968
 20
128.5791981367
 10
152.123926639
 20
128.5581767283
 10
152.1571151429
 20
128.5361496631
 10
152.1903300296
 20
128.5128730316
 10
152.2236278068
 20
128.4883524067
 10
152.2569519668
 20
128.4625822155
 10
152.2900181072
 20
128.43530183
 10
152.3228965029
 20
128.4065133886
 10
152.355516879
 20
128.3762147528
 10
152.3873840091
 20
128.3441388799
 10
152.4001361877
 20
128.3303007857
  0
LWPOLYLINE
  5
558
100
AcDbEntity
  8
CONTATTI
100
AcDbPolyline
 62
7
  6
CONTINUOUS
 90
8
 70
0
 10
152.0440414062
 20
128.6625879065
 10
152.0336156744
 20
128.6679923103
 10
152.0231376287
 20
128.6733622453
 10
152.0126075652
 20
128.6786976679
 10
152.0020258796
 20
128.6839984846
 10
151.9913930727
 20
128.6892645513
 10
151.9807095484
 20
128.6944957754
 10
151.959887753
 20
128.7045220889
  0
LINE
  5
559
100
AcDbEntity
  8
CONTATTI
100
AcDbLine
 62
7
  6
CONTINUOUS
 10
152.5393422645
 20
128.4014370922
 11
152.0440414062
 21
128.6625879065
  0
LWPOLYLINE
  5
55A
100
AcDbEntity
  8
CONTATTI
100
AcDbPolyline
 62
253
  6
CONTINUOUS
 90
14
 70
0
 10
152.0544144769
 20
128.6571491032
 10
152.0654657561
 20
128.6512846054
 10
152.1002169749
 20
128.6323481807
 10
152.1350200891
 20
128.6125903397
 10
152.1700902061
 20
128.5918194072
 10
152.2053280641
 20
128.5700096064
 10
152.2406291069
 20
128.5471361133
 10
152.2761472342
 20
128.5229914598
 10
152.3117407933
 20
128.4975435274
 10
152.3472589964
 20
128.4707625762
 10
152.3827772506
 20
128.4424284499
 10
152.418097202
 20
128.412506352
 10
152.4530094136
 20
128.3809641514
 10
152.4690690465
 20
128.3654129492
  0
LINE
  5
55B
100
AcDbEntity
  8
CONTATTI
100
AcDbLine
 62
7
  6
CONTINUOUS
 10
151.1020280036
 20
128.9045532892
 11
150.9226494906
 21
129.0035038672
  0
LINE
  5
55C
100
AcDbEntity
  8
CONTATTI
100
AcDbLine
 62
7
  6
CONTINUOUS
 10
151.2929927531
 20
128.7976895216
 11
151.1020280036
 21
128.9045532892
  0
LINE
  5
55D
100
AcDbEntity
  8
CONTATTI
100
AcDbLine
 62
7
  6
CONTINUOUS
 10
151.4958189833
 20
128.6829947598
 11
151.2929927531
 21
128.7976895216
  0
LWPOLYLINE
  5
55E
100
AcDbEntity
  8
DRAFT
100
AcDbPolyline
 62
7
  6
CONTINUOUS
 90
11
 70
0
 10
153.0524366594
 20
128.7657062303
 10
153.0291645679
 20
128.7922611088
 10
152.9650453141
 20
128.8563999644
 10
152.8927569361
 20
128.9205281427
 10
152.8103533059
 20
128.9842937216
 10
152.7176995388
 20
129.0480180383
 10
152.6149305196
 20
129.1113797556
 10
152.5005047752
 20
129.1730629409
 10
152.3739084814
 20
129.2326289499
 10
152.2356554624
 20
129.2905164268
 10
152.0857457183
 20
129.3467253718
  0
LWPOLYLINE
  5
55F
100
AcDbEntity
  8
RACCORDO
100
AcDbPolyline
 62
253
  6
CONTINUOUS
 90
8
 70
0
 10
148.5494172088
 20
132.7236573475
 10
148.526532882
 20
132.7287280665
 10
148.4884120073
 20
132.7309707299
 10
148.4486764582
 20
132.7259815577
 10
148.4077324031
 20
132.7138394928
 10
148.3659304528
 20
132.6947110899
 10
148.323550365
 20
132.668785266
 10
148.2809074276
 20
132.6363061397
  0
LWPOLYLINE
  5
560
100
AcDbEntity
  8
RACCORDO
100
AcDbPolyline
 62
253
  6
CONTINUOUS
 90
8
 70
0
 10
156.6085894648
 20
130.3971747509
 10
156.5856086168
 20
130.4022754026
 10
156.5474901802
 20
130.4045212472
 10
156.5077570426
 20
130.399535868
 10
156.4668127529
 20
130.3873971788
 10
156.4250068444
 20
130.3682699084
 10
156.3826198442
 20
130.3423418727
 10
156.3399670955
 20
130.3098560053
  0
LINE
  5
561
100
AcDbEntity
  8
RACCORDO
100
AcDbLine
 62
253
  6
CONTINUOUS
 10
148.5495297428
 20
132.7236249009
 11
148.5494172088
 21
132.7236573475
  0
LINE
  5
562
100
AcDbEntity
  8
DRAFT
100
AcDbLine
 62
7
  6
CONTINUOUS
 10
154.7448049797
 20
130.1518382689
 11
150.4760471268
 21
131.3841225167
  0
LINE
  5
563
100
AcDbEntity
  8
RACCORDO
100
AcDbLine
 62
253
  6
CONTINUOUS
 10
148.2809074276
 20
132.6363061397
 11
149.5158670155
 21
132.2798040144
  0
LINE
  5
564
100
AcDbEntity
  8
RACCORDO
100
AcDbLine
 62
253
  6
CONTINUOUS
 10
155.3031583949
 20
130.6091568965
 11
156.3399670971
 21
130.3098560048
  0
LINE
  5
565
100
AcDbEntity
  8
RACCORDO
100
AcDbLine
 62
7
  6
CONTINUOUS
 10
148.5495313224
 20
132.7236244449
 11
149.8626734301
 21
132.3445529702
  0
LINE
  5
566
100
AcDbEntity
  8
RACCORDO
100
AcDbLine
 62
7
  6
CONTINUOUS
 10
155.4935997701
 20
130.7190445511
 11
156.6085909913
 21
130.3971743103
  0
LWPOLYLINE
  5
567
100
AcDbEntity
  8
RACCORDO
100
AcDbPolyline
 62
253
  6
CONTINUOUS
 90
19
 70
0
 10
156.3399670955
 20
130.3098560053
 10
156.4156596282
 20
130.2855564707
 10
156.490718029
 20
130.254878272
 10
156.5645784723
 20
130.2180518564
 10
156.6366861303
 20
130.1753538554
 10
156.7064993438
 20
130.127105007
 10
156.7734936907
 20
130.0736677464
 10
156.837165923
 20
130.015443481
 10
156.8970377427
 20
129.9528695812
 10
156.9526593985
 20
129.8864160962
 10
157.0036130702
 20
129.8165822129
 10
157.0495160031
 20
129.7438925102
 10
157.0900233808
 20
129.6688930258
 10
157.1248309472
 20
129.5921471685
 10
157.1536772067
 20
129.5142314116
 10
157.1763453961
 20
129.4357309755
 10
157.1926652242
 20
129.3572355293
 10
157.2025141409
 20
129.2793347518
 10
157.2058181808
 20
129.2026138333
  0
LWPOLYLINE
  5
568
100
AcDbEntity
  8
RACCORDO
100
AcDbPolyline
 62
7
  6
CONTINUOUS
 90
26
 70
0
 10
157.3312668968
 20
127.8174631516
 10
157.3527328422
 20
127.8004604809
 10
157.5054369789
 20
127.6651796707
 10
157.6510011375
 20
127.5213427376
 10
157.7887321032
 20
127.3696754073
 10
157.9180083534
 20
127.2108933624
 10
158.0382359138
 20
127.0457407538
 10
158.1488242258
 20
126.8750334897
 10
158.2492827973
 20
126.6995137245
 10
158.3391061598
 20
126.520023787
 10
158.4177826964
 20
126.3375596977
 10
158.4849695335
 20
126.1528818348
 10
158.540310344
 20
125.966891779
 10
158.5834462051
 20
125.7808045993
 10
158.6141995204
 20
125.595538263
 10
158.6324704624
 20
125.4118309201
 10
158.6381806272
 20
125.2306043923
 10
158.6313086152
 20
125.0525354536
 10
158.6118796415
 20
124.8785482189
 10
158.5800802137
 20
124.7098867291
 10
158.5361954056
 20
124.5474437974
 10
158.48048913
 20
124.3917645812
 10
158.4133020438
 20
124.2435293665
 10
158.3350418075
 20
124.1034115088
 10
158.2461799032
 20
123.9720498012
 10
158.1472469526
 20
123.8500359605
  0
LWPOLYLINE
  5
569
100
AcDbEntity
  8
RACCORDO
100
AcDbPolyline
 62
253
  6
CONTINUOUS
 90
25
 70
0
 10
157.3312668968
 20
127.7426304889
 10
157.3936431618
 20
127.6895685247
 10
157.538209832
 20
127.5530543394
 10
157.6759699814
 20
127.408858574
 10
157.8062810614
 20
127.2576537951
 10
157.9285352656
 20
127.1001452622
 10
158.0421623651
 20
126.9370676403
 10
158.1466323706
 20
126.7691815699
 10
158.2414580046
 20
126.597270119
 10
158.3261969745
 20
126.42213513
 10
158.4004540342
 20
126.2445934809
 10
158.4638828281
 20
126.0654732752
 10
158.5161875066
 20
125.8856099798
 10
158.5571241061
 20
125.7058425271
 10
158.5865016869
 20
125.5270094026
 10
158.6041832237
 20
125.349944734
 10
158.610086245
 20
125.1754744
 10
158.6041832173
 20
125.004412179
 10
158.5865016741
 20
124.8375559527
 10
158.557124087
 20
124.6756839852
 10
158.5161874812
 20
124.5195512923
 10
158.4638827964
 20
124.3698861205
 10
158.4004539963
 20
124.2273865499
 10
158.3261969306
 20
124.0927172384
 10
158.2414579549
 20
123.966506321
  0
ELLIPSE
  5
56A
100
AcDbEntity
  8
0
100
AcDbEllipse
 62
7
  6
CONTINUOUS
 10
133.7341186698
 20
113.3380864877
 30
0.0
 11
2.7000436566
 21
0.2041348222
 31
0.0
 40
0.7467365605
 41
-2.497105283
 42
-1.9755473153
  0
ELLIPSE
  5
56B
100
AcDbEntity
  8
RACCORDO
100
AcDbEllipse
 62
7
  6
CONTINUOUS
 10
135.5786068299
 20
130.4241696944
 30
0.0
 11
1.7822981456
 21
-0.8143110417
 31
0.0
 40
0.2087225594
 41
2.9873546416
 42
3.0397744896
  0
ELLIPSE
  5
56C
100
AcDbEntity
  8
RACCORDO
100
AcDbEllipse
 62
7
  6
CONTINUOUS
 10
149.983604816
 20
131.2688100864
 30
0.0
 11
0.2722252041
 21
0.96224566
 31
0.0
 40
0.4264576265
 41
-0.9850681995
 42
-0.9553833409
  0
ELLIPSE
  5
56D
100
AcDbEntity
  8
RACCORDO
100
AcDbEllipse
 62
7
  6
CONTINUOUS
 10
151.4268717192
 20
95.1869726542
 30
0.0
 11
1.0383706674
 21
2.2730795234
 31
0.0
 40
0.6416464212
 41
-2.1563626328
 42
-2.0547231866
  0
ELLIPSE
  5
56E
100
AcDbEntity
  8
RACCORDO
100
AcDbEllipse
 62
7
  6
CONTINUOUS
 10
154.7944131583
 20
129.8800493407
 30
0.0
 11
0.7100784797
 21
0.8340015603
 31
0.0
 40
0.132148028
 41
0.0607869803
 42
0.6301716182
  0
ELLIPSE
  5
56F
100
AcDbEntity
  8
RACCORDO
100
AcDbEllipse
 62
7
  6
CONTINUOUS
 10
150.0071598457
 20
131.262010335
 30
0.0
 11
-0.3813238575
 21
1.0817904828
 31
0.0
 40
0.5377287384
 41
4.9635853195
 42
6.4872434953
  0
ELLIPSE
  5
570
100
AcDbEntity
  8
RACCORDO
100
AcDbEllipse
 62
7
  6
CONTINUOUS
 10
184.883634452
 20
134.0693111519
 30
0.0
 11
27.7798458124
 21
25.071780417
 31
0.0
 40
0.0171851525
 41
3.1260840065
 42
3.2124301298
  0
ELLIPSE
  5
571
100
AcDbEntity
  8
RACCORDO
100
AcDbEllipse
 62
7
  6
CONTINUOUS
 10
148.6560286051
 20
129.0562068622
 30
0.0
 11
-0.0867731222
 21
0.0975173952
 31
0.0
 40
0.5096872485
 41
-1.5742181089
 42
-0.0121484284
  0
ELLIPSE
  5
572
100
AcDbEntity
  8
0
100
AcDbEllipse
 62
7
  6
CONTINUOUS
 10
136.4381279984
 20
131.4076063655
 30
0.0
 11
0.1404028218
 21
0.4798850524
 31
0.0
 40
0.4373714979
 41
0.4902265354
 42
0.5837580666
  0
ELLIPSE
  5
573
100
AcDbEntity
  8
0
100
AcDbEllipse
 62
7
  6
CONTINUOUS
 10
135.9649226476
 20
128.0839937767
 30
0.0
 11
-0.1309273426
 21
0.1511906453
 31
0.0
 40
0.7500018128
 41
-2.4278383642
 42
-0.8570420374
  0
ELLIPSE
  5
574
100
AcDbEntity
  8
0
100
AcDbEllipse
 62
7
  6
CONTINUOUS
 10
138.0433836167
 20
127.4839937767
 30
0.0
 11
-0.1309273426
 21
0.1511906453
 31
0.0
 40
0.7500018128
 41
-0.8570420374
 42
-0.0043409904
  0
ELLIPSE
  5
575
100
AcDbEntity
  8
RACCORDO
100
AcDbEllipse
 62
7
  6
CONTINUOUS
 10
145.4675189925
 20
123.729528761
 30
0.0
 11
-0.1306521898
 21
0.1515449735
 31
0.0
 40
0.7503689718
 41
0.7161968813
 42
2.2866887293
  0
ELLIPSE
  5
576
100
AcDbEntity
  8
RACCORDO
100
AcDbEllipse
 62
7
  6
CONTINUOUS
 10
130.3986769667
 20
128.079528761
 30
0.0
 11
-0.1306521898
 21
0.1515449735
 31
0.0
 40
0.7503689718
 41
0.7161968813
 42
2.2866887293
  0
ELLIPSE
  5
577
100
AcDbEntity
  8
0
100
AcDbEllipse
 62
7
  6
CONTINUOUS
 10
146.2201273893
 20
123.4781185036
 30
0.0
 11
0.3273463761
 21
-0.3779501209
 31
0.0
 40
0.7500354192
 41
0.7136994154
 42
2.2844449736
  0
ELLIPSE
  5
578
100
AcDbEntity
  8
0
100
AcDbEllipse
 62
7
  6
CONTINUOUS
 10
146.2201273893
 20
85.5562972508
 30
0.0
 11
-0.3273534212
 21
0.3779772567
 31
0.0
 40
0.7499600483
 41
-3.1298681073
 42
-2.4279180913
  0
ELLIPSE
  5
579
100
AcDbEntity
  8
DRAFT
100
AcDbEllipse
 62
7
  6
CONTINUOUS
 10
135.7012457741
 20
132.6284451749
 30
0.0
 11
0.4998083847
 21
0.3729843325
 31
0.0
 40
0.0371093065
 41
1.5455162938
 42
2.5728546689
  0
ELLIPSE
  5
57A
100
AcDbEntity
  8
DRAFT
100
AcDbEllipse
 62
7
  6
CONTINUOUS
 10
149.0974177763
 20
127.9376150917
 30
0.0
 11
-0.8457089611
 21
1.1326141449
 31
0.0
 40
0.4623316742
 41
5.122268236
 42
6.317475376
  0
ELLIPSE
  5
57B
100
AcDbEntity
  8
0
100
AcDbEllipse
 62
7
  6
CONTINUOUS
 10
137.8890896227
 20
129.8072044549
 30
0.0
 11
0.9999986302
 21
-0.0033395675
 31
0.0
 40
0.4956324579
 41
1.6312169879
 42
2.6196490768
  0
ELLIPSE
  5
57C
100
AcDbEntity
  8
0
100
AcDbEllipse
 62
7
  6
CONTINUOUS
 10
136.8541963681
 20
130.3617513717
 30
0.0
 11
0.4530420893
 21
-0.0015129667
 31
0.0
 40
0.4956324579
 41
-0.5219435768
 42
0.0016243395
  0
ELLIPSE
  5
57D
100
AcDbEntity
  8
0
100
AcDbEllipse
 62
7
  6
CONTINUOUS
 10
143.7010671862
 20
128.3852300168
 30
0.0
 11
0.4530420893
 21
-0.0015129667
 31
0.0
 40
0.4956324579
 41
-0.5161258126
 42
0.0016278692
  0
ELLIPSE
  5
57E
100
AcDbEntity
  8
DRAFT
100
AcDbEllipse
 62
7
  6
CONTINUOUS
 10
134.910888488
 20
132.0329133434
 30
0.0
 11
1.0050095172
 21
0.750309453
 31
0.0
 40
0.036701048
 41
-0.5543808184
 42
0.6408263216
  0
ELLIPSE
  5
57F
100
AcDbEntity
  8
0
100
AcDbEllipse
 62
7
  6
CONTINUOUS
 10
178.6424695853
 20
159.2859584032
 30
0.0
 11
42.5377953771
 21
37.3409903942
 31
0.0
 40
0.0057492859
 41
2.5145763347
 42
2.685518984
  0
ELLIPSE
  5
580
100
AcDbEntity
  8
0
100
AcDbEllipse
 62
7
  6
CONTINUOUS
 10
144.0701782659
 20
129.2044232273
 30
0.0
 11
0.1369629412
 21
0.4808780972
 31
0.0
 40
0.428644886
 41
0.4871257459
 42
0.5806572771
  0
ELLIPSE
  5
581
100
AcDbEntity
  8
DRAFT
100
AcDbEllipse
 62
7
  6
CONTINUOUS
 10
148.8070604901
 20
128.8451223478
 30
0.0
 11
-0.426777246
 21
0.5630038829
 31
0.0
 40
0.4626998095
 41
-3.0997118432
 42
-2.0723734681
  0
ELLIPSE
  5
582
100
AcDbEntity
  8
0
100
AcDbEllipse
 62
7
  6
CONTINUOUS
 10
178.6424695853
 20
159.2859584032
 30
0.0
 11
42.5377953771
 21
37.3409903942
 31
0.0
 40
0.0057492859
 41
-2.6956126996
 42
-2.5246700503
  0
ELLIPSE
  5
583
100
AcDbEntity
  8
0
100
AcDbEllipse
 62
7
  6
CONTINUOUS
 10
137.3933836167
 20
125.7000670781
 30
0.0
 11
0.1999702832
 21
0.0063972751
 31
0.0
 40
0.5389145921
 41
3.1243091473
 42
4.1715514265
  0
ELLIPSE
  5
584
100
AcDbEntity
  8
0
100
AcDbEllipse
 62
7
  6
CONTINUOUS
 10
135.3149226476
 20
126.3000670781
 30
0.0
 11
0.1999702832
 21
0.0063972751
 31
0.0
 40
0.5389145921
 41
-2.1116338807
 42
-0.5408375539
  0
ENDSEC
  0
SECTION
  2
OBJECTS
  0
DICTIONARY
  5
C
100
AcDbDictionary
280
0
281
1
  3
ACAD_GROUP
350
D
  3
ACAD_MLINESTYLE
350
17
  3
ACAD_LAYOUT
350
1A
  3
ACAD_PLOTSETTINGS
350
19
  3
ACAD_PLOTSTYLENAME
350
E
  0
DICTIONARY
  5
D
102
{ACAD_REACTORS
330
C
102
}
100
AcDbDictionary
280
0
281
1
  0
ACDBDICTIONARYWDFLT
  5
E
102
{ACAD_REACTORS
330
C
102
}
100
AcDbDictionary
281
1
  3
Normal
350
F
100
AcDbDictionaryWithDefault
340
F
  0
DICTIONARY
  5
17
102
{ACAD_REACTORS
330
C
102
}
100
AcDbDictionary
280
0
281
1
  3
Standard
350
18
  0
DICTIONARY
  5
19
102
{ACAD_REACTORS
330
C
102
}
100
AcDbDictionary
281
1
  0
DICTIONARY
  5
1A
102
{ACAD_REACTORS
330
C
102
}
100
AcDbDictionary
281
1
  3
Model
350
585
  3
Layout1
350
586
  0
ACDBPLACEHOLDER
  5
F
102
{ACAD_REACTORS
330
E
102
}
  0
MLINESTYLE
  5
18
102
{ACAD_REACTORS
330
17
102
}
100
AcDbMlineStyle
  2
STANDARD
 70
0
  3

 62
256
 51
90.0
 52
90.0
 71
2
 49
0.5
 62
256
  6
BYLAYER
 49
-0.5
 62
256
  6
BYLAYER
  0
LAYOUT
  5
585
102
{ACAD_REACTORS
330
1A
102
}
100
AcDbPlotSettings
  1

  2
none_device
  4
ISO_A4_(297.00_x_210.00_MM)
  6

 40
0.0
 41
0.0
 42
0.0
 43
0.0
 44
297.0
 45
210.0
 46
0.0
 47
0.0
 48
0.0
 49
0.0
140
0.0
141
0.0
142
1.0
143
1.0
 70
1024
 72
1
 73
0
 74
0
  7

 75
0
147
1.0
148
0.0
149
0.0
100
AcDbLayout
  1
Model
 70
0
 71
0
 10
0.0
 20
0.0
 11
297.0
 21
210.0
 12
0.0
 22
0.0
 32
0.0
 14
0.0
 24
0.0
 34
0.0
 15
0.0
 25
0.0
 35
0.0
146
0.0
 13
0.0
 23
0.0
 33
0.0
 16
1.0
 26
0.0
 36
0.0
 17
0.0
 27
1.0
 37
0.0
 76
0
330
21C
345
0
346
0
  0
LAYOUT
  5
586
102
{ACAD_REACTORS
330
1A
102
}
100
AcDbPlotSettings
  1

  2
none_device
  4
ISO_A4_(297.00_x_210.00_MM)
  6

 40
0.0
 41
0.0
 42
0.0
 43
0.0
 44
297.0
 45
210.0
 46
0.0
 47
0.0
 48
0.0
 49
0.0
140
0.0
141
0.0
142
1.0
143
1.0
 70
0
 72
1
 73
0
 74
0
  7

 75
0
147
1.0
148
0.0
149
0.0
100
AcDbLayout
  1
Layout1
 70
0
 71
1
 10
0.0
 20
0.0
 11
297.0
 21
210.0
 12
0.0
 22
0.0
 32
0.0
 14
0.0
 24
0.0
 34
0.0
 15
0.0
 25
0.0
 35
0.0
146
0.0
 13
0.0
 23
0.0
 33
0.0
 16
1.0
 26
0.0
 36
0.0
 17
0.0
 27
1.0
 37
0.0
 76
0
330
21D
345
0
346
0
  0
ENDSEC
  0
EOF
