  0
SECTION
  2
HEADER
  9
$ACADVER
  1
AC1015
  9
$DWGCODEPAGE
  3
ANSI_1252
  9
$EXTMAX
 10
297.0
 20
210.0
 30
0.0
  9
$EXTMIN
 10
0.0
 20
0.0
 30
0.0
  9
$LIMMIN
 10
0.0
 20
0.0
  9
$LIMMAX
 10
297.0
 20
210.0
  9
$VIEWCTR
 10
148.5
 20
105.0
  9
$VIEWSIZE
 40
210.0
  9
$CLAYER
  8
0
  9
$LTSCALE
 40
16.335
  9
$CELTYPE
  6
BYLAYER
  9
$DIMSCALE
 40
1.0
  9
$DIMASZ
 40
3.0
  9
$DIMEXO
 40
1.85625
  9
$DIMDLI
 40
11.286
  9
$DIMEXE
 40
5.346
  9
$DIMCEN
 40
2.673
  9
$DIMLFAC
 40
1.0
  9
$DIMBLK
  1
_FILLED
  9
$DIMTXT
 40
3.0
  9
$DIMTOL
 70
1
  9
$DIMLIM
 70
0
  9
$DIMTFAC
 40
1.0
  9
$DIMTP
 40
0.01
  9
$DIMTM
 40
0.01
  9
$PDMODE
 70
3
  9
$PDSIZE
 40
3.0
  9
$HANDSEED
  5
515
  9
$TILEMODE
 70
1
  9
$MEASUREMENT
 70
1
  9
$INSUNITS
 70
4
  0
ENDSEC
  0
SECTION
  2
CLASSES
  0
CLASS
  1
ACDBDICTIONARYWDFLT
  2
AcDbDictionaryWithDefault
  3
AutoCAD 2000
 90
0
280
0
281
0
  0
CLASS
  1
ACDBPLACEHOLDER
  2
AcDbPlaceHolder
  3
AutoCAD 2000
 90
0
280
0
281
0
  0
CLASS
  1
LAYOUT
  2
AcDbLayout
  3
AutoCAD 2000
 90
0
280
0
281
0
  0
ENDSEC
  0
SECTION
  2
TABLES
  0
TABLE
  2
VPORT
  5
8
100
AcDbSymbolTable
 70
2
  0
VPORT
  5
1F4
100
AcDbSymbolTableRecord
100
AcDbViewportTableRecord
  2
*ACTIVE
 70
0
 10
0.0
 20
0.0
 11
1.0
 21
1.0
 12
148.5
 22
105.0
 13
0.0
 23
0.0
 14
1.0
 24
1.0
 15
0.0
 25
0.0
 16
0.0
 26
0.0
 36
1.0
 17
0.0
 27
0.0
 37
0.0
 40
210.0
 41
1.4142857143
 42
50.0
 43
0.0
 44
0.0
 50
0.0
 51
0.0
 71
0
 72
100
 73
1
 74
1
 75
0
 76
0
 77
0
 78
0
  0
ENDTAB
  0
TABLE
  2
LTYPE
  5
5
100
AcDbSymbolTable
 70
6
  0
LTYPE
  5
14
100
AcDbSymbolTableRecord
100
AcDbLinetypeTableRecord
  2
BYBLOCK
 70
0
  3

 72
65
 73
0
 40
0.0
  0
LTYPE
  5
15
100
AcDbSymbolTableRecord
100
AcDbLinetypeTableRecord
  2
BYLAYER
 70
0
  3

 72
65
 73
0
 40
0.0
  0
LTYPE
  5
16
100
AcDbSymbolTableRecord
100
AcDbLinetypeTableRecord
  2
CONTINUOUS
 70
64
  3
Solid line
 72
65
 73
0
 40
0.0
  0
LTYPE
  5
1F5
100
AcDbSymbolTableRecord
100
AcDbLinetypeTableRecord
  2
CENTER
 70
64
  3
____ _ ____ _ ____ _ ____ _ ____ _ ____ _ ____
 72
65
 73
4
 40
0.6
 49
0.375
 74
0
 49
-0.075
 74
0
 49
0.075
 74
0
 49
-0.075
 74
0
  0
LTYPE
  5
1F6
100
AcDbSymbolTableRecord
100
AcDbLinetypeTableRecord
  2
HIDDEN
 70
64
  3
- - - - - - - - - - - - - - - - - - - -
 72
65
 73
2
 40
0.2
 49
0.1
 74
0
 49
-0.1
 74
0
  0
LTYPE
  5
1F7
100
AcDbSymbolTableRecord
100
AcDbLinetypeTableRecord
  2
PHANTOM
 70
64
  3
_____ _ _ _____ _ _ _____ _ _ _____
 72
65
 73
6
 40
0.8
 49
0.45
 74
0
 49
-0.05
 74
0
 49
0.1
 74
0
 49
-0.05
 74
0
 49
0.1
 74
0
 49
-0.05
 74
0
  0
LTYPE
  5
1F8
100
AcDbSymbolTableRecord
100
AcDbLinetypeTableRecord
  2
DOT
 70
64
  3
. . . . . . . . . . . . . . . . . . . .
 72
65
 73
2
 40
0.2
 49
0.1
 74
0
 49
-0.1
 74
0
  0
LTYPE
  5
1F9
100
AcDbSymbolTableRecord
100
AcDbLinetypeTableRecord
  2
DASHED
 70
64
  3
- - - - - - - - - - - - - - - - - - - -
 72
65
 73
2
 40
0.2
 49
0.1
 74
0
 49
-0.1
 74
0
  0
ENDTAB
  0
TABLE
  2
LAYER
  5
2
100
AcDbSymbolTable
 70
36
  0
LAYER
  5
10
100
AcDbSymbolTableRecord
100
AcDbLayerTableRecord
  2
0
 70
0
 62
7
  6
CONTINUOUS
370
-3
390
F
  0
LAYER
  5
1FA
100
AcDbSymbolTableRecord
100
AcDbLayerTableRecord
  2
DEFAULT_1
 70
0
 62
7
  6
CENTER
370
-3
390
F
  0
LAYER
  5
1FB
100
AcDbSymbolTableRecord
100
AcDbLayerTableRecord
  2
DEFAULT_2
 70
0
 62
7
  6
HIDDEN
370
-3
390
F
  0
LAYER
  5
1FC
100
AcDbSymbolTableRecord
100
AcDbLayerTableRecord
  2
DEFAULT_3
 70
0
 62
7
  6
PHANTOM
370
-3
390
F
  0
LAYER
  5
1FD
100
AcDbSymbolTableRecord
100
AcDbLayerTableRecord
  2
ASSI
 70
0
 62
7
  6
CONTINUOUS
370
-3
390
F
  0
LAYER
  5
1FE
100
AcDbSymbolTableRecord
100
AcDbLayerTableRecord
  2
CN-MRT4P5_3SQV01-VIMAR_1600000
 70
0
 62
7
  6
CONTINUOUS
370
-3
390
F
  0
LAYER
  5
1FF
100
AcDbSymbolTableRecord
100
AcDbLayerTableRecord
  2
COLOR5
 70
0
 62
7
  6
CONTINUOUS
370
-3
390
F
  0
LAYER
  5
200
100
AcDbSymbolTableRecord
100
AcDbLayerTableRecord
  2
COLORE_MATERIALE
 70
0
 62
7
  6
CONTINUOUS
370
-3
390
F
  0
LAYER
  5
201
100
AcDbSymbolTableRecord
100
AcDbLayerTableRecord
  2
COORDINATE
 70
0
 62
7
  6
CONTINUOUS
370
-3
390
F
  0
LAYER
  5
202
100
AcDbSymbolTableRecord
100
AcDbLayerTableRecord
  2
COORD_ORIGINE
 70
0
 62
7
  6
CONTINUOUS
370
-3
390
F
  0
LAYER
  5
203
100
AcDbSymbolTableRecord
100
AcDbLayerTableRecord
  2
COPY_PUBLISH
 70
0
 62
7
  6
CONTINUOUS
370
-3
390
F
  0
LAYER
  5
204
100
AcDbSymbolTableRecord
100
AcDbLayerTableRecord
  2
COSMETIC
 70
0
 62
7
  6
CONTINUOUS
370
-3
390
F
  0
LAYER
  5
205
100
AcDbSymbolTableRecord
100
AcDbLayerTableRecord
  2
CURVE
 70
0
 62
7
  6
CONTINUOUS
370
-3
390
F
  0
LAYER
  5
206
100
AcDbSymbolTableRecord
100
AcDbLayerTableRecord
  2
DRAFT
 70
0
 62
7
  6
CONTINUOUS
370
-3
390
F
  0
LAYER
  5
207
100
AcDbSymbolTableRecord
100
AcDbLayerTableRecord
  2
IMPORT_IGES
 70
0
 62
7
  6
CONTINUOUS
370
-3
390
F
  0
LAYER
  5
208
100
AcDbSymbolTableRecord
100
AcDbLayerTableRecord
  2
INCISIONI
 70
0
 62
7
  6
CONTINUOUS
370
-3
390
F
  0
LAYER
  5
209
100
AcDbSymbolTableRecord
100
AcDbLayerTableRecord
  2
INTF_1
 70
0
 62
7
  6
CONTINUOUS
370
-3
390
F
  0
LAYER
  5
20A
100
AcDbSymbolTableRecord
100
AcDbLayerTableRecord
  2
INTF_RED
 70
0
 62
7
  6
CONTINUOUS
370
-3
390
F
  0
LAYER
  5
20B
100
AcDbSymbolTableRecord
100
AcDbLayerTableRecord
  2
NOTE
 70
0
 62
7
  6
CONTINUOUS
370
-3
390
F
  0
LAYER
  5
20C
100
AcDbSymbolTableRecord
100
AcDbLayerTableRecord
  2
PIANI
 70
0
 62
7
  6
CONTINUOUS
370
-3
390
F
  0
LAYER
  5
20D
100
AcDbSymbolTableRecord
100
AcDbLayerTableRecord
  2
PIANI_DI_RIFERIMENTO
 70
0
 62
7
  6
CONTINUOUS
370
-3
390
F
  0
LAYER
  5
20E
100
AcDbSymbolTableRecord
100
AcDbLayerTableRecord
  2
PIANI_ORIGINE
 70
0
 62
7
  6
CONTINUOUS
370
-3
390
F
  0
LAYER
  5
20F
100
AcDbSymbolTableRecord
100
AcDbLayerTableRecord
  2
PIANI_RIFERIMENTO
 70
0
 62
7
  6
CONTINUOUS
370
-3
390
F
  0
LAYER
  5
210
100
AcDbSymbolTableRecord
100
AcDbLayerTableRecord
  2
PUBLISHED_GEOMETRY
 70
0
 62
7
  6
CONTINUOUS
370
-3
390
F
  0
LAYER
  5
211
100
AcDbSymbolTableRecord
100
AcDbLayerTableRecord
  2
PUNTI
 70
0
 62
7
  6
CONTINUOUS
370
-3
390
F
  0
LAYER
  5
212
100
AcDbSymbolTableRecord
100
AcDbLayerTableRecord
  2
RACCORDO
 70
0
 62
7
  6
CONTINUOUS
370
-3
390
F
  0
LAYER
  5
213
100
AcDbSymbolTableRecord
100
AcDbLayerTableRecord
  2
SKEL
 70
0
 62
7
  6
CONTINUOUS
370
-3
390
F
  0
LAYER
  5
214
100
AcDbSymbolTableRecord
100
AcDbLayerTableRecord
  2
SMUSSO
 70
0
 62
7
  6
CONTINUOUS
370
-3
390
F
  0
LAYER
  5
215
100
AcDbSymbolTableRecord
100
AcDbLayerTableRecord
  2
SNAPLINE
 70
0
 62
7
  6
CONTINUOUS
370
-3
390
F
  0
LAYER
  5
216
100
AcDbSymbolTableRecord
100
AcDbLayerTableRecord
  2
SUPERFICI
 70
0
 62
7
  6
CONTINUOUS
370
-3
390
F
  0
LAYER
  5
217
100
AcDbSymbolTableRecord
100
AcDbLayerTableRecord
  2
TRASH
 70
0
 62
7
  6
CONTINUOUS
370
-3
390
F
  0
LAYER
  5
218
100
AcDbSymbolTableRecord
100
AcDbLayerTableRecord
  2
XSEC_DATUMS
 70
0
 62
7
  6
CONTINUOUS
370
-3
390
F
  0
LAYER
  5
219
100
AcDbSymbolTableRecord
100
AcDbLayerTableRecord
  2
___SHELL
 70
0
 62
7
  6
CONTINUOUS
370
-3
390
F
  0
ENDTAB
  0
TABLE
  2
STYLE
  5
3
100
AcDbSymbolTable
 70
1
  0
STYLE
  5
11
100
AcDbSymbolTableRecord
100
AcDbTextStyleTableRecord
  2
STANDARD
 70
0
 40
0.0
 41
0.8
 50
0.0
 71
0
 42
0.2
  3
txt
  4

  0
STYLE
  5
21A
100
AcDbSymbolTableRecord
100
AcDbTextStyleTableRecord
  2
TEXTSTYLE_1
 70
0
 40
0.0
 41
0.8
 50
0.0
 71
0
 42
0.2
  3
gdt
  4

  0
ENDTAB
  0
TABLE
  2
VIEW
  5
6
100
AcDbSymbolTable
 70
0
  0
ENDTAB
  0
TABLE
  2
UCS
  5
7
100
AcDbSymbolTable
 70
0
  0
ENDTAB
  0
TABLE
  2
APPID
  5
9
100
AcDbSymbolTable
 70
1
  0
APPID
  5
21B
100
AcDbSymbolTableRecord
100
AcDbRegAppTableRecord
  2
ACAD
 70
0
  0
ENDTAB
  0
TABLE
  2
BLOCK_RECORD
  5
1
100
AcDbSymbolTable
 70
0
  0
BLOCK_RECORD
  5
21C
100
AcDbSymbolTableRecord
100
AcDbBlockTableRecord
  2
*Model_Space
  0
BLOCK_RECORD
  5
21D
100
AcDbSymbolTableRecord
100
AcDbBlockTableRecord
  2
*Paper_Space
  0
ENDTAB
  0
TABLE
  2
DIMSTYLE
  5
A
100
AcDbSymbolTable
 70
1
100
AcDbDimStyleTable
 71
0
  0
DIMSTYLE
105
21E
100
AcDbSymbolTableRecord
100
AcDbDimStyleTableRecord
  2
STANDARD
 70
0
  3

  4

 40
1.0
 41
3.0
 42
0.0625
 43
0.38
 44
0.18
 45
0.0
 46
0.0
 47
0.01
 48
0.01
140
3.0
141
0.09
142
0.0
143
25.4
144
1.0
145
0.0
146
1.0
147
0.09
 71
1.0
 72
0.0
 73
0
 74
0
 75
0
 76
0
 77
1
 78
8
170
0
171
2
172
0
173
0
174
0
175
0
176
0
177
0
178
0
270
2
271
2
272
2
273
2
274
2
275
0
280
0
281
0
282
0
283
1
284
8
285
0
286
0
287
3
288
0
340
11
  0
ENDTAB
  0
ENDSEC
  0
SECTION
  2
BLOCKS
  0
BLOCK
  5
20
100
AcDbEntity
  8
0
100
AcDbBlockBegin
  2
*Model_Space
 70
0
 10
0.0
 20
0.0
 30
0.0
  3
*Model_Space
  1

  0
ENDBLK
  5
21
100
AcDbEntity
  8
0
100
AcDbBlockEnd
  0
BLOCK
  5
1C
100
AcDbEntity
  8
0
100
AcDbBlockBegin
  2
*Paper_Space
 70
0
 10
0.0
 20
0.0
 30
0.0
  3
*Paper_Space
  1

  0
ENDBLK
  5
1D
100
AcDbEntity
  8
0
100
AcDbBlockEnd
  0
ENDSEC
  0
SECTION
  2
ENTITIES
  0
LWPOLYLINE
  5
21F
100
AcDbEntity
  8
SUPERFICI
100
AcDbPolyline
 62
7
  6
CONTINUOUS
 90
14
 70
0
 10
-18.0508103521
 20
20.546880587
 10
-18.1220808922
 20
20.5009710605
 10
-18.1865652785
 20
20.4513484433
 10
-18.2479565794
 20
20.3960465907
 10
-18.3059933259
 20
20.335416236
 10
-18.3600336768
 20
20.2702888988
 10
-18.4100334029
 20
20.2008749859
 10
-18.455826658
 20
20.127413697
 10
-18.496710416
 20
20.0510776542
 10
-18.5325797124
 20
19.9721409174
 10
-18.5632620855
 20
19.8908428885
 10
-18.5882316571
 20
19.8084421903
 10
-18.6073167688
 20
19.7254932676
 10
-18.6212447144
 20
19.6349790996
  0
LINE
  5
220
100
AcDbEntity
  8
SUPERFICI
100
AcDbLine
 62
7
  6
CONTINUOUS
 10
-18.0509782232
 20
20.5467829451
 11
-14.0191529761
 21
22.897706351
  0
LINE
  5
221
100
AcDbEntity
  8
SUPERFICI
100
AcDbLine
 62
253
  6
CONTINUOUS
 10
-17.8176241756
 20
20.538015552
 11
-13.9114422387
 21
22.8156774
  0
LINE
  5
222
100
AcDbEntity
  8
SUPERFICI
100
AcDbLine
 62
7
  6
CONTINUOUS
 10
-14.4785492984
 20
23.9122663332
 11
-12.8953776035
 21
24.7244633805
  0
LINE
  5
223
100
AcDbEntity
  8
SUPERFICI
100
AcDbLine
 62
253
  6
CONTINUOUS
 10
-14.3654636323
 20
23.9058183581
 11
-12.7827070291
 21
24.7178024554
  0
LINE
  5
224
100
AcDbEntity
  8
SUPERFICI
100
AcDbLine
 62
253
  6
CONTINUOUS
 10
-14.4785492882
 20
23.9122663385
 11
-14.4784689545
 21
23.9123075024
  0
LINE
  5
225
100
AcDbEntity
  8
SUPERFICI
100
AcDbLine
 62
253
  6
CONTINUOUS
 10
-12.6869255619
 20
23.0665493229
 11
-11.085644771
 21
23.8692713264
  0
LINE
  5
226
100
AcDbEntity
  8
SUPERFICI
100
AcDbLine
 62
253
  6
CONTINUOUS
 10
-12.5101518582
 20
22.761659784
 11
-10.9088710674
 21
23.5643817875
  0
LINE
  5
227
100
AcDbEntity
  8
SUPERFICI
100
AcDbLine
 62
7
  6
CONTINUOUS
 10
-12.8953756337
 20
24.7244643911
 11
-12.8936392163
 21
24.7253326141
  0
LINE
  5
228
100
AcDbEntity
  8
SUPERFICI
100
AcDbLine
 62
253
  6
CONTINUOUS
 10
-11.085644771
 20
23.8692713264
 11
-10.5573775993
 21
24.1327101464
  0
LINE
  5
229
100
AcDbEntity
  8
SUPERFICI
100
AcDbLine
 62
253
  6
CONTINUOUS
 10
-10.9088710674
 20
23.5643817875
 11
-10.3806038956
 21
23.8278206076
  0
LINE
  5
22A
100
AcDbEntity
  8
SUPERFICI
100
AcDbLine
 62
7
  6
CONTINUOUS
 10
-12.8936364524
 20
24.7253339605
 11
-12.3587692616
 21
24.985884713
  0
LINE
  5
22B
100
AcDbEntity
  8
SUPERFICI
100
AcDbLine
 62
253
  6
CONTINUOUS
 10
-12.7827070291
 20
24.7178024554
 11
-12.2482571505
 21
24.978149922
  0
LINE
  5
22C
100
AcDbEntity
  8
SUPERFICI
100
AcDbLine
 62
253
  6
CONTINUOUS
 10
-10.9088710674
 20
22.8373369351
 11
-10.3806038956
 21
23.4802890908
  0
LINE
  5
22D
100
AcDbEntity
  8
SUPERFICI
100
AcDbLine
 62
7
  6
CONTINUOUS
 10
-10.9088710674
 20
22.7478064687
 11
-10.3652433232
 21
23.4094539243
  0
LINE
  5
22E
100
AcDbEntity
  8
SUPERFICI
100
AcDbLine
 62
7
  6
CONTINUOUS
 10
-10.9088710674
 20
21.9622311266
 11
-11.7989312501
 21
21.4655502053
  0
LINE
  5
22F
100
AcDbEntity
  8
SUPERFICI
100
AcDbLine
 62
7
  6
CONTINUOUS
 10
-8.6107740285
 20
20.4369359824
 11
-9.3240516371
 21
20.0410815373
  0
LINE
  5
230
100
AcDbEntity
  8
SUPERFICI
100
AcDbLine
 62
7
  6
CONTINUOUS
 10
-8.92897208
 20
22.357922279
 11
-9.9834615115
 21
21.8169492403
  0
LINE
  5
231
100
AcDbEntity
  8
SUPERFICI
100
AcDbLine
 62
253
  6
CONTINUOUS
 10
-6.6308732462
 20
21.2088728621
 11
-5.9439714609
 21
21.55343352
  0
LINE
  5
232
100
AcDbEntity
  8
SUPERFICI
100
AcDbLine
 62
7
  6
CONTINUOUS
 10
-9.3240516371
 20
21.4872443031
 11
-8.4689484383
 21
21.9134382934
  0
LINE
  5
233
100
AcDbEntity
  8
SUPERFICI
100
AcDbLine
 62
253
  6
CONTINUOUS
 10
-6.8456864603
 20
21.1018073044
 11
-6.6308732462
 21
21.2088728621
  0
LINE
  5
234
100
AcDbEntity
  8
SUPERFICI
100
AcDbLine
 62
7
  6
CONTINUOUS
 10
-7.5889197053
 20
22.3759076422
 11
-2.9762768493
 21
24.6491298321
  0
LINE
  5
235
100
AcDbEntity
  8
SUPERFICI
100
AcDbLine
 62
7
  6
CONTINUOUS
 10
-3.2513175814
 20
23.1181399723
 11
-2.8398520127
 21
23.3209201767
  0
LINE
  5
236
100
AcDbEntity
  8
SUPERFICI
100
AcDbLine
 62
7
  6
CONTINUOUS
 10
-0.1253033582
 20
24.2972840378
 11
-2.260438962
 21
23.2450374659
  0
LINE
  5
237
100
AcDbEntity
  8
SUPERFICI
100
AcDbLine
 62
7
  6
CONTINUOUS
 10
-3.5927486741
 20
24.9573657445
 11
-8.92897208
 21
22.357922279
  0
LINE
  5
238
100
AcDbEntity
  8
SUPERFICI
100
AcDbLine
 62
7
  6
CONTINUOUS
 10
-3.0845392977
 20
25.7769020076
 11
-10.2058781131
 21
22.3128030422
  0
LINE
  5
239
100
AcDbEntity
  8
RACCORDO
100
AcDbLine
 62
7
  6
CONTINUOUS
 10
4.4767379293
 20
28.7450616849
 11
-2.2141918188
 21
25.5896377517
  0
LINE
  5
23A
100
AcDbEntity
  8
RACCORDO
100
AcDbLine
 62
253
  6
CONTINUOUS
 10
4.9156226798
 20
28.7126587499
 11
-1.9678142457
 21
25.4664489651
  0
LINE
  5
23B
100
AcDbEntity
  8
SUPERFICI
100
AcDbLine
 62
253
  6
CONTINUOUS
 10
1.923054097
 20
-23.9711440449
 11
1.3947869253
 21
-23.8626417678
  0
LINE
  5
23C
100
AcDbEntity
  8
SUPERFICI
100
AcDbLine
 62
253
  6
CONTINUOUS
 10
1.8336403017
 20
-23.6515772389
 11
1.3947869253
 21
-23.5614399122
  0
LWPOLYLINE
  5
23D
100
AcDbEntity
  8
SUPERFICI
100
AcDbPolyline
 62
7
  6
CONTINUOUS
 90
12
 70
0
 10
-3.3300598626
 20
-25.131389766
 10
-3.3138248173
 20
-25.1392620826
 10
-3.2586484807
 20
-25.1622961251
 10
-3.2011599848
 20
-25.1806651669
 10
-3.1418467317
 20
-25.1941152641
 10
-3.0810257826
 20
-25.2024999934
 10
-3.018785244
 20
-25.205697172
 10
-2.9554905428
 20
-25.2035513728
 10
-2.8915818883
 20
-25.1959563298
 10
-2.827162422
 20
-25.1827866869
 10
-2.762464974
 20
-25.1639063432
 10
-2.7040159617
 20
-25.1418373954
  0
LINE
  5
23E
100
AcDbEntity
  8
SUPERFICI
100
AcDbLine
 62
7
  6
CONTINUOUS
 10
-3.3295333473
 20
-25.1316538185
 11
-18.2242552233
 21
-17.6842928806
  0
LINE
  5
23F
100
AcDbEntity
  8
SUPERFICI
100
AcDbLine
 62
253
  6
CONTINUOUS
 10
-3.5837244238
 20
-24.7148659992
 11
-18.4740385426
 21
-17.2697089398
  0
LINE
  5
240
100
AcDbEntity
  8
SUPERFICI
100
AcDbLine
 62
7
  6
CONTINUOUS
 10
-1.8968509846
 20
-24.8030227183
 11
-0.4940425288
 21
-25.5044269462
  0
LINE
  5
241
100
AcDbEntity
  8
SUPERFICI
100
AcDbLine
 62
253
  6
CONTINUOUS
 10
-1.7851567698
 20
-24.7561380238
 11
-0.5590158252
 21
-25.3692084961
  0
LINE
  5
242
100
AcDbEntity
  8
SUPERFICI
100
AcDbLine
 62
253
  6
CONTINUOUS
 10
-0.5590158252
 20
-25.0292345619
 11
-1.4155232102
 21
-24.6009808695
  0
LINE
  5
243
100
AcDbEntity
  8
SUPERFICI
100
AcDbLine
 62
253
  6
CONTINUOUS
 10
-0.4706274776
 20
-24.7975403881
 11
-1.1155661201
 21
-24.4750710669
  0
LWPOLYLINE
  5
244
100
AcDbEntity
  8
SUPERFICI
100
AcDbPolyline
 62
7
  6
CONTINUOUS
 90
9
 70
0
 10
-18.5457491665
 20
-17.3519832016
 10
-18.516075516
 20
-17.4080925035
 10
-18.4824748415
 20
-17.4605147162
 10
-18.445224691
 20
-17.5090732106
 10
-18.4043501101
 20
-17.5538747176
 10
-18.3601860327
 20
-17.5946240223
 10
-18.3130686809
 20
-17.6310992594
 10
-18.2629629592
 20
-17.6633491156
 10
-18.2238709276
 20
-17.6844844672
  0
LWPOLYLINE
  5
245
100
AcDbEntity
  8
SUPERFICI
100
AcDbPolyline
 62
7
  6
CONTINUOUS
 90
10
 70
0
 10
-19.3083893169
 20
-7.3067415855
 10
-19.2858643482
 20
-8.3769874672
 10
-19.248857606
 20
-9.5033882993
 10
-19.1983309799
 20
-10.6220781156
 10
-19.1342933948
 20
-11.7328198255
 10
-19.0567561976
 20
-12.8353809306
 10
-18.965733318
 20
-13.9295284263
 10
-18.8612409604
 20
-15.015033076
 10
-18.7432981837
 20
-16.0916640392
 10
-18.6203248311
 20
-17.0943413603
  0
LWPOLYLINE
  5
246
100
AcDbEntity
  8
SUPERFICI
100
AcDbPolyline
 62
7
  6
CONTINUOUS
 90
10
 70
0
 10
-19.3083911497
 20
9.1465310253
 10
-19.3325768814
 20
7.355210439
 10
-19.3514491335
 20
5.502489997
 10
-19.364027565
 20
3.6529376058
 10
-19.3703119085
 20
1.8065878512
 10
-19.3703020194
 20
-0.03652699
 10
-19.3639978444
 20
-1.8763752815
 10
-19.3513994203
 20
-3.7129248419
 10
-19.3325069077
 20
-5.5461413062
 10
-19.3083893154
 20
-7.3067417443
  0
LWPOLYLINE
  5
247
100
AcDbEntity
  8
SUPERFICI
100
AcDbPolyline
 62
7
  6
CONTINUOUS
 90
10
 70
0
 10
-18.6212287904
 20
19.6351213453
 10
-18.7446115938
 20
18.5010505026
 10
-18.8622957417
 20
17.3042340206
 10
-18.9665682651
 20
16.1122593209
 10
-19.0574057507
 20
14.9253787272
 10
-19.13478756
 20
13.7438412619
 10
-19.198695342
 20
12.5678981232
 10
-19.2491134579
 20
11.3977961086
 10
-19.2860287372
 20
10.2337833617
 10
-19.3083911502
 20
9.1465308877
  0
LINE
  5
248
100
AcDbEntity
  8
SUPERFICI
100
AcDbLine
 62
7
  6
CONTINUOUS
 10
-6.704681856
 20
19.6330752143
 11
-6.489453685
 21
19.7525224354
  0
LINE
  5
249
100
AcDbEntity
  8
DRAFT
100
AcDbLine
 62
7
  6
CONTINUOUS
 10
-3.3781838477
 20
20.9108607975
 11
-3.994159752
 21
20.5785276656
  0
LINE
  5
24A
100
AcDbEntity
  8
SUPERFICI
100
AcDbLine
 62
7
  6
CONTINUOUS
 10
-5.0241164615
 20
20.3655945985
 11
-5.2358034883
 21
20.2563658321
  0
LINE
  5
24B
100
AcDbEntity
  8
SUPERFICI
100
AcDbLine
 62
253
  6
CONTINUOUS
 10
-4.9338205613
 20
20.3603465196
 11
-5.1449169188
 21
20.2514225336
  0
LINE
  5
24C
100
AcDbEntity
  8
SUPERFICI
100
AcDbLine
 62
7
  6
CONTINUOUS
 10
-3.5216549409
 20
19.4397915446
 11
-4.361962514
 21
19.0061997415
  0
LINE
  5
24D
100
AcDbEntity
  8
DRAFT
100
AcDbLine
 62
7
  6
CONTINUOUS
 10
-3.2370909887
 20
21.1144401687
 11
-4.1417985476
 21
20.6523470634
  0
LINE
  5
24E
100
AcDbEntity
  8
DRAFT
100
AcDbLine
 62
7
  6
CONTINUOUS
 10
-5.3440941674
 20
20.0382563432
 11
-5.3939750781
 21
20.0127789116
  0
LINE
  5
24F
100
AcDbEntity
  8
SUPERFICI
100
AcDbLine
 62
7
  6
CONTINUOUS
 10
-6.489453685
 20
19.7525224354
 11
-5.7927677794
 21
20.1024917542
  0
LINE
  5
250
100
AcDbEntity
  8
SUPERFICI
100
AcDbLine
 62
253
  6
CONTINUOUS
 10
-6.489453685
 20
20.964963863
 11
-5.8013284838
 21
21.3101382054
  0
LINE
  5
251
100
AcDbEntity
  8
SUPERFICI
100
AcDbLine
 62
7
  6
CONTINUOUS
 10
-2.2587527583
 20
22.6758686784
 11
-1.1668697961
 21
23.2218101595
  0
LINE
  5
252
100
AcDbEntity
  8
SUPERFICI
100
AcDbLine
 62
7
  6
CONTINUOUS
 10
-5.0224126736
 20
20.3664465964
 11
-5.0241139763
 21
20.3655958809
  0
LINE
  5
253
100
AcDbEntity
  8
SUPERFICI
100
AcDbLine
 62
253
  6
CONTINUOUS
 10
-6.704681856
 20
20.8576914856
 11
-6.489453685
 21
20.964963863
  0
LINE
  5
254
100
AcDbEntity
  8
SUPERFICI
100
AcDbLine
 62
7
  6
CONTINUOUS
 10
2.0222985169
 20
22.149842149
 11
-2.5898759819
 21
19.8763857805
  0
LINE
  5
255
100
AcDbEntity
  8
SUPERFICI
100
AcDbLine
 62
7
  6
CONTINUOUS
 10
-4.3231354686
 20
20.7050960012
 11
-5.0224109057
 21
20.3664474532
  0
LINE
  5
256
100
AcDbEntity
  8
SUPERFICI
100
AcDbLine
 62
253
  6
CONTINUOUS
 10
-4.2348242263
 20
20.6988599027
 11
-4.9338205613
 21
20.3603465196
  0
LINE
  5
257
100
AcDbEntity
  8
RACCORDO
100
AcDbLine
 62
7
  6
CONTINUOUS
 10
-13.6289382721
 20
15.4464630962
 11
-13.6267849548
 21
15.4474820396
  0
LINE
  5
258
100
AcDbEntity
  8
RACCORDO
100
AcDbLine
 62
7
  6
CONTINUOUS
 10
-2.5298034942
 20
21.6125451449
 11
-2.4150348838
 21
21.6656607348
  0
LINE
  5
259
100
AcDbEntity
  8
RACCORDO
100
AcDbLine
 62
253
  6
CONTINUOUS
 10
-2.3175775238
 20
21.5929932008
 11
-2.2343320756
 21
21.6314387075
  0
LINE
  5
25A
100
AcDbEntity
  8
DRAFT
100
AcDbLine
 62
7
  6
CONTINUOUS
 10
-3.3024603713
 20
20.9458324083
 11
-3.3781838477
 21
20.9108607975
  0
LINE
  5
25B
100
AcDbEntity
  8
RACCORDO
100
AcDbLine
 62
7
  6
CONTINUOUS
 10
-2.4002541135
 20
21.6724345529
 11
-2.4150348838
 21
21.6656607348
  0
LINE
  5
25C
100
AcDbEntity
  8
RACCORDO
100
AcDbLine
 62
7
  6
CONTINUOUS
 10
-2.3897946805
 20
21.6771533651
 11
-2.4002541135
 21
21.6724345529
  0
LINE
  5
25D
100
AcDbEntity
  8
RACCORDO
100
AcDbLine
 62
7
  6
CONTINUOUS
 10
-2.3788531968
 20
21.6820130238
 11
-2.3897946805
 21
21.6771533651
  0
LWPOLYLINE
  5
25E
100
AcDbEntity
  8
RACCORDO
100
AcDbPolyline
 62
7
  6
CONTINUOUS
 90
14
 70
0
 10
-13.6289239366
 20
15.4464693958
 10
-13.4864338684
 20
15.5088835648
 10
-13.2838244436
 20
15.5810161211
 10
-13.0763498279
 20
15.6362026322
 10
-12.8644311535
 20
15.6745089925
 10
-12.6486110163
 20
15.6959577471
 10
-12.4295675208
 20
15.7006000606
 10
-12.2079652921
 20
15.6885327346
 10
-11.9844016366
 20
15.6598974405
 10
-11.7596384909
 20
15.6149028195
 10
-11.5346555466
 20
15.55389905
 10
-11.3102595921
 20
15.4773137755
 10
-11.0870423751
 20
15.3855683688
 10
-10.9149741395
 20
15.3041992648
  0
LINE
  5
25F
100
AcDbEntity
  8
RACCORDO
100
AcDbLine
 62
7
  6
CONTINUOUS
 10
-2.3674306654
 20
21.6869956342
 11
-2.3788531968
 21
21.6820130238
  0
LINE
  5
260
100
AcDbEntity
  8
RACCORDO
100
AcDbLine
 62
7
  6
CONTINUOUS
 10
-2.3554749733
 20
21.6921057842
 11
-2.3674306654
 21
21.6869956342
  0
LINE
  5
261
100
AcDbEntity
  8
SUPERFICI
100
AcDbLine
 62
253
  6
CONTINUOUS
 10
1.8570540742
 20
-23.6596639756
 11
1.8569434234
 21
-23.6596087435
  0
LINE
  5
262
100
AcDbEntity
  8
SUPERFICI
100
AcDbLine
 62
7
  6
CONTINUOUS
 10
0.1522047829
 20
-24.0527380848
 11
0.03279774
 21
-23.9930345634
  0
LINE
  5
263
100
AcDbEntity
  8
SUPERFICI
100
AcDbLine
 62
253
  6
CONTINUOUS
 10
1.3947869253
 20
-23.4321505507
 11
1.8336403017
 21
-23.6515772389
  0
LINE
  5
264
100
AcDbEntity
  8
SUPERFICI
100
AcDbLine
 62
7
  6
CONTINUOUS
 10
1.3947869253
 20
-23.4285304011
 11
1.8570553529
 21
-23.6596646149
  0
LWPOLYLINE
  5
265
100
AcDbEntity
  8
SUPERFICI
100
AcDbPolyline
 62
7
  6
CONTINUOUS
 90
5
 70
0
 10
-18.6202910047
 20
-17.0946005935
 10
-18.6088206667
 20
-17.1629846446
 10
-18.5922977276
 20
-17.2294801225
 10
-18.5711953337
 20
-17.2924855567
 10
-18.5457491665
 20
-17.3519832016
  0
LINE
  5
266
100
AcDbEntity
  8
SUPERFICI
100
AcDbLine
 62
7
  6
CONTINUOUS
 10
-18.6203248311
 20
-17.0943413603
 11
-18.6202911696
 21
-17.0946006149
  0
LINE
  5
267
100
AcDbEntity
  8
RACCORDO
100
AcDbLine
 62
7
  6
CONTINUOUS
 10
-3.8215300848
 20
20.4922128319
 11
-2.5678055824
 21
21.5878536734
  0
LINE
  5
268
100
AcDbEntity
  8
RACCORDO
100
AcDbLine
 62
253
  6
CONTINUOUS
 10
-3.6676948066
 20
20.4152951929
 11
-2.3191767514
 21
21.5937769518
  0
LINE
  5
269
100
AcDbEntity
  8
SUPERFICI
100
AcDbLine
 62
7
  6
CONTINUOUS
 10
-2.6357217275
 20
17.8256564566
 11
-3.7025526396
 21
17.2303320386
  0
LINE
  5
26A
100
AcDbEntity
  8
SUPERFICI
100
AcDbLine
 62
7
  6
CONTINUOUS
 10
-2.1748913058
 20
17.7604373369
 11
-0.5917196108
 21
18.5726343842
  0
LINE
  5
26B
100
AcDbEntity
  8
SUPERFICI
100
AcDbLine
 62
253
  6
CONTINUOUS
 10
-2.0618056396
 20
17.7539893617
 11
-0.4790490365
 21
18.5659734591
  0
LINE
  5
26C
100
AcDbEntity
  8
SUPERFICI
100
AcDbLine
 62
7
  6
CONTINUOUS
 10
-3.7025526396
 20
18.6764948044
 11
-2.6357217275
 21
19.2112971027
  0
LINE
  5
26D
100
AcDbEntity
  8
0
100
AcDbLine
 62
7
  6
CONTINUOUS
 10
-14.0870971695
 20
12.7850266542
 11
-10.0939174238
 21
14.781616527
  0
LINE
  5
26E
100
AcDbEntity
  8
SUPERFICI
100
AcDbLine
 62
7
  6
CONTINUOUS
 10
-0.5917176411
 20
18.5726353947
 11
-0.5899812237
 21
18.5735036178
  0
LINE
  5
26F
100
AcDbEntity
  8
RACCORDO
100
AcDbLine
 62
253
  6
CONTINUOUS
 10
-11.4716325459
 20
12.1649240059
 11
-8.8307582054
 21
13.4853611761
  0
LINE
  5
270
100
AcDbEntity
  8
SUPERFICI
100
AcDbLine
 62
7
  6
CONTINUOUS
 10
-2.6357217275
 20
19.2112971027
 11
2.6387703417
 21
21.8416062366
  0
LINE
  5
271
100
AcDbEntity
  8
SUPERFICI
100
AcDbLine
 62
7
  6
CONTINUOUS
 10
-2.6357217275
 20
17.8256564566
 11
2.6715889387
 21
20.4723317267
  0
LINE
  5
272
100
AcDbEntity
  8
SUPERFICI
100
AcDbLine
 62
7
  6
CONTINUOUS
 10
2.8024237898
 20
21.5200164739
 11
4.1251862514
 21
22.172039233
  0
LINE
  5
273
100
AcDbEntity
  8
SUPERFICI
100
AcDbLine
 62
7
  6
CONTINUOUS
 10
-0.5899784597
 20
18.5735049642
 11
-0.0551112689
 21
18.8340557167
  0
LINE
  5
274
100
AcDbEntity
  8
SUPERFICI
100
AcDbLine
 62
253
  6
CONTINUOUS
 10
-0.4790490365
 20
18.5659734591
 11
0.0554008422
 21
18.8263209256
  0
LINE
  5
275
100
AcDbEntity
  8
SUPERFICI
100
AcDbLine
 62
7
  6
CONTINUOUS
 10
-14.614435193
 20
23.6898298907
 11
-14.614435193
 21
23.3498559566
  0
LINE
  5
276
100
AcDbEntity
  8
SUPERFICI
100
AcDbLine
 62
253
  6
CONTINUOUS
 10
-14.5412118883
 20
23.6014415431
 11
-14.5412118883
 21
23.261467609
  0
LINE
  5
277
100
AcDbEntity
  8
SUPERFICI
100
AcDbLine
 62
7
  6
CONTINUOUS
 10
-13.9114422387
 20
22.8438509823
 11
-13.9114422387
 21
22.3898972403
  0
LINE
  5
278
100
AcDbEntity
  8
SUPERFICI
100
AcDbLine
 62
253
  6
CONTINUOUS
 10
-13.838218934
 20
22.8072393299
 11
-13.838218934
 21
22.2981651858
  0
LINE
  5
279
100
AcDbEntity
  8
SUPERFICI
100
AcDbLine
 62
253
  6
CONTINUOUS
 10
-12.8626738179
 20
22.4221985738
 11
-12.8626738179
 21
22.7621725079
  0
LINE
  5
27A
100
AcDbEntity
  8
SUPERFICI
100
AcDbLine
 62
253
  6
CONTINUOUS
 10
-12.5101518582
 20
22.4216858499
 11
-12.5101518582
 21
22.761659784
  0
LINE
  5
27B
100
AcDbEntity
  8
SUPERFICI
100
AcDbLine
 62
7
  6
CONTINUOUS
 10
1.3947869253
 20
15.8104021302
 11
0.5047267425
 21
15.313721209
  0
LINE
  5
27C
100
AcDbEntity
  8
SUPERFICI
100
AcDbLine
 62
253
  6
CONTINUOUS
 10
1.7486094405
 20
15.6334908726
 11
-2.915751423
 21
13.0870791757
  0
LINE
  5
27D
100
AcDbEntity
  8
SUPERFICI
100
AcDbLine
 62
7
  6
CONTINUOUS
 10
8.059477433
 20
19.3963387984
 11
2.0163582993
 21
16.201684836
  0
LINE
  5
27E
100
AcDbEntity
  8
DRAFT
100
AcDbLine
 62
7
  6
CONTINUOUS
 10
2.4683558008
 20
15.97498039
 11
8.7509234956
 21
19.2752758434
  0
LINE
  5
27F
100
AcDbEntity
  8
SUPERFICI
100
AcDbLine
 62
7
  6
CONTINUOUS
 10
8.059477433
 20
19.7964660587
 11
1.5990843071
 21
16.4103218321
  0
LINE
  5
280
100
AcDbEntity
  8
SUPERFICI
100
AcDbLine
 62
253
  6
CONTINUOUS
 10
2.449280757
 20
15.9852236071
 11
1.7483448032
 21
15.6336231913
  0
LINE
  5
281
100
AcDbEntity
  8
SUPERFICI
100
AcDbLine
 62
253
  6
CONTINUOUS
 10
2.8028296603
 20
15.3754511094
 11
2.1018937065
 21
15.0238506935
  0
LINE
  5
282
100
AcDbEntity
  8
SUPERFICI
100
AcDbLine
 62
253
  6
CONTINUOUS
 10
-0.3832675692
 20
16.9147203265
 11
1.2180132216
 21
17.71744233
  0
LINE
  5
283
100
AcDbEntity
  8
SUPERFICI
100
AcDbLine
 62
253
  6
CONTINUOUS
 10
-0.2064938656
 20
16.6098307877
 11
1.3947869253
 21
17.4125527912
  0
LINE
  5
284
100
AcDbEntity
  8
0
100
AcDbLine
 62
253
  6
CONTINUOUS
 10
-11.4383587497
 20
8.3260303571
 11
-12.9934551608
 21
7.5484821515
  0
LINE
  5
285
100
AcDbEntity
  8
SUPERFICI
100
AcDbLine
 62
7
  6
CONTINUOUS
 10
7.0844221909
 20
20.6924212633
 11
1.7625662602
 21
18.0347155875
  0
LINE
  5
286
100
AcDbEntity
  8
SUPERFICI
100
AcDbLine
 62
253
  6
CONTINUOUS
 10
1.2180132216
 20
17.71744233
 11
1.7462803933
 21
17.9808811501
  0
LINE
  5
287
100
AcDbEntity
  8
SUPERFICI
100
AcDbLine
 62
253
  6
CONTINUOUS
 10
1.3947869253
 20
17.4125527912
 11
1.923054097
 21
17.6759916113
  0
LINE
  5
288
100
AcDbEntity
  8
RACCORDO
100
AcDbLine
 62
253
  6
CONTINUOUS
 10
-4.2959268853
 20
-14.9170368378
 11
-8.2221417137
 21
-12.9538268965
  0
LINE
  5
289
100
AcDbEntity
  8
RACCORDO
100
AcDbLine
 62
253
  6
CONTINUOUS
 10
-15.2357282741
 20
-9.4470362979
 11
-19.1619379074
 21
-7.4840313267
  0
LWPOLYLINE
  5
28A
100
AcDbEntity
  8
RACCORDO
100
AcDbPolyline
 62
7
  6
CONTINUOUS
 90
19
 70
0
 10
-11.6244411742
 20
-9.6305178749
 10
-11.474421056
 20
-9.7086201789
 10
-11.2687803717
 20
-9.8256764192
 10
-11.0627488562
 20
-9.9545623784
 10
-10.8569104258
 20
-10.0950133459
 10
-10.6517424701
 20
-10.2467880755
 10
-10.4476544638
 20
-10.409675857
 10
-10.2451218594
 20
-10.5834000661
 10
-10.0447118406
 20
-10.7675688675
 10
-9.8469570041
 20
-10.9617734785
 10
-9.6523444449
 20
-11.1656056985
 10
-9.4613716251
 20
-11.3786122349
 10
-9.2745513036
 20
-11.6002738911
 10
-9.0923475092
 20
-11.8300859374
 10
-8.9152005421
 20
-12.0675272972
 10
-8.743557372
 20
-12.3120310702
 10
-8.5778261143
 20
-12.5630374987
 10
-8.4183950314
 20
-12.8199799376
 10
-8.3024189792
 20
-13.0175549962
  0
LWPOLYLINE
  5
28B
100
AcDbEntity
  8
RACCORDO
100
AcDbPolyline
 62
7
  6
CONTINUOUS
 90
33
 70
0
 10
-8.3024188066
 20
-13.0175557394
 10
-8.1759235017
 20
-13.2442586775
 10
-8.0177469547
 20
-13.5459079101
 10
-7.868734531
 20
-13.8515171847
 10
-7.7292409287
 20
-14.1601101177
 10
-7.5995534829
 20
-14.4707894274
 10
-7.4799133558
 20
-14.7827152641
 10
-7.3705880353
 20
-15.0949261552
 10
-7.271813271
 20
-15.4064569763
 10
-7.1837627892
 20
-15.7164542934
 10
-7.1066189313
 20
-16.0239637516
 10
-7.0405297822
 20
-16.3280328975
 10
-6.9856013501
 20
-16.6277842492
 10
-6.9419166124
 20
-16.9223062795
 10
-6.9095307541
 20
-17.2106718679
 10
-6.8884588373
 20
-17.4919590137
 10
-6.8786724168
 20
-17.7653110036
 10
-6.8801046062
 20
-18.0298518722
 10
-6.8926311204
 20
-18.284607056
 10
-6.9160750029
 20
-18.5288069121
 10
-6.9502111324
 20
-18.7617242329
 10
-6.9947124914
 20
-18.9824335459
 10
-7.0491393299
 20
-19.1900681151
 10
-7.1131325836
 20
-19.3843806372
 10
-7.1864141887
 20
-19.5653255449
 10
-7.2683830378
 20
-19.7321537061
 10
-7.3587180055
 20
-19.884909387
 10
-7.4577952182
 20
-20.0244895372
 10
-7.565160102
 20
-20.1502831686
 10
-7.6808580355
 20
-20.2623974092
 10
-7.8067753342
 20
-20.3621305047
 10
-7.9440672265
 20
-20.4492523304
 10
-7.9851758737
 20
-20.4715524698
  0
LINE
  5
28C
100
AcDbEntity
  8
SUPERFICI
100
AcDbLine
 62
253
  6
CONTINUOUS
 10
-12.1514532098
 20
21.4547823237
 11
-12.1514532098
 21
22.1436029466
  0
LINE
  5
28D
100
AcDbEntity
  8
SUPERFICI
100
AcDbLine
 62
253
  6
CONTINUOUS
 10
-11.7989312501
 20
21.4655502053
 11
-11.7989312501
 21
22.2731823271
  0
LINE
  5
28E
100
AcDbEntity
  8
SUPERFICI
100
AcDbLine
 62
7
  6
CONTINUOUS
 10
-10.9088710674
 20
21.9622311266
 11
-10.9088710674
 21
23.5643817875
  0
LINE
  5
28F
100
AcDbEntity
  8
SUPERFICI
100
AcDbLine
 62
253
  6
CONTINUOUS
 10
-10.3806038956
 20
23.8278206076
 11
-10.3806038956
 21
23.4802890908
  0
LINE
  5
290
100
AcDbEntity
  8
SUPERFICI
100
AcDbLine
 62
7
  6
CONTINUOUS
 10
-10.3084060386
 20
23.9156932398
 11
-10.3084060386
 21
23.568161723
  0
LINE
  5
291
100
AcDbEntity
  8
SUPERFICI
100
AcDbLine
 62
7
  6
CONTINUOUS
 10
-9.9834615115
 20
21.8169492403
 11
-9.9834615115
 21
20.3707864745
  0
LINE
  5
292
100
AcDbEntity
  8
SUPERFICI
100
AcDbLine
 62
7
  6
CONTINUOUS
 10
-9.3240516371
 20
20.0410815373
 11
-9.3240516371
 21
21.4872443031
  0
LINE
  5
293
100
AcDbEntity
  8
SUPERFICI
100
AcDbLine
 62
253
  6
CONTINUOUS
 10
1.938450929
 20
17.2576691878
 11
1.9384146692
 21
17.2576249277
  0
LINE
  5
294
100
AcDbEntity
  8
SUPERFICI
100
AcDbLine
 62
253
  6
CONTINUOUS
 10
1.3947869253
 20
16.6855079388
 11
1.923054097
 21
17.3284600945
  0
LINE
  5
295
100
AcDbEntity
  8
SUPERFICI
100
AcDbLine
 62
7
  6
CONTINUOUS
 10
1.3947869253
 20
16.5959774724
 11
1.9384146694
 21
17.2576249279
  0
LINE
  5
296
100
AcDbEntity
  8
SUPERFICI
100
AcDbLine
 62
253
  6
CONTINUOUS
 10
2.1018937065
 20
15.0236378461
 11
-2.549918683
 21
12.4840767299
  0
LINE
  5
297
100
AcDbEntity
  8
RACCORDO
100
AcDbLine
 62
253
  6
CONTINUOUS
 10
18.6767984238
 20
21.4245076899
 11
3.1019567932
 21
13.5007603549
  0
LINE
  5
298
100
AcDbEntity
  8
RACCORDO
100
AcDbLine
 62
253
  6
CONTINUOUS
 10
19.0909503514
 20
19.9928695781
 11
3.5407924584
 21
12.0816854361
  0
LINE
  5
299
100
AcDbEntity
  8
0
100
AcDbLine
 62
253
  6
CONTINUOUS
 10
-13.2221590248
 20
6.6171683496
 11
-13.4873240678
 21
6.4845858281
  0
LINE
  5
29A
100
AcDbEntity
  8
0
100
AcDbLine
 62
7
  6
CONTINUOUS
 10
-10.3752243269
 20
5.3612809689
 11
-6.8969201422
 21
7.1004330612
  0
LINE
  5
29B
100
AcDbEntity
  8
DRAFT
100
AcDbLine
 62
7
  6
CONTINUOUS
 10
2.8028296603
 20
12.4435461584
 11
3.503765614
 21
12.7863646506
  0
LINE
  5
29C
100
AcDbEntity
  8
RACCORDO
100
AcDbLine
 62
253
  6
CONTINUOUS
 10
9.4964504313
 20
17.9894320846
 11
18.0511758645
 21
22.1448821576
  0
LINE
  5
29D
100
AcDbEntity
  8
RACCORDO
100
AcDbLine
 62
253
  6
CONTINUOUS
 10
9.8341187652
 20
17.4070403576
 11
18.551099712
 21
21.6413058983
  0
LINE
  5
29E
100
AcDbEntity
  8
SUPERFICI
100
AcDbLine
 62
7
  6
CONTINUOUS
 10
3.503765614
 20
12.4872199841
 11
2.1018937065
 21
12.0793496649
  0
LINE
  5
29F
100
AcDbEntity
  8
SUPERFICI
100
AcDbLine
 62
7
  6
CONTINUOUS
 10
-8.6107740285
 20
21.6705503341
 11
-8.6107740285
 21
20.4369359824
  0
LINE
  5
2A0
100
AcDbEntity
  8
SUPERFICI
100
AcDbLine
 62
253
  6
CONTINUOUS
 10
-6.9862850651
 20
19.6246915007
 11
-6.9862850651
 21
20.8583058524
  0
LINE
  5
2A1
100
AcDbEntity
  8
SUPERFICI
100
AcDbLine
 62
253
  6
CONTINUOUS
 10
-6.704681856
 20
19.6330752143
 11
-6.704681856
 21
20.8576914856
  0
LINE
  5
2A2
100
AcDbEntity
  8
SUPERFICI
100
AcDbLine
 62
7
  6
CONTINUOUS
 10
-6.489453685
 20
19.7525224354
 11
-6.489453685
 21
20.964963863
  0
LINE
  5
2A3
100
AcDbEntity
  8
RACCORDO
100
AcDbLine
 62
7
  6
CONTINUOUS
 10
-8.1772738891
 20
4.0623625194
 11
-8.1772026722
 21
4.0624184028
  0
LWPOLYLINE
  5
2A4
100
AcDbEntity
  8
RACCORDO
100
AcDbPolyline
 62
7
  6
CONTINUOUS
 90
6
 70
0
 10
-8.1772026722
 20
4.0624184028
 10
-8.2171527622
 20
4.031783906
 10
-8.2933249971
 20
3.9771757347
 10
-8.3713734704
 20
3.9260888656
 10
-8.4512355269
 20
3.8785729992
 10
-8.5067213772
 20
3.8482278515
  0
LINE
  5
2A5
100
AcDbEntity
  8
RACCORDO
100
AcDbLine
 62
7
  6
CONTINUOUS
 10
-8.5063310021
 20
3.8484337652
 11
-8.5067257921
 21
3.8482253069
  0
LINE
  5
2A6
100
AcDbEntity
  8
0
100
AcDbLine
 62
7
  6
CONTINUOUS
 10
-14.0870971695
 20
0.4874659204
 11
-10.7834327091
 21
2.1392981506
  0
LINE
  5
2A7
100
AcDbEntity
  8
RACCORDO
100
AcDbLine
 62
7
  6
CONTINUOUS
 10
-14.2163573676
 20
2.8712279301
 11
-14.2133874057
 21
2.8726343253
  0
LWPOLYLINE
  5
2A8
100
AcDbEntity
  8
RACCORDO
100
AcDbPolyline
 62
7
  6
CONTINUOUS
 90
14
 70
0
 10
-14.216367234
 20
2.8712218168
 10
-14.0446721587
 20
2.94363154
 10
-13.8621089826
 20
3.0022527925
 10
-13.6741900829
 20
3.0449506099
 10
-13.480681022
 20
3.0720521428
 10
-13.2819546312
 20
3.0836539891
 10
-13.0787530197
 20
3.0798533157
 10
-12.8714495961
 20
3.0607874615
 10
-12.6606492516
 20
3.0266141944
 10
-12.447132461
 20
2.9775683794
 10
-12.2315688863
 20
2.91393403
 10
-12.0146488338
 20
2.8360431935
 10
-11.797097037
 20
2.7442999971
 10
-11.6297245311
 20
2.6645699003
  0
LINE
  5
2A9
100
AcDbEntity
  8
SUPERFICI
100
AcDbLine
 62
7
  6
CONTINUOUS
 10
-5.7927677794
 20
20.1024917542
 11
-5.8013284838
 21
21.3101382054
  0
LINE
  5
2AA
100
AcDbEntity
  8
DRAFT
100
AcDbLine
 62
253
  6
CONTINUOUS
 10
-3.2513175814
 20
23.1181399723
 11
-3.2370909887
 21
21.1144401687
  0
LINE
  5
2AB
100
AcDbEntity
  8
SUPERFICI
100
AcDbLine
 62
7
  6
CONTINUOUS
 10
-5.3440941674
 20
20.0786317598
 11
-5.3440941674
 21
18.8476782811
  0
LINE
  5
2AC
100
AcDbEntity
  8
SUPERFICI
100
AcDbLine
 62
253
  6
CONTINUOUS
 10
-5.2855155236
 20
20.0079210817
 11
-5.2855155236
 21
18.77430673
  0
LINE
  5
2AD
100
AcDbEntity
  8
SUPERFICI
100
AcDbLine
 62
7
  6
CONTINUOUS
 10
-4.361962514
 20
19.0061997415
 11
-4.361962514
 21
17.5600369758
  0
LINE
  5
2AE
100
AcDbEntity
  8
SUPERFICI
100
AcDbLine
 62
7
  6
CONTINUOUS
 10
-3.7025526396
 20
17.2303320386
 11
-3.7025526396
 21
18.6764948044
  0
LINE
  5
2AF
100
AcDbEntity
  8
SUPERFICI
100
AcDbLine
 62
7
  6
CONTINUOUS
 10
-2.7880228232
 20
24.6729629363
 11
-2.7880228232
 21
23.4251953482
  0
LINE
  5
2B0
100
AcDbEntity
  8
ASSI
100
AcDbLine
 62
7
  6
CONTINUOUS
 10
19.0909503514
 20
15.3080049341
 11
14.5628578328
 21
12.9635164008
  0
LINE
  5
2B1
100
AcDbEntity
  8
0
100
AcDbLine
 62
253
  6
CONTINUOUS
 10
-14.7944228299
 20
-2.3846942478
 11
-15.0595878728
 21
-2.5172767693
  0
LINE
  5
2B2
100
AcDbEntity
  8
0
100
AcDbLine
 62
253
  6
CONTINUOUS
 10
-12.4271603129
 20
-2.0848678379
 11
-13.9105393507
 21
-2.8265573568
  0
LINE
  5
2B3
100
AcDbEntity
  8
ASSI
100
AcDbLine
 62
7
  6
CONTINUOUS
 10
17.6580545461
 20
11.9503530107
 11
18.7896137425
 21
12.5161326089
  0
LINE
  5
2B4
100
AcDbEntity
  8
ASSI
100
AcDbLine
 62
253
  6
CONTINUOUS
 10
14.5628578328
 20
-12.3244253897
 11
13.7240724491
 21
-11.9050326979
  0
LWPOLYLINE
  5
2B5
100
AcDbEntity
  8
RACCORDO
100
AcDbPolyline
 62
7
  6
CONTINUOUS
 90
47
 70
0
 10
-11.6296625099
 20
2.664538686
 10
-11.4519798651
 20
2.5712517029
 10
-11.2189664791
 20
2.4354429613
 10
-10.9859077289
 20
2.2842230711
 10
-10.7535420048
 20
2.1179033734
 10
-10.5226850918
 20
1.9369151496
 10
-10.2941812115
 20
1.7417902817
 10
-10.0687817156
 20
1.5330612553
 10
-9.8472148643
 20
1.3113099538
 10
-9.6302313947
 20
1.0772028812
 10
-9.4185217475
 20
0.8314257394
 10
-9.2127537956
 20
0.5746956897
 10
-9.0135794721
 20
0.3077900719
 10
-8.8216136877
 20
0.0315010648
 10
-8.6374414534
 20
-0.2533446529
 10
-8.4616209505
 20
-0.5458915195
 10
-8.2946806714
 20
-0.8452562051
 10
-8.1371136273
 20
-1.150535893
 10
-7.9893783252
 20
-1.4608190079
 10
-7.8519016538
 20
-1.7751642142
 10
-7.7250805824
 20
-2.0926163258
 10
-7.6092665806
 20
-2.4122178496
 10
-7.5047849182
 20
-2.7329890563
 10
-7.4119140918
 20
-3.053953412
 10
-7.330895013
 20
-3.3741418099
 10
-7.2619338446
 20
-3.6925523707
 10
-7.2051868521
 20
-4.0082236778
 10
-7.1607674196
 20
-4.3202272895
 10
-7.128752824
 20
-4.6275997025
 10
-7.1091796139
 20
-4.9293825154
 10
-7.1020315308
 20
-5.2246415132
 10
-7.1072510575
 20
-5.5124597843
 10
-7.1247246635
 20
-5.7919346674
 10
-7.1542853265
 20
-6.0621316872
 10
-7.1956834022
 20
-6.3220817638
 10
-7.2486591063
 20
-6.5711424003
 10
-7.3129685171
 20
-6.8088420856
 10
-7.3881343838
 20
-7.034073621
 10
-7.4738718351
 20
-7.2465818806
 10
-7.5703648717
 20
-7.4469512864
 10
-7.6774477455
 20
-7.6346047492
 10
-7.7946894622
 20
-7.8086310087
 10
-7.9221102876
 20
-7.9688560524
 10
-8.0593417779
 20
-8.114570002
 10
-8.2062079979
 20
-8.2453597461
 10
-8.3633022091
 20
-8.3613291132
 10
-8.5477373318
 20
-8.4709803045
  0
LINE
  5
2B6
100
AcDbEntity
  8
SUPERFICI
100
AcDbLine
 62
253
  6
CONTINUOUS
 10
-2.3107771603
 20
17.5379301619
 11
-2.3107772003
 21
17.538000913
  0
LINE
  5
2B7
100
AcDbEntity
  8
SUPERFICI
100
AcDbLine
 62
7
  6
CONTINUOUS
 10
-2.6357217275
 20
17.8256564566
 11
-2.6357217275
 21
19.2112971027
  0
LINE
  5
2B8
100
AcDbEntity
  8
SUPERFICI
100
AcDbLine
 62
7
  6
CONTINUOUS
 10
-2.3107772003
 20
17.5380008944
 11
-2.3107772003
 21
17.1980269603
  0
LINE
  5
2B9
100
AcDbEntity
  8
SUPERFICI
100
AcDbLine
 62
253
  6
CONTINUOUS
 10
-2.2375538956
 20
17.4496125468
 11
-2.2375538956
 21
17.1096386126
  0
LINE
  5
2BA
100
AcDbEntity
  8
SUPERFICI
100
AcDbLine
 62
7
  6
CONTINUOUS
 10
-1.607784246
 20
16.692021986
 11
-1.607784246
 21
16.238068244
  0
LINE
  5
2BB
100
AcDbEntity
  8
SUPERFICI
100
AcDbLine
 62
253
  6
CONTINUOUS
 10
-1.5345609413
 20
16.6554103336
 11
-1.5345609413
 21
16.1463361895
  0
LINE
  5
2BC
100
AcDbEntity
  8
SUPERFICI
100
AcDbLine
 62
253
  6
CONTINUOUS
 10
-0.5590158252
 20
-25.3692084961
 11
-0.5590158252
 21
-25.0292345619
  0
LINE
  5
2BD
100
AcDbEntity
  8
SUPERFICI
100
AcDbLine
 62
253
  6
CONTINUOUS
 10
-0.5590158252
 20
16.2703695774
 11
-0.5590158252
 21
16.6103435116
  0
LINE
  5
2BE
100
AcDbEntity
  8
SUPERFICI
100
AcDbLine
 62
253
  6
CONTINUOUS
 10
-0.2064938656
 20
-25.3697212199
 11
-0.2064938656
 21
-25.0297472858
  0
LINE
  5
2BF
100
AcDbEntity
  8
SUPERFICI
100
AcDbLine
 62
253
  6
CONTINUOUS
 10
-0.2064938656
 20
16.2698568536
 11
-0.2064938656
 21
16.6098307877
  0
LINE
  5
2C0
100
AcDbEntity
  8
SUPERFICI
100
AcDbLine
 62
253
  6
CONTINUOUS
 10
0.1522047829
 20
-24.0527380848
 11
0.1522047829
 21
-23.9429123369
  0
LINE
  5
2C1
100
AcDbEntity
  8
SUPERFICI
100
AcDbLine
 62
253
  6
CONTINUOUS
 10
0.1522047829
 20
15.3029533273
 11
0.1522047829
 21
15.9917739503
  0
LINE
  5
2C2
100
AcDbEntity
  8
DRAFT
100
AcDbLine
 62
253
  6
CONTINUOUS
 10
-1.8120585226
 20
22.5456624057
 11
-1.8173010401
 21
21.8072964794
  0
LINE
  5
2C3
100
AcDbEntity
  8
ASSI
100
AcDbLine
 62
7
  6
CONTINUOUS
 10
19.0909503514
 20
11.6706982382
 11
14.5628578328
 21
9.3262097049
  0
LINE
  5
2C4
100
AcDbEntity
  8
ASSI
100
AcDbLine
 62
7
  6
CONTINUOUS
 10
19.0909503514
 20
10.9778779152
 11
14.5628578328
 21
8.6333893818
  0
LINE
  5
2C5
100
AcDbEntity
  8
ASSI
100
AcDbLine
 62
7
  6
CONTINUOUS
 10
17.6511488131
 20
11.7437133671
 11
13.7240724491
 21
9.7456023967
  0
LINE
  5
2C6
100
AcDbEntity
  8
RACCORDO
100
AcDbLine
 62
253
  6
CONTINUOUS
 10
-9.2966676064
 20
-4.6916858125
 11
-7.265496981
 21
-3.6761004998
  0
LINE
  5
2C7
100
AcDbEntity
  8
RACCORDO
100
AcDbLine
 62
253
  6
CONTINUOUS
 10
16.9537729979
 20
-10.2617491201
 11
14.8807274561
 21
-9.2252263492
  0
LINE
  5
2C8
100
AcDbEntity
  8
RACCORDO
100
AcDbLine
 62
253
  6
CONTINUOUS
 10
17.4197492693
 20
-10.0246586708
 11
14.8807274561
 21
-8.7551477641
  0
LINE
  5
2C9
100
AcDbEntity
  8
ASSI
100
AcDbLine
 62
253
  6
CONTINUOUS
 10
14.5628578328
 20
-7.9942983708
 11
13.7240724491
 21
-7.574905679
  0
LINE
  5
2CA
100
AcDbEntity
  8
RACCORDO
100
AcDbLine
 62
253
  6
CONTINUOUS
 10
-15.235708907
 20
7.0072282593
 11
-19.1619379074
 21
8.9704513452
  0
LINE
  5
2CB
100
AcDbEntity
  8
RACCORDO
100
AcDbLine
 62
253
  6
CONTINUOUS
 10
-4.2959268853
 20
1.5374458341
 11
-8.2221567081
 21
3.5004550739
  0
LINE
  5
2CC
100
AcDbEntity
  8
ASSI
100
AcDbLine
 62
7
  6
CONTINUOUS
 10
19.0787173322
 20
-9.2790542806
 11
18.7896137425
 21
-9.1345024857
  0
LINE
  5
2CD
100
AcDbEntity
  8
SUPERFICI
100
AcDbLine
 62
7
  6
CONTINUOUS
 10
0.5838603886
 20
23.7796844404
 11
0.5871678716
 21
23.3138523853
  0
LINE
  5
2CE
100
AcDbEntity
  8
SUPERFICI
100
AcDbLine
 62
253
  6
CONTINUOUS
 10
0.5047267425
 20
-24.1782508087
 11
0.5047267425
 21
-23.7949379372
  0
LINE
  5
2CF
100
AcDbEntity
  8
SUPERFICI
100
AcDbLine
 62
253
  6
CONTINUOUS
 10
0.5047267425
 20
15.313721209
 11
0.5047267425
 21
16.1213533307
  0
LINE
  5
2D0
100
AcDbEntity
  8
SUPERFICI
100
AcDbLine
 62
7
  6
CONTINUOUS
 10
1.3947869253
 20
-23.4213268255
 11
1.3947869253
 21
-24.5896866203
  0
LINE
  5
2D1
100
AcDbEntity
  8
SUPERFICI
100
AcDbLine
 62
7
  6
CONTINUOUS
 10
1.3947869253
 20
15.8104021302
 11
1.3947869253
 21
17.4125527912
  0
LINE
  5
2D2
100
AcDbEntity
  8
SUPERFICI
100
AcDbLine
 62
253
  6
CONTINUOUS
 10
1.923054097
 20
17.6759916113
 11
1.923054097
 21
17.3284600945
  0
LINE
  5
2D3
100
AcDbEntity
  8
SUPERFICI
100
AcDbLine
 62
253
  6
CONTINUOUS
 10
1.923054097
 20
-23.9711440449
 11
1.923054097
 21
-24.3186755616
  0
LINE
  5
2D4
100
AcDbEntity
  8
SUPERFICI
100
AcDbLine
 62
7
  6
CONTINUOUS
 10
1.995251954
 20
17.7638642434
 11
1.995251954
 21
17.4163327267
  0
LINE
  5
2D5
100
AcDbEntity
  8
SUPERFICI
100
AcDbLine
 62
7
  6
CONTINUOUS
 10
1.995251954
 20
-23.8832714127
 11
1.995251954
 21
-24.2308029294
  0
LINE
  5
2D6
100
AcDbEntity
  8
SUPERFICI
100
AcDbLine
 62
7
  6
CONTINUOUS
 10
2.1018937065
 20
15.0238506935
 11
2.1018937065
 21
12.0793496649
  0
LINE
  5
2D7
100
AcDbEntity
  8
SUPERFICI
100
AcDbLine
 62
7
  6
CONTINUOUS
 10
2.1018937065
 20
-22.9080913038
 11
2.1018937065
 21
-19.9635902751
  0
LINE
  5
2D8
100
AcDbEntity
  8
SUPERFICI
100
AcDbLine
 62
253
  6
CONTINUOUS
 10
2.6715889387
 20
21.8560796916
 11
2.6715889387
 21
21.3029089686
  0
LINE
  5
2D9
100
AcDbEntity
  8
SUPERFICI
100
AcDbLine
 62
253
  6
CONTINUOUS
 10
2.6715889387
 20
20.946733102
 11
2.6715889387
 21
20.4723317267
  0
LINE
  5
2DA
100
AcDbEntity
  8
SUPERFICI
100
AcDbLine
 62
7
  6
CONTINUOUS
 10
2.8024237898
 20
21.8778399815
 11
2.8024237898
 21
20.6299739193
  0
LINE
  5
2DB
100
AcDbEntity
  8
DRAFT
100
AcDbLine
 62
7
  6
CONTINUOUS
 10
2.8028296603
 20
-22.5464141111
 11
2.8028296603
 21
-19.61450916
  0
LINE
  5
2DC
100
AcDbEntity
  8
DRAFT
100
AcDbLine
 62
7
  6
CONTINUOUS
 10
2.8028296603
 20
12.4435461584
 11
2.8028296603
 21
15.3754511094
  0
LINE
  5
2DD
100
AcDbEntity
  8
DRAFT
100
AcDbLine
 62
7
  6
CONTINUOUS
 10
3.503765614
 20
12.7863646506
 11
3.503765614
 21
12.4872199841
  0
LINE
  5
2DE
100
AcDbEntity
  8
DRAFT
100
AcDbLine
 62
7
  6
CONTINUOUS
 10
3.503765614
 20
-18.9891559776
 11
3.503765614
 21
-19.2440500437
  0
LINE
  5
2DF
100
AcDbEntity
  8
SUPERFICI
100
AcDbLine
 62
7
  6
CONTINUOUS
 10
3.5407924584
 20
12.468706562
 11
3.5407924584
 21
-18.9634187994
  0
LINE
  5
2E0
100
AcDbEntity
  8
SUPERFICI
100
AcDbLine
 62
253
  6
CONTINUOUS
 10
1.995251954
 20
-24.2308029118
 11
1.9952519368
 21
-24.2308493468
  0
LINE
  5
2E1
100
AcDbEntity
  8
SUPERFICI
100
AcDbLine
 62
253
  6
CONTINUOUS
 10
1.995251954
 20
17.7638642611
 11
1.9952519155
 21
17.7637948789
  0
LINE
  5
2E2
100
AcDbEntity
  8
RACCORDO
100
AcDbLine
 62
7
  6
CONTINUOUS
 10
-8.5437381574
 20
-8.4688746075
 11
-8.5477619659
 21
-8.4709937483
  0
LINE
  5
2E3
100
AcDbEntity
  8
ASSI
100
AcDbLine
 62
7
  6
CONTINUOUS
 10
19.0909503514
 20
7.3405712193
 11
14.5628578328
 21
4.996082686
  0
LINE
  5
2E4
100
AcDbEntity
  8
ASSI
100
AcDbLine
 62
7
  6
CONTINUOUS
 10
19.0909503514
 20
6.6477508963
 11
14.5628578328
 21
4.3032623629
  0
LINE
  5
2E5
100
AcDbEntity
  8
ASSI
100
AcDbLine
 62
7
  6
CONTINUOUS
 10
17.6511488131
 20
7.4135863482
 11
13.7240724491
 21
5.4154753778
  0
LINE
  5
2E6
100
AcDbEntity
  8
ASSI
100
AcDbLine
 62
7
  6
CONTINUOUS
 10
17.6580545461
 20
7.6202259918
 11
18.7896137425
 21
8.18600559
  0
LINE
  5
2E7
100
AcDbEntity
  8
0
100
AcDbLine
 62
7
  6
CONTINUOUS
 10
-10.3752243269
 20
-6.9362797649
 11
-7.1034048523
 21
-5.3003700276
  0
LINE
  5
2E8
100
AcDbEntity
  8
RACCORDO
100
AcDbLine
 62
7
  6
CONTINUOUS
 10
-14.1812198672
 20
-9.4097239933
 11
-14.1783232001
 21
-9.4083516039
  0
LWPOLYLINE
  5
2E9
100
AcDbEntity
  8
RACCORDO
100
AcDbPolyline
 62
7
  6
CONTINUOUS
 90
14
 70
0
 10
-14.1812125555
 20
-9.4097206264
 10
-14.0032940743
 20
-9.3354915363
 10
-13.8253869666
 20
-9.2800313509
 10
-13.6419511021
 20
-9.2401966546
 10
-13.4526366339
 20
-9.2156101435
 10
-13.2578195339
 20
-9.2061737697
 10
-13.0582847275
 20
-9.2117776834
 10
-12.8543154573
 20
-9.232283532
 10
-12.6465377442
 20
-9.2675398327
 10
-12.4357440905
 20
-9.3173013996
 10
-12.2224396604
 20
-9.3813483425
 10
-12.0072242026
 20
-9.4594159412
 10
-11.7909020209
 20
-9.5511091193
 10
-11.6244991356
 20
-9.6304880976
  0
LINE
  5
2EA
100
AcDbEntity
  8
ASSI
100
AcDbLine
 62
253
  6
CONTINUOUS
 10
14.5628578328
 20
-3.6641713519
 11
13.7240724491
 21
-3.2447786601
  0
LINE
  5
2EB
100
AcDbEntity
  8
ASSI
100
AcDbLine
 62
7
  6
CONTINUOUS
 10
19.0909503514
 20
3.0104442004
 11
14.5628578328
 21
0.665955667
  0
LINE
  5
2EC
100
AcDbEntity
  8
ASSI
100
AcDbLine
 62
7
  6
CONTINUOUS
 10
19.0909503514
 20
2.3176238773
 11
14.5628578328
 21
-0.026864656
  0
LINE
  5
2ED
100
AcDbEntity
  8
ASSI
100
AcDbLine
 62
7
  6
CONTINUOUS
 10
17.6511488131
 20
3.0834593293
 11
13.7240724491
 21
1.0853483589
  0
LINE
  5
2EE
100
AcDbEntity
  8
0
100
AcDbLine
 62
7
  6
CONTINUOUS
 10
-14.0870971695
 20
-11.8100948133
 11
-10.7762591544
 21
-10.1546758057
  0
LINE
  5
2EF
100
AcDbEntity
  8
ASSI
100
AcDbLine
 62
7
  6
CONTINUOUS
 10
17.6580545461
 20
3.2900989729
 11
18.7896137425
 21
3.8558785711
  0
LINE
  5
2F0
100
AcDbEntity
  8
RACCORDO
100
AcDbLine
 62
253
  6
CONTINUOUS
 10
-11.4716325459
 20
-12.4301974616
 11
-9.4338264944
 21
-11.4112944359
  0
LINE
  5
2F1
100
AcDbEntity
  8
ASSI
100
AcDbLine
 62
7
  6
CONTINUOUS
 10
19.0787173322
 20
-4.9489272616
 11
18.7896137425
 21
-4.8043754668
  0
LINE
  5
2F2
100
AcDbEntity
  8
SUPERFICI
100
AcDbLine
 62
253
  6
CONTINUOUS
 10
8.059477433
 20
-17.3624937132
 11
8.059477433
 21
-17.2012070055
  0
LINE
  5
2F3
100
AcDbEntity
  8
SUPERFICI
100
AcDbLine
 62
253
  6
CONTINUOUS
 10
8.059477433
 20
19.3963387984
 11
8.059477433
 21
19.7964660587
  0
LINE
  5
2F4
100
AcDbEntity
  8
SUPERFICI
100
AcDbLine
 62
7
  6
CONTINUOUS
 10
8.1998075328
 20
-17.3121813201
 11
8.1998075328
 21
-17.1274902048
  0
LINE
  5
2F5
100
AcDbEntity
  8
SUPERFICI
100
AcDbLine
 62
7
  6
CONTINUOUS
 10
8.1998075328
 20
19.5726047953
 11
8.1998075328
 21
20.0934828508
  0
LINE
  5
2F6
100
AcDbEntity
  8
ASSI
100
AcDbLine
 62
7
  6
CONTINUOUS
 10
17.6511488131
 20
-1.2466676897
 11
13.7240724491
 21
-3.2447786601
  0
LINE
  5
2F7
100
AcDbEntity
  8
ASSI
100
AcDbLine
 62
7
  6
CONTINUOUS
 10
17.6580545461
 20
-1.0400280461
 11
18.7896137425
 21
-0.4742484478
  0
LINE
  5
2F8
100
AcDbEntity
  8
0
100
AcDbLine
 62
253
  6
CONTINUOUS
 10
-11.4383587497
 20
-16.2690911104
 11
-12.9934551608
 21
-17.046639316
  0
LINE
  5
2F9
100
AcDbEntity
  8
ASSI
100
AcDbLine
 62
253
  6
CONTINUOUS
 10
14.5628578328
 20
0.665955667
 11
13.7240724491
 21
1.0853483589
  0
LINE
  5
2FA
100
AcDbEntity
  8
ASSI
100
AcDbLine
 62
7
  6
CONTINUOUS
 10
19.0787173322
 20
-0.6188002427
 11
18.7896137425
 21
-0.4742484478
  0
LINE
  5
2FB
100
AcDbEntity
  8
SUPERFICI
100
AcDbLine
 62
253
  6
CONTINUOUS
 10
-18.4740385426
 20
19.4683314198
 11
-3.5837244238
 21
12.0231743604
  0
LWPOLYLINE
  5
2FC
100
AcDbEntity
  8
RACCORDO
100
AcDbPolyline
 62
7
  6
CONTINUOUS
 90
43
 70
0
 10
-10.9149513187
 20
15.3041876986
 10
-10.7263780357
 20
15.204248879
 10
-10.4849669252
 20
15.0595775258
 10
-10.2453448491
 20
14.896874645
 10
-10.0083495907
 20
14.7164870606
 10
-9.774896373
 20
14.5189146396
 10
-9.5459311206
 20
14.3048082971
 10
-9.3222604841
 20
14.0748201614
 10
-9.1046701153
 20
13.8296797299
 10
-8.893982299
 20
13.5702823658
 10
-8.6909005874
 20
13.2975075489
 10
-8.4960755642
 20
13.0122671537
 10
-8.3101453908
 20
12.7155757271
 10
-8.1336817921
 20
12.4084493269
 10
-7.9672062172
 20
12.0919356618
 10
-7.8112052729
 20
11.7671205485
 10
-7.666123718
 20
11.4351166697
 10
-7.5323642296
 20
11.0970635535
 10
-7.410286601
 20
10.754101216
 10
-7.3002114651
 20
10.4073943403
 10
-7.2024317122
 20
10.0581463558
 10
-7.11719622
 20
9.7075679724
 10
-7.0446999078
 20
9.3568094074
 10
-6.9851256335
 20
9.0071392228
 10
-6.9386184796
 20
8.659962281
 10
-6.9052418523
 20
8.3164684809
 10
-6.8850149898
 20
7.9778575384
 10
-6.8779120278
 20
7.6455495965
 10
-6.8838335395
 20
7.3206781096
 10
-6.9026292237
 20
7.0043503004
 10
-6.9340692905
 20
6.6979153105
 10
-6.9778133109
 20
6.4027098332
 10
-7.033563137
 20
6.1192956867
 10
-7.1011245479
 20
5.8478967399
 10
-7.180032266
 20
5.5897795242
 10
-7.2699847569
 20
5.3453810342
 10
-7.3712327697
 20
5.114003245
 10
-7.4834688097
 20
4.8966518233
 10
-7.6063695543
 20
4.6941838217
 10
-7.7404718655
 20
4.5061968477
 10
-7.8858907111
 20
4.3333600192
 10
-8.0421334915
 20
4.1770058326
 10
-8.1772740801
 20
4.0623627618
  0
LINE
  5
2FD
100
AcDbEntity
  8
DRAFT
100
AcDbLine
 62
7
  6
CONTINUOUS
 10
2.8038880175
 20
13.9934749459
 11
3.503765614
 21
12.7863646506
  0
LINE
  5
2FE
100
AcDbEntity
  8
RACCORDO
100
AcDbLine
 62
7
  6
CONTINUOUS
 10
2.8028296603
 20
14.0166783434
 11
3.1019567932
 21
13.5007603549
  0
LINE
  5
2FF
100
AcDbEntity
  8
ASSI
100
AcDbLine
 62
7
  6
CONTINUOUS
 10
19.0909503514
 20
-1.3196828185
 11
14.5628578328
 21
-3.6641713519
  0
LINE
  5
300
100
AcDbEntity
  8
ASSI
100
AcDbLine
 62
7
  6
CONTINUOUS
 10
19.0909503514
 20
-2.0125031416
 11
14.5628578328
 21
-4.3569916749
  0
LINE
  5
301
100
AcDbEntity
  8
ASSI
100
AcDbLine
 62
7
  6
CONTINUOUS
 10
17.6511488131
 20
-5.5767947086
 11
13.7240724491
 21
-7.574905679
  0
LINE
  5
302
100
AcDbEntity
  8
0
100
AcDbLine
 62
253
  6
CONTINUOUS
 10
-13.2221590248
 20
-17.9779531179
 11
-13.4873240678
 21
-18.1105356394
  0
LINE
  5
303
100
AcDbEntity
  8
0
100
AcDbLine
 62
7
  6
CONTINUOUS
 10
-10.3752243269
 20
-19.2338404986
 11
-6.88856724
 21
-17.4905119552
  0
LINE
  5
304
100
AcDbEntity
  8
ASSI
100
AcDbLine
 62
7
  6
CONTINUOUS
 10
17.6580545461
 20
-5.370155065
 11
18.7896137425
 21
-4.8043754668
  0
LINE
  5
305
100
AcDbEntity
  8
SUPERFICI
100
AcDbLine
 62
7
  6
CONTINUOUS
 10
3.5407924584
 20
12.468706562
 11
2.1018937065
 21
12.0793496649
  0
LINE
  5
306
100
AcDbEntity
  8
SUPERFICI
100
AcDbLine
 62
253
  6
CONTINUOUS
 10
-17.8176241756
 20
20.538015552
 11
-2.915751423
 21
13.0870791757
  0
LINE
  5
307
100
AcDbEntity
  8
ASSI
100
AcDbLine
 62
253
  6
CONTINUOUS
 10
14.5628578328
 20
4.996082686
 11
13.7240724491
 21
5.4154753778
  0
LINE
  5
308
100
AcDbEntity
  8
ASSI
100
AcDbLine
 62
7
  6
CONTINUOUS
 10
19.0787173322
 20
3.7113267762
 11
18.7896137425
 21
3.8558785711
  0
LINE
  5
309
100
AcDbEntity
  8
SUPERFICI
100
AcDbLine
 62
7
  6
CONTINUOUS
 10
3.5407924584
 20
12.468706562
 11
3.503765614
 21
12.4872199841
  0
LINE
  5
30A
100
AcDbEntity
  8
0
100
AcDbLine
 62
7
  6
CONTINUOUS
 10
14.8807274561
 20
13.1280982162
 11
14.8807274561
 21
10.3341127398
  0
LINE
  5
30B
100
AcDbEntity
  8
0
100
AcDbLine
 62
7
  6
CONTINUOUS
 10
14.8807274561
 20
8.7979711972
 11
14.8807274561
 21
6.0039857209
  0
LINE
  5
30C
100
AcDbEntity
  8
0
100
AcDbLine
 62
7
  6
CONTINUOUS
 10
14.8807274561
 20
4.4678441783
 11
14.8807274561
 21
1.673858702
  0
LINE
  5
30D
100
AcDbEntity
  8
0
100
AcDbLine
 62
7
  6
CONTINUOUS
 10
14.8807274561
 20
0.1377171594
 11
14.8807274561
 21
-2.6562683169
  0
LINE
  5
30E
100
AcDbEntity
  8
0
100
AcDbLine
 62
7
  6
CONTINUOUS
 10
14.8807274561
 20
-4.1924098595
 11
14.8807274561
 21
-6.9863953359
  0
LINE
  5
30F
100
AcDbEntity
  8
0
100
AcDbLine
 62
7
  6
CONTINUOUS
 10
14.8807274561
 20
-8.5225368785
 11
14.8807274561
 21
-10.6980577145
  0
LINE
  5
310
100
AcDbEntity
  8
SUPERFICI
100
AcDbLine
 62
253
  6
CONTINUOUS
 10
0.1516905545
 20
-24.0524809706
 11
-0.4706274776
 21
-24.7975403881
  0
LINE
  5
311
100
AcDbEntity
  8
SUPERFICI
100
AcDbLine
 62
253
  6
CONTINUOUS
 10
0.5047267425
 20
-24.1782508087
 11
-0.2064938656
 21
-25.0297472858
  0
LINE
  5
312
100
AcDbEntity
  8
RACCORDO
100
AcDbLine
 62
7
  6
CONTINUOUS
 10
-7.9798468091
 20
-20.468751718
 11
-7.9851594527
 21
-20.4715451407
  0
LINE
  5
313
100
AcDbEntity
  8
ASSI
100
AcDbLine
 62
7
  6
CONTINUOUS
 10
19.0909503514
 20
-5.6498098375
 11
14.5628578328
 21
-7.9942983708
  0
LINE
  5
314
100
AcDbEntity
  8
ASSI
100
AcDbLine
 62
7
  6
CONTINUOUS
 10
19.0909503514
 20
-6.3426301605
 11
14.5628578328
 21
-8.6871186938
  0
LINE
  5
315
100
AcDbEntity
  8
0
100
AcDbLine
 62
7
  6
CONTINUOUS
 10
14.8807274561
 20
-10.6980577145
 11
13.1274757116
 21
-11.5746835867
  0
LINE
  5
316
100
AcDbEntity
  8
SUPERFICI
100
AcDbLine
 62
7
  6
CONTINUOUS
 10
-0.4333373591
 20
16.1140356928
 11
0.1909620631
 21
15.9836813942
  0
LINE
  5
317
100
AcDbEntity
  8
SUPERFICI
100
AcDbLine
 62
253
  6
CONTINUOUS
 10
-0.2064938656
 20
16.2698568536
 11
0.5047267425
 21
16.1213533307
  0
LINE
  5
318
100
AcDbEntity
  8
SUPERFICI
100
AcDbLine
 62
7
  6
CONTINUOUS
 10
0.1522047829
 20
15.3029533273
 11
-1.5345609413
 21
16.1463361895
  0
LINE
  5
319
100
AcDbEntity
  8
SUPERFICI
100
AcDbLine
 62
7
  6
CONTINUOUS
 10
-3.7025526396
 20
17.2303320386
 11
-4.361962514
 21
17.5600369758
  0
LINE
  5
31A
100
AcDbEntity
  8
SUPERFICI
100
AcDbLine
 62
7
  6
CONTINUOUS
 10
-9.3240516371
 20
20.0410815373
 11
-9.9834615115
 21
20.3707864745
  0
LINE
  5
31B
100
AcDbEntity
  8
SUPERFICI
100
AcDbLine
 62
7
  6
CONTINUOUS
 10
-12.1514532098
 20
21.4547823237
 11
-13.838218934
 21
22.2981651858
  0
LINE
  5
31C
100
AcDbEntity
  8
SUPERFICI
100
AcDbLine
 62
7
  6
CONTINUOUS
 10
-14.4762385918
 20
23.1262491589
 11
-12.7977005214
 21
22.2869801237
  0
LINE
  5
31D
100
AcDbEntity
  8
SUPERFICI
100
AcDbLine
 62
7
  6
CONTINUOUS
 10
-2.1725805992
 20
16.9744201625
 11
-0.4940425288
 21
16.1351511273
  0
LINE
  5
31E
100
AcDbEntity
  8
SUPERFICI
100
AcDbLine
 62
253
  6
CONTINUOUS
 10
-14.5412118883
 20
23.261467609
 11
-12.8626738179
 21
22.4221985738
  0
LINE
  5
31F
100
AcDbEntity
  8
SUPERFICI
100
AcDbLine
 62
253
  6
CONTINUOUS
 10
-2.2375538956
 20
17.1096386126
 11
-0.5590158252
 21
16.2703695774
  0
LINE
  5
320
100
AcDbEntity
  8
SUPERFICI
100
AcDbLine
 62
7
  6
CONTINUOUS
 10
-8.6107740285
 20
20.4369359824
 11
-6.9862850651
 21
19.6246915007
  0
LINE
  5
321
100
AcDbEntity
  8
SUPERFICI
100
AcDbLine
 62
7
  6
CONTINUOUS
 10
-5.2855155236
 20
18.77430673
 11
-4.361962514
 21
18.3125302252
  0
LINE
  5
322
100
AcDbEntity
  8
SUPERFICI
100
AcDbLine
 62
253
  6
CONTINUOUS
 10
-0.5590158252
 20
16.6103435116
 11
-2.2375538956
 21
17.4496125468
  0
LINE
  5
323
100
AcDbEntity
  8
SUPERFICI
100
AcDbLine
 62
253
  6
CONTINUOUS
 10
-12.8626738179
 20
22.7621725079
 11
-14.5412118883
 21
23.6014415431
  0
LINE
  5
324
100
AcDbEntity
  8
SUPERFICI
100
AcDbLine
 62
7
  6
CONTINUOUS
 10
-10.9088710674
 20
21.9622311266
 11
-9.9834615115
 21
21.4995263486
  0
LINE
  5
325
100
AcDbEntity
  8
SUPERFICI
100
AcDbLine
 62
7
  6
CONTINUOUS
 10
-2.6357217275
 20
17.8256564566
 11
-2.2842148114
 21
17.6499029986
  0
LINE
  5
326
100
AcDbEntity
  8
SUPERFICI
100
AcDbLine
 62
7
  6
CONTINUOUS
 10
1.3947869253
 20
15.8104021302
 11
1.7486094405
 21
15.6334908726
  0
LINE
  5
327
100
AcDbEntity
  8
SUPERFICI
100
AcDbLine
 62
7
  6
CONTINUOUS
 10
-5.3440941674
 20
19.1798426766
 11
-6.489453685
 21
19.7525224354
  0
LINE
  5
328
100
AcDbEntity
  8
ASSI
100
AcDbLine
 62
253
  6
CONTINUOUS
 10
14.5628578328
 20
9.3262097049
 11
13.7240724491
 21
9.7456023967
  0
LINE
  5
329
100
AcDbEntity
  8
SUPERFICI
100
AcDbLine
 62
253
  6
CONTINUOUS
 10
-0.3832675692
 20
16.9147203265
 11
-2.0618056396
 21
17.7539893617
  0
LINE
  5
32A
100
AcDbEntity
  8
SUPERFICI
100
AcDbLine
 62
253
  6
CONTINUOUS
 10
-12.6869255619
 20
23.0665493229
 11
-14.3654636323
 21
23.9058183581
  0
LINE
  5
32B
100
AcDbEntity
  8
SUPERFICI
100
AcDbLine
 62
7
  6
CONTINUOUS
 10
-9.9834615115
 20
21.8169492403
 11
-9.3240516371
 21
21.4872443031
  0
LINE
  5
32C
100
AcDbEntity
  8
SUPERFICI
100
AcDbLine
 62
7
  6
CONTINUOUS
 10
-4.361962514
 20
19.0061997415
 11
-3.7025526396
 21
18.6764948044
  0
LINE
  5
32D
100
AcDbEntity
  8
SUPERFICI
100
AcDbLine
 62
7
  6
CONTINUOUS
 10
-5.7927677794
 20
20.1024917542
 11
-5.3440941674
 21
19.8781549482
  0
LINE
  5
32E
100
AcDbEntity
  8
SUPERFICI
100
AcDbLine
 62
7
  6
CONTINUOUS
 10
-10.9088710674
 20
22.6642995193
 11
-10.2058781131
 21
22.3128030422
  0
LINE
  5
32F
100
AcDbEntity
  8
SUPERFICI
100
AcDbLine
 62
7
  6
CONTINUOUS
 10
1.3947869253
 20
16.512470523
 11
2.449280757
 21
15.9852236071
  0
LINE
  5
330
100
AcDbEntity
  8
SUPERFICI
100
AcDbLine
 62
7
  6
CONTINUOUS
 10
-5.7935480641
 20
20.2125654047
 11
-5.3440941674
 21
19.9878384563
  0
LINE
  5
331
100
AcDbEntity
  8
SUPERFICI
100
AcDbLine
 62
253
  6
CONTINUOUS
 10
-3.830516449
 20
19.2804215443
 11
-5.2855155236
 21
20.0079210817
  0
LINE
  5
332
100
AcDbEntity
  8
SUPERFICI
100
AcDbLine
 62
253
  6
CONTINUOUS
 10
-6.9862850651
 20
20.8583058524
 11
-8.6107740285
 21
21.6705503341
  0
LINE
  5
333
100
AcDbEntity
  8
ASSI
100
AcDbLine
 62
7
  6
CONTINUOUS
 10
19.0787173322
 20
8.0414537951
 11
18.7896137425
 21
8.18600559
  0
LINE
  5
334
100
AcDbEntity
  8
SUPERFICI
100
AcDbLine
 62
253
  6
CONTINUOUS
 10
-3.5216549409
 20
19.4397915446
 11
-5.1449169188
 21
20.2514225336
  0
LINE
  5
335
100
AcDbEntity
  8
SUPERFICI
100
AcDbLine
 62
253
  6
CONTINUOUS
 10
-6.8456864603
 20
21.1018073044
 11
-8.4689484383
 21
21.9134382934
  0
LINE
  5
336
100
AcDbEntity
  8
SUPERFICI
100
AcDbLine
 62
7
  6
CONTINUOUS
 10
-8.92897208
 20
22.357922279
 11
-6.6308732462
 21
21.2088728621
  0
LINE
  5
337
100
AcDbEntity
  8
SUPERFICI
100
AcDbLine
 62
7
  6
CONTINUOUS
 10
-4.9338205613
 20
20.3603465196
 11
-2.6357217275
 21
19.2112971027
  0
LINE
  5
338
100
AcDbEntity
  8
RACCORDO
100
AcDbLine
 62
253
  6
CONTINUOUS
 10
17.6493057127
 20
14.5615715716
 11
17.6493057127
 21
11.7427755908
  0
LINE
  5
339
100
AcDbEntity
  8
RACCORDO
100
AcDbLine
 62
253
  6
CONTINUOUS
 10
17.6493057127
 20
10.2314445526
 11
17.6493057127
 21
7.4126485719
  0
LINE
  5
33A
100
AcDbEntity
  8
RACCORDO
100
AcDbLine
 62
253
  6
CONTINUOUS
 10
17.6493057127
 20
5.9013175337
 11
17.6493057127
 21
3.082521553
  0
LINE
  5
33B
100
AcDbEntity
  8
RACCORDO
100
AcDbLine
 62
253
  6
CONTINUOUS
 10
17.6493057127
 20
1.5711905148
 11
17.6493057127
 21
-1.247605466
  0
LINE
  5
33C
100
AcDbEntity
  8
RACCORDO
100
AcDbLine
 62
253
  6
CONTINUOUS
 10
17.6493057127
 20
-2.7589365041
 11
17.6493057127
 21
-5.5777324849
  0
LINE
  5
33D
100
AcDbEntity
  8
RACCORDO
100
AcDbLine
 62
253
  6
CONTINUOUS
 10
17.6493057127
 20
-7.089063523
 11
17.6493057127
 21
-9.9078595038
  0
LINE
  5
33E
100
AcDbEntity
  8
ASSI
100
AcDbLine
 62
7
  6
CONTINUOUS
 10
17.6580545461
 20
14.5661014127
 11
17.6580545461
 21
11.9503530107
  0
LINE
  5
33F
100
AcDbEntity
  8
ASSI
100
AcDbLine
 62
7
  6
CONTINUOUS
 10
17.6580545461
 20
10.2359743937
 11
17.6580545461
 21
7.6202259918
  0
LINE
  5
340
100
AcDbEntity
  8
ASSI
100
AcDbLine
 62
7
  6
CONTINUOUS
 10
17.6580545461
 20
5.9058473748
 11
17.6580545461
 21
3.2900989729
  0
LINE
  5
341
100
AcDbEntity
  8
ASSI
100
AcDbLine
 62
7
  6
CONTINUOUS
 10
17.6580545461
 20
1.5757203559
 11
17.6580545461
 21
-1.0400280461
  0
LINE
  5
342
100
AcDbEntity
  8
ASSI
100
AcDbLine
 62
7
  6
CONTINUOUS
 10
17.6580545461
 20
-2.754406663
 11
17.6580545461
 21
-5.370155065
  0
LINE
  5
343
100
AcDbEntity
  8
ASSI
100
AcDbLine
 62
7
  6
CONTINUOUS
 10
17.6580545461
 20
-7.084533682
 11
17.6580545461
 21
-9.7002820839
  0
LINE
  5
344
100
AcDbEntity
  8
ASSI
100
AcDbLine
 62
7
  6
CONTINUOUS
 10
18.7896137425
 20
-9.1345024857
 11
18.7896137425
 21
-6.4986517571
  0
LINE
  5
345
100
AcDbEntity
  8
ASSI
100
AcDbLine
 62
7
  6
CONTINUOUS
 10
18.7896137425
 20
-4.8043754668
 11
18.7896137425
 21
-2.1685247382
  0
LINE
  5
346
100
AcDbEntity
  8
ASSI
100
AcDbLine
 62
7
  6
CONTINUOUS
 10
18.7896137425
 20
-0.4742484478
 11
18.7896137425
 21
2.1616022808
  0
LINE
  5
347
100
AcDbEntity
  8
ASSI
100
AcDbLine
 62
7
  6
CONTINUOUS
 10
18.7896137425
 20
3.8558785711
 11
18.7896137425
 21
6.4917292997
  0
LINE
  5
348
100
AcDbEntity
  8
ASSI
100
AcDbLine
 62
7
  6
CONTINUOUS
 10
18.7896137425
 20
8.18600559
 11
18.7896137425
 21
10.8218563186
  0
LINE
  5
349
100
AcDbEntity
  8
ASSI
100
AcDbLine
 62
7
  6
CONTINUOUS
 10
18.7896137425
 20
12.5161326089
 11
18.7896137425
 21
15.1519833375
  0
LINE
  5
34A
100
AcDbEntity
  8
ASSI
100
AcDbLine
 62
253
  6
CONTINUOUS
 10
19.0909503514
 20
19.9928695781
 11
19.0909503514
 21
15.3080049341
  0
LINE
  5
34B
100
AcDbEntity
  8
ASSI
100
AcDbLine
 62
253
  6
CONTINUOUS
 10
19.0909503514
 20
11.6706982382
 11
19.0909503514
 21
10.9778779152
  0
LINE
  5
34C
100
AcDbEntity
  8
ASSI
100
AcDbLine
 62
253
  6
CONTINUOUS
 10
19.0909503514
 20
7.3405712193
 11
19.0909503514
 21
6.6477508963
  0
LINE
  5
34D
100
AcDbEntity
  8
ASSI
100
AcDbLine
 62
253
  6
CONTINUOUS
 10
19.0909503514
 20
3.0104442004
 11
19.0909503514
 21
2.3176238773
  0
LINE
  5
34E
100
AcDbEntity
  8
ASSI
100
AcDbLine
 62
253
  6
CONTINUOUS
 10
19.0909503514
 20
-1.3196828185
 11
19.0909503514
 21
-2.0125031416
  0
LINE
  5
34F
100
AcDbEntity
  8
ASSI
100
AcDbLine
 62
253
  6
CONTINUOUS
 10
19.0909503514
 20
-5.6498098375
 11
19.0909503514
 21
-6.3426301605
  0
LINE
  5
350
100
AcDbEntity
  8
ASSI
100
AcDbLine
 62
253
  6
CONTINUOUS
 10
19.0909503514
 20
-9.9799368564
 11
19.0909503514
 21
-10.3346744815
  0
LINE
  5
351
100
AcDbEntity
  8
RACCORDO
100
AcDbLine
 62
7
  6
CONTINUOUS
 10
19.371610551
 20
20.3402007962
 11
19.371610551
 21
15.6553341193
  0
LINE
  5
352
100
AcDbEntity
  8
RACCORDO
100
AcDbLine
 62
7
  6
CONTINUOUS
 10
19.371610551
 20
12.0180274234
 11
19.371610551
 21
11.3252071004
  0
LINE
  5
353
100
AcDbEntity
  8
RACCORDO
100
AcDbLine
 62
7
  6
CONTINUOUS
 10
19.371610551
 20
7.6879004045
 11
19.371610551
 21
6.9950800815
  0
LINE
  5
354
100
AcDbEntity
  8
RACCORDO
100
AcDbLine
 62
7
  6
CONTINUOUS
 10
19.371610551
 20
3.3577733856
 11
19.371610551
 21
2.6649530626
  0
LINE
  5
355
100
AcDbEntity
  8
RACCORDO
100
AcDbLine
 62
7
  6
CONTINUOUS
 10
19.371610551
 20
-0.9723536333
 11
19.371610551
 21
-1.6651739563
  0
LINE
  5
356
100
AcDbEntity
  8
RACCORDO
100
AcDbLine
 62
7
  6
CONTINUOUS
 10
19.371610551
 20
-5.3024806522
 11
19.371610551
 21
-5.9953009753
  0
LINE
  5
357
100
AcDbEntity
  8
RACCORDO
100
AcDbLine
 62
7
  6
CONTINUOUS
 10
19.371610551
 20
-9.6326076712
 11
19.371610551
 21
-9.9873473292
  0
LINE
  5
358
100
AcDbEntity
  8
DRAFT
100
AcDbLine
 62
7
  6
CONTINUOUS
 10
3.503765614
 20
-19.2440500437
 11
2.8038880175
 21
-19.7512827424
  0
LINE
  5
359
100
AcDbEntity
  8
RACCORDO
100
AcDbLine
 62
7
  6
CONTINUOUS
 10
3.1019567932
 20
-19.5566369271
 11
2.8028296603
 21
-19.7734277826
  0
LINE
  5
35A
100
AcDbEntity
  8
RACCORDO
100
AcDbLine
 62
7
  6
CONTINUOUS
 10
8.7509234956
 20
-16.8379834944
 11
9.8341187652
 21
-16.052943278
  0
LINE
  5
35B
100
AcDbEntity
  8
SUPERFICI
100
AcDbLine
 62
7
  6
CONTINUOUS
 10
2.1018937065
 20
-19.9635902751
 11
3.5407924584
 21
-18.9634187994
  0
LINE
  5
35C
100
AcDbEntity
  8
RACCORDO
100
AcDbLine
 62
253
  6
CONTINUOUS
 10
18.551099712
 20
-11.4432601623
 11
9.8341187652
 21
-16.052943278
  0
LINE
  5
35D
100
AcDbEntity
  8
RACCORDO
100
AcDbLine
 62
7
  6
CONTINUOUS
 10
18.5063117821
 20
-11.4711948563
 11
9.8124266629
 21
-16.0686645179
  0
LINE
  5
35E
100
AcDbEntity
  8
DRAFT
100
AcDbLine
 62
7
  6
CONTINUOUS
 10
2.8028296603
 20
-19.61450916
 11
3.503765614
 21
-19.2440500437
  0
LINE
  5
35F
100
AcDbEntity
  8
RACCORDO
100
AcDbLine
 62
253
  6
CONTINUOUS
 10
3.5407924584
 20
-18.5261502218
 11
19.0909503514
 21
-10.3346744815
  0
LINE
  5
360
100
AcDbEntity
  8
RACCORDO
100
AcDbLine
 62
253
  6
CONTINUOUS
 10
3.1019567932
 20
-19.5566369271
 11
18.6767984238
 21
-11.3521606657
  0
LINE
  5
361
100
AcDbEntity
  8
DRAFT
100
AcDbLine
 62
7
  6
CONTINUOUS
 10
2.8028296603
 20
-19.9625764944
 11
8.7509234956
 21
-16.8379834944
  0
LINE
  5
362
100
AcDbEntity
  8
ASSI
100
AcDbLine
 62
7
  6
CONTINUOUS
 10
19.0909503514
 20
-9.9799368564
 11
14.5628578328
 21
-12.3244253897
  0
LINE
  5
363
100
AcDbEntity
  8
SUPERFICI
100
AcDbLine
 62
7
  6
CONTINUOUS
 10
7.0844221909
 20
-17.9946136572
 11
2.8028296603
 21
-20.1942339165
  0
LINE
  5
364
100
AcDbEntity
  8
SUPERFICI
100
AcDbLine
 62
7
  6
CONTINUOUS
 10
8.059477433
 20
-17.3624937132
 11
2.8028296603
 21
-20.0506975335
  0
LINE
  5
365
100
AcDbEntity
  8
ASSI
100
AcDbLine
 62
7
  6
CONTINUOUS
 10
17.6511488131
 20
-9.9069217275
 11
13.7240724491
 21
-11.9050326979
  0
LINE
  5
366
100
AcDbEntity
  8
ASSI
100
AcDbLine
 62
7
  6
CONTINUOUS
 10
17.6580545461
 20
-9.7002820839
 11
18.7896137425
 21
-9.1345024857
  0
LINE
  5
367
100
AcDbEntity
  8
SUPERFICI
100
AcDbLine
 62
7
  6
CONTINUOUS
 10
-12.7369953517
 20
22.2658646891
 11
-12.1126974659
 21
22.1355107113
  0
LINE
  5
368
100
AcDbEntity
  8
SUPERFICI
100
AcDbLine
 62
253
  6
CONTINUOUS
 10
-12.5101518582
 20
22.4216858499
 11
-11.7989312501
 21
22.2731823271
  0
LWPOLYLINE
  5
369
100
AcDbEntity
  8
RACCORDO
100
AcDbPolyline
 62
7
  6
CONTINUOUS
 90
82
 70
0
 10
-1.3781961153
 20
21.7272700215
 10
-1.3898899186
 20
21.7329491788
 10
-1.4072641641
 20
21.7407958419
 10
-1.4245966168
 20
21.7479738979
 10
-1.4417855417
 20
21.7545055824
 10
-1.4588186158
 20
21.7604483285
 10
-1.4757684412
 20
21.765879347
 10
-1.4926068114
 20
21.770833346
 10
-1.5092922831
 20
21.7753391427
 10
-1.5258800556
 20
21.7794472603
 10
-1.5423520934
 20
21.7831833855
 10
-1.5586878395
 20
21.7865705833
 10
-1.5749388358
 20
21.7896432168
 10
-1.5911022522
 20
21.7924204509
 10
-1.6071596584
 20
21.7949171284
 10
-1.6231384854
 20
21.7971533529
 10
-1.6390432318
 20
21.7991431795
 10
-1.6548563117
 20
21.8008966892
 10
-1.6705709212
 20
21.8024246481
 10
-1.686182447
 20
21.8037372142
 10
-1.7016860913
 20
21.8048437571
 10
-1.7170738008
 20
21.805752813
 10
-1.7323413142
 20
21.8064726596
 10
-1.7474856377
 20
21.8070110941
 10
-1.7624999894
 20
21.8073753414
 10
-1.7773808337
 20
21.807572382
 10
-1.7921259214
 20
21.8076088352
 10
-1.806730007
 20
21.8074909974
 10
-1.8211906593
 20
21.8072249064
 10
-1.8355056811
 20
21.8068163234
 10
-1.8496699294
 20
21.8062708966
 10
-1.8636855989
 20
21.8055937886
 10
-1.8775468463
 20
21.8047903121
 10
-1.8912363571
 20
21.8038665931
 10
-1.904754512
 20
21.8028277461
 10
-1.9180983225
 20
21.8016789668
 10
-1.9312454618
 20
21.8004273051
 10
-1.9441935593
 20
21.7990782769
 10
-1.9569435135
 20
21.7976369283
 10
-1.969478002
 20
21.7961104255
 10
-1.9817881061
 20
21.794505265
 10
-1.9938823864
 20
21.7928256046
 10
-2.0057696201
 20
21.7910751657
 10
-2.0174466681
 20
21.7892591702
 10
-2.0289168171
 20
21.7873817705
 10
-2.0401980355
 20
21.7854443503
 10
-2.0512904789
 20
21.7834509096
 10
-2.0621942815
 20
21.7814053945
 10
-2.0729268094
 20
21.7793082482
 10
-2.0834890211
 20
21.7771627293
 10
-2.0938802319
 20
21.7749723787
 10
-2.1041147569
 20
21.7727373871
 10
-2.1141932838
 20
21.7704606199
 10
-2.1241153049
 20
21.7681451711
 10
-2.1338927681
 20
21.765791095
 10
-2.1435258632
 20
21.7634010243
 10
-2.1530144185
 20
21.7609776787
 10
-2.162369263
 20
21.7585208311
 10
-2.1715907331
 20
21.7560328116
 10
-2.180678255
 20
21.7535161849
 10
-2.1896406976
 20
21.750970815
 10
-2.1984792538
 20
21.7483985769
 10
-2.2071921583
 20
21.7458021996
 10
-2.2157833062
 20
21.7431827267
 10
-2.2242526059
 20
21.740542341
 10
-2.2325993264
 20
21.7378834552
 10
-2.2408258613
 20
21.7352074589
 10
-2.2489322797
 20
21.7325164871
 10
-2.2569173476
 20
21.7298130981
 10
-2.2647810867
 20
21.7270994816
 10
-2.2725233329
 20
21.7243778686
 10
-2.2801427262
 20
21.7216509655
 10
-2.2876369251
 20
21.7189218477
 10
-2.2950043445
 20
21.7161934048
 10
-2.302244669
 20
21.7134680558
 10
-2.3093571129
 20
21.7107484432
 10
-2.3163394068
 20
21.7080377816
 10
-2.3231912689
 20
21.7053385769
 10
-2.3299141079
 20
21.7026526368
 10
-2.3365073826
 20
21.6999825515
 10
-2.3429680424
 20
21.697331941
 10
-2.3554749733
 20
21.6921057842
  0
LINE
  5
36A
100
AcDbEntity
  8
SUPERFICI
100
AcDbLine
 62
253
  6
CONTINUOUS
 10
-10.446602651
 20
24.1393000431
 11
-10.4466914149
 21
24.1393443664
  0
LINE
  5
36B
100
AcDbEntity
  8
SUPERFICI
100
AcDbLine
 62
7
  6
CONTINUOUS
 10
1.2180132216
 20
17.71744233
 11
-0.4790490365
 21
18.5659734591
  0
LINE
  5
36C
100
AcDbEntity
  8
SUPERFICI
100
AcDbLine
 62
7
  6
CONTINUOUS
 10
-11.085644771
 20
23.8692713264
 11
-12.7827070291
 21
24.7178024554
  0
LINE
  5
36D
100
AcDbEntity
  8
SUPERFICI
100
AcDbLine
 62
7
  6
CONTINUOUS
 10
-7.5889197053
 20
22.3759076422
 11
-5.9439714609
 21
21.55343352
  0
LINE
  5
36E
100
AcDbEntity
  8
SUPERFICI
100
AcDbLine
 62
7
  6
CONTINUOUS
 10
-4.2348242263
 20
20.6988599027
 11
-2.5898759819
 21
19.8763857805
  0
LINE
  5
36F
100
AcDbEntity
  8
SUPERFICI
100
AcDbLine
 62
253
  6
CONTINUOUS
 10
-12.2482571505
 20
24.978149922
 11
-10.5573775993
 21
24.1327101464
  0
LINE
  5
370
100
AcDbEntity
  8
SUPERFICI
100
AcDbLine
 62
253
  6
CONTINUOUS
 10
0.0554008422
 20
18.8263209256
 11
1.7462803933
 21
17.9808811501
  0
LINE
  5
371
100
AcDbEntity
  8
SUPERFICI
100
AcDbLine
 62
7
  6
CONTINUOUS
 10
-12.1374821909
 20
24.9847398131
 11
-10.4466026398
 21
24.1393000375
  0
LINE
  5
372
100
AcDbEntity
  8
SUPERFICI
100
AcDbLine
 62
7
  6
CONTINUOUS
 10
0.1661758017
 20
18.8329108168
 11
1.8570553529
 21
17.9874710412
  0
LINE
  5
373
100
AcDbEntity
  8
DRAFT
100
AcDbLine
 62
7
  6
CONTINUOUS
 10
-3.6796575681
 20
20.8883925769
 11
-3.5448036248
 21
20.8209656052
  0
LINE
  5
374
100
AcDbEntity
  8
DRAFT
100
AcDbLine
 62
7
  6
CONTINUOUS
 10
-3.3781838477
 20
20.9108607975
 11
-3.3554721509
 21
20.8995049491
  0
LINE
  5
375
100
AcDbEntity
  8
RACCORDO
100
AcDbLine
 62
7
  6
CONTINUOUS
 10
-2.3175775238
 20
21.5929932008
 11
-0.7239177809
 21
20.7961633293
  0
LINE
  5
376
100
AcDbEntity
  8
RACCORDO
100
AcDbLine
 62
253
  6
CONTINUOUS
 10
-0.1639484484
 20
21.0721862434
 11
-1.4651961951
 21
21.7228101167
  0
LINE
  5
377
100
AcDbEntity
  8
RACCORDO
100
AcDbLine
 62
7
  6
CONTINUOUS
 10
-0.1156467626
 20
21.0959953545
 11
-1.3782216186
 21
21.7272827824
  0
LINE
  5
378
100
AcDbEntity
  8
SUPERFICI
100
AcDbLine
 62
7
  6
CONTINUOUS
 10
-1.8120585226
 20
22.5456624057
 11
0.4901000339
 21
21.3945831275
  0
LINE
  5
379
100
AcDbEntity
  8
RACCORDO
100
AcDbLine
 62
7
  6
CONTINUOUS
 10
9.8341187652
 20
17.4070403576
 11
8.7509234956
 21
19.2752758434
  0
LWPOLYLINE
  5
37A
100
AcDbEntity
  8
RACCORDO
100
AcDbPolyline
 62
7
  6
CONTINUOUS
 90
31
 70
0
 10
19.3716105439
 20
20.3401994904
 10
19.3713005083
 20
20.3760181778
 10
19.3701393477
 20
20.4184282535
 10
19.3681247988
 20
20.4609008392
 10
19.3652631759
 20
20.5034411286
 10
19.3615619459
 20
20.5460287901
 10
19.3570320179
 20
20.5886146675
 10
19.3516813229
 20
20.6311926805
 10
19.345517082
 20
20.6737551271
 10
19.3385537712
 20
20.7162483095
 10
19.3307999496
 20
20.7586656856
 10
19.3222631044
 20
20.8010007077
 10
19.3129614806
 20
20.8431980942
 10
19.3029045515
 20
20.8852491272
 10
19.2920999407
 20
20.927149565
 10
19.2805677228
 20
20.9688494628
 10
19.2683198654
 20
21.010332687
 10
19.2553623205
 20
21.0516026961
 10
19.2417080998
 20
21.0926376583
 10
19.227366229
 20
21.1334279196
 10
19.2123432132
 20
21.1739699251
 10
19.1966484747
 20
21.2142496774
 10
19.1802887456
 20
21.2542600961
 10
19.1632698422
 20
21.2939942706
 10
19.1456004567
 20
21.3334375792
 10
19.1272863965
 20
21.3725817437
 10
19.1083319957
 20
21.4114195411
 10
19.0887440195
 20
21.4499382948
 10
19.0685268013
 20
21.4881289893
 10
19.0476834488
 20
21.5259840884
 10
19.0296431016
 20
21.5576035622
  0
LWPOLYLINE
  5
37B
100
AcDbEntity
  8
RACCORDO
100
AcDbPolyline
 62
7
  6
CONTINUOUS
 90
40
 70
0
 10
18.7513773052
 20
-11.3057903302
 10
18.7728569428
 20
-11.2899045012
 10
18.8008664444
 20
-11.2682022149
 10
18.8283843122
 20
-11.2457344944
 10
18.8553826614
 20
-11.2225188947
 10
18.8818486208
 20
-11.1985614681
 10
18.907783656
 20
-11.1738545911
 10
18.9331679738
 20
-11.1484095736
 10
18.9579823981
 20
-11.122238121
 10
18.9822278138
 20
-11.0953302653
 10
19.0058851314
 20
-11.0676969146
 10
19.0289346617
 20
-11.0393508467
 10
19.0513747087
 20
-11.0102821602
 10
19.0731868372
 20
-10.9805009179
 10
19.0943512578
 20
-10.9500207622
 10
19.1148627887
 20
-10.9188341278
 10
19.1347026566
 20
-10.886952431
 10
19.1538525679
 20
-10.8543879352
 10
19.1723068859
 20
-10.8211313281
 10
19.1900461909
 20
-10.7871961639
 10
19.2070538048
 20
-10.7525920776
 10
19.2233264802
 20
-10.717300369
 10
19.2388480489
 20
-10.6813260551
 10
19.253597642
 20
-10.6446855329
 10
19.2675636405
 20
-10.6073736711
 10
19.2807337506
 20
-10.5693837827
 10
19.293083745
 20
-10.5307427578
 10
19.304587223
 20
-10.4914939729
 10
19.3152302361
 20
-10.4516471075
 10
19.3249982926
 20
-10.4112135579
 10
19.3338705975
 20
-10.3702383423
 10
19.3418365631
 20
-10.3287297485
 10
19.3488845888
 20
-10.2866996902
 10
19.3549986568
 20
-10.2441977861
 10
19.3601706573
 20
-10.2012333441
 10
19.3643919996
 20
-10.1578163022
 10
19.3676517668
 20
-10.1139958106
 10
19.3699431886
 20
-10.0697933559
 10
19.3712609654
 20
-10.0252058576
 10
19.3716105439
 20
-9.9873483339
  0
LINE
  5
37C
100
AcDbEntity
  8
RACCORDO
100
AcDbLine
 62
253
  6
CONTINUOUS
 10
18.6767984238
 20
-11.3521606657
 11
18.551099712
 21
-11.4432601623
  0
LINE
  5
37D
100
AcDbEntity
  8
RACCORDO
100
AcDbLine
 62
7
  6
CONTINUOUS
 10
18.7513674698
 20
-11.3057974805
 11
18.6256673061
 21
-11.3968980295
  0
LINE
  5
37E
100
AcDbEntity
  8
SUPERFICI
100
AcDbLine
 62
253
  6
CONTINUOUS
 10
2.1018937065
 20
-22.9080913038
 11
2.8028296603
 21
-22.5464141111
  0
LINE
  5
37F
100
AcDbEntity
  8
SUPERFICI
100
AcDbLine
 62
7
  6
CONTINUOUS
 10
1.9731945591
 20
-23.1778943255
 11
2.6750193185
 21
-22.8157585164
  0
LINE
  5
380
100
AcDbEntity
  8
SUPERFICI
100
AcDbLine
 62
253
  6
CONTINUOUS
 10
1.3947869253
 20
-24.5896866203
 11
1.923054097
 21
-24.3186755616
  0
LINE
  5
381
100
AcDbEntity
  8
SUPERFICI
100
AcDbLine
 62
253
  6
CONTINUOUS
 10
-2.549918683
 20
-24.8605203472
 11
2.1018937065
 21
-22.9078784563
  0
LINE
  5
382
100
AcDbEntity
  8
SUPERFICI
100
AcDbLine
 62
7
  6
CONTINUOUS
 10
1.95962609
 20
-23.1842302871
 11
-2.7040159183
 21
-25.1418374988
  0
LINE
  5
383
100
AcDbEntity
  8
ASSI
100
AcDbLine
 62
7
  6
CONTINUOUS
 10
19.0787173322
 20
12.371580814
 11
18.7896137425
 21
12.5161326089
  0
LINE
  5
384
100
AcDbEntity
  8
SUPERFICI
100
AcDbLine
 62
7
  6
CONTINUOUS
 10
-1.1668697961
 20
23.2218101595
 11
1.4959585446
 21
21.8903959892
  0
LINE
  5
385
100
AcDbEntity
  8
SUPERFICI
100
AcDbLine
 62
253
  6
CONTINUOUS
 10
-3.5927486741
 20
24.9573657445
 11
-2.9762768493
 21
24.6491298321
  0
LINE
  5
386
100
AcDbEntity
  8
SUPERFICI
100
AcDbLine
 62
253
  6
CONTINUOUS
 10
2.0222985169
 20
22.149842149
 11
2.6387703417
 21
21.8416062366
  0
LINE
  5
387
100
AcDbEntity
  8
SUPERFICI
100
AcDbLine
 62
7
  6
CONTINUOUS
 10
-3.3082539673
 20
24.9390731328
 11
-2.7932832341
 21
24.6815877662
  0
LINE
  5
388
100
AcDbEntity
  8
SUPERFICI
100
AcDbLine
 62
7
  6
CONTINUOUS
 10
2.2824042085
 20
22.1437440449
 11
2.79737471
 21
21.8862587942
  0
LINE
  5
389
100
AcDbEntity
  8
SUPERFICI
100
AcDbLine
 62
7
  6
CONTINUOUS
 10
0.5871678716
 20
23.3138523853
 11
3.4935212184
 21
21.8606757119
  0
LINE
  5
38A
100
AcDbEntity
  8
DRAFT
100
AcDbLine
 62
7
  6
CONTINUOUS
 10
8.1980318582
 20
19.5517216622
 11
8.7509234956
 21
19.2752758434
  0
LINE
  5
38B
100
AcDbEntity
  8
SUPERFICI
100
AcDbLine
 62
253
  6
CONTINUOUS
 10
-3.0845392977
 20
25.7769020076
 11
-0.1253033582
 21
24.2972840378
  0
LINE
  5
38C
100
AcDbEntity
  8
SUPERFICI
100
AcDbLine
 62
253
  6
CONTINUOUS
 10
4.1251862514
 20
22.172039233
 11
7.0844221909
 21
20.6924212633
  0
LINE
  5
38D
100
AcDbEntity
  8
SUPERFICI
100
AcDbLine
 62
7
  6
CONTINUOUS
 10
-2.7955405669
 20
25.8803121257
 11
0.3191937933
 21
24.3229449456
  0
LINE
  5
38E
100
AcDbEntity
  8
SUPERFICI
100
AcDbLine
 62
7
  6
CONTINUOUS
 10
4.5668887763
 20
22.1990974541
 11
7.6816231364
 21
20.641730274
  0
LINE
  5
38F
100
AcDbEntity
  8
SUPERFICI
100
AcDbLine
 62
7
  6
CONTINUOUS
 10
1.3306837959
 20
-24.7244633805
 11
1.8593660595
 21
-24.4532393719
  0
LINE
  5
390
100
AcDbEntity
  8
SUPERFICI
100
AcDbLine
 62
7
  6
CONTINUOUS
 10
1.3306818222
 20
-24.724464393
 11
1.3289454104
 21
-24.7253326133
  0
LINE
  5
391
100
AcDbEntity
  8
SUPERFICI
100
AcDbLine
 62
253
  6
CONTINUOUS
 10
-0.2064938656
 20
-25.3697212199
 11
1.3947869253
 21
-24.5896866203
  0
LINE
  5
392
100
AcDbEntity
  8
SUPERFICI
100
AcDbLine
 62
7
  6
CONTINUOUS
 10
-0.2727554581
 20
-25.5055718461
 11
1.3289426448
 21
-24.7253339605
  0
LINE
  5
393
100
AcDbEntity
  8
SUPERFICI
100
AcDbLine
 62
7
  6
CONTINUOUS
 10
-1.1668697961
 20
23.2218101595
 11
0.5871678716
 21
23.3138523853
  0
LINE
  5
394
100
AcDbEntity
  8
RACCORDO
100
AcDbLine
 62
253
  6
CONTINUOUS
 10
4.9156226798
 20
28.7126587499
 11
18.0511758645
 21
22.1448821576
  0
LINE
  5
395
100
AcDbEntity
  8
RACCORDO
100
AcDbLine
 62
7
  6
CONTINUOUS
 10
5.3504955603
 20
28.7350220795
 11
18.486048745
 21
22.1672454872
  0
LINE
  5
396
100
AcDbEntity
  8
RACCORDO
100
AcDbLine
 62
253
  6
CONTINUOUS
 10
18.551099712
 20
21.6413058983
 11
18.6767984238
 21
21.4245076899
  0
LINE
  5
397
100
AcDbEntity
  8
RACCORDO
100
AcDbLine
 62
7
  6
CONTINUOUS
 10
18.9039429608
 20
21.7744042558
 11
19.0296431245
 21
21.5576035431
  0
ARC
  5
398
100
AcDbEntity
  8
0
100
AcDbCircle
 62
7
  6
CONTINUOUS
 10
-11.0816922641
 20
-15.3934813152
 40
3.3557551238
100
AcDbArc
 50
230.3687595052
 51
231.1760114697
  0
ARC
  5
399
100
AcDbEntity
  8
0
100
AcDbCircle
 62
7
  6
CONTINUOUS
 10
-11.648307287
 20
-15.9446817225
 40
2.8395975235
100
AcDbArc
 50
237.0942043707
 51
238.0895600074
  0
ARC
  5
39A
100
AcDbEntity
  8
0
100
AcDbCircle
 62
7
  6
CONTINUOUS
 10
-11.736325795
 20
-16.0875005994
 40
2.6718362382
100
AcDbArc
 50
238.0729124096
 51
242.0819001819
  0
ARC
  5
39B
100
AcDbEntity
  8
RACCORDO
100
AcDbCircle
 62
253
  6
CONTINUOUS
 10
-13.1837042218
 20
-11.5076517044
 40
2.3230020404
100
AcDbArc
 50
115.4300063027
 51
128.5735668688
  0
ARC
  5
39C
100
AcDbEntity
  8
0
100
AcDbCircle
 62
7
  6
CONTINUOUS
 10
-13.4710311804
 20
-14.1219450576
 40
1.1942541595
100
AcDbArc
 50
126.4434692317
 51
133.6888029223
  0
ARC
  5
39D
100
AcDbEntity
  8
0
100
AcDbCircle
 62
7
  6
CONTINUOUS
 10
-13.4732341337
 20
-1.8211424806
 40
1.1904002614
100
AcDbArc
 50
131.1288738368
 51
131.3831324559
  0
ARC
  5
39E
100
AcDbEntity
  8
0
100
AcDbCircle
 62
7
  6
CONTINUOUS
 10
-11.8530046848
 20
-17.3620808159
 40
1.1858264169
100
AcDbArc
 50
282.1709112036
 51
284.0249255775
  0
ARC
  5
39F
100
AcDbEntity
  8
0
100
AcDbCircle
 62
7
  6
CONTINUOUS
 10
-13.4875260271
 20
-1.8044063718
 40
1.1683935505
100
AcDbArc
 50
124.2366822046
 51
131.140797256
  0
ARC
  5
3A0
100
AcDbEntity
  8
0
100
AcDbCircle
 62
7
  6
CONTINUOUS
 10
-11.8468705725
 20
-17.3859252979
 40
1.1612061772
100
AcDbArc
 50
284.0164047737
 51
289.0766947554
  0
ARC
  5
3A1
100
AcDbEntity
  8
0
100
AcDbCircle
 62
7
  6
CONTINUOUS
 10
-11.8465786591
 20
-5.0890197258
 40
1.1605141865
100
AcDbArc
 50
281.9050329377
 51
288.9575955625
  0
ARC
  5
3A2
100
AcDbEntity
  8
0
100
AcDbCircle
 62
7
  6
CONTINUOUS
 10
-13.4975776165
 20
-14.0875936373
 40
1.1508514167
100
AcDbArc
 50
124.0382574848
 51
126.3962052438
  0
ARC
  5
3A3
100
AcDbEntity
  8
RACCORDO
100
AcDbCircle
 62
7
  6
CONTINUOUS
 10
18.038565656
 20
-10.5867812002
 40
1.0004886868
100
AcDbArc
 50
300.8976982453
 51
305.9315387517
  0
ARC
  5
3A4
100
AcDbEntity
  8
RACCORDO
100
AcDbCircle
 62
7
  6
CONTINUOUS
 10
18.0387428859
 20
-10.5870248097
 40
1.0001886542
100
AcDbArc
 50
297.8708874579
 51
300.6678852837
  0
ARC
  5
3A5
100
AcDbEntity
  8
RACCORDO
100
AcDbCircle
 62
7
  6
CONTINUOUS
 10
18.0389236
 20
-10.5873348234
 40
0.9998298243
100
AcDbArc
 50
300.6680392507
 51
300.8963883947
  0
ARC
  5
3A6
100
AcDbEntity
  8
0
100
AcDbCircle
 62
7
  6
CONTINUOUS
 10
12.6324752494
 20
0.462880957
 40
0.9321555723
100
AcDbArc
 50
33.7668614661
 51
37.068393128
  0
ARC
  5
3A7
100
AcDbEntity
  8
0
100
AcDbCircle
 62
7
  6
CONTINUOUS
 10
12.6324752494
 20
-8.1973730809
 40
0.9321555723
100
AcDbArc
 50
33.7668614668
 51
37.0683931285
  0
ARC
  5
3A8
100
AcDbEntity
  8
0
100
AcDbCircle
 62
7
  6
CONTINUOUS
 10
12.6324752494
 20
-3.867246062
 40
0.9321555723
100
AcDbArc
 50
33.7668614664
 51
37.068393128
  0
ARC
  5
3A9
100
AcDbEntity
  8
RACCORDO
100
AcDbCircle
 62
253
  6
CONTINUOUS
 10
18.2115545281
 20
-10.7101071153
 40
0.7928963627
100
AcDbArc
 50
305.9277820552
 51
312.1743057004
  0
ARC
  5
3AA
100
AcDbEntity
  8
RACCORDO
100
AcDbCircle
 62
253
  6
CONTINUOUS
 10
18.3874107083
 20
-10.8035664289
 40
0.6202423496
100
AcDbArc
 50
297.8121585644
 51
305.930089481
  0
ARC
  5
3AB
100
AcDbEntity
  8
RACCORDO
100
AcDbCircle
 62
253
  6
CONTINUOUS
 10
18.2617105465
 20
-10.894666981
 40
0.620242346
100
AcDbArc
 50
297.8121585454
 51
305.9300848592
  0
ARC
  5
3AC
100
AcDbEntity
  8
RACCORDO
100
AcDbCircle
 62
253
  6
CONTINUOUS
 10
18.3321067653
 20
-11.1420190608
 40
0.3724300095
100
AcDbArc
 50
297.8884983114
 51
306.0159902488
  0
ARC
  5
3AD
100
AcDbEntity
  8
SUPERFICI
100
AcDbCircle
 62
253
  6
CONTINUOUS
 10
-18.0591799113
 20
-17.3541696949
 40
0.3690948399
100
AcDbArc
 50
240.4288619353
 51
243.4338450211
  0
ARC
  5
3AE
100
AcDbEntity
  8
SUPERFICI
100
AcDbCircle
 62
7
  6
CONTINUOUS
 10
1.7440792774
 20
-23.8848708768
 40
0.2519634026
100
AcDbArc
 50
45.6626021462
 51
58.1098184187
  0
ARC
  5
3AF
100
AcDbEntity
  8
SUPERFICI
100
AcDbCircle
 62
7
  6
CONTINUOUS
 10
1.7445964543
 20
-24.2298253126
 40
0.2511575438
100
AcDbArc
 50
297.1693183394
 51
314.4513591697
  0
ARC
  5
3B0
100
AcDbEntity
  8
SUPERFICI
100
AcDbCircle
 62
7
  6
CONTINUOUS
 10
1.7451324962
 20
-23.883325786
 40
0.2501224341
100
AcDbArc
 50
0.0061800659
 51
45.5878022464
  0
ARC
  5
3B1
100
AcDbEntity
  8
SUPERFICI
100
AcDbCircle
 62
7
  6
CONTINUOUS
 10
1.7452716543
 20
-24.2308233975
 40
0.2499723149
100
AcDbArc
 50
314.5010914729
 51
359.9940750198
  0
ARC
  5
3B2
100
AcDbEntity
  8
SUPERFICI
100
AcDbCircle
 62
7
  6
CONTINUOUS
 10
-0.3822303414
 20
-25.2808608581
 40
0.2499595531
100
AcDbArc
 50
243.3880234853
 51
295.9744556518
  0
ARC
  5
3B3
100
AcDbEntity
  8
SUPERFICI
100
AcDbCircle
 62
7
  6
CONTINUOUS
 10
1.7454734607
 20
-23.8825756521
 40
0.2492780786
100
AcDbArc
 50
58.1031982819
 51
63.4377093449
  0
ARC
  5
3B4
100
AcDbEntity
  8
SUPERFICI
100
AcDbCircle
 62
7
  6
CONTINUOUS
 10
1.8863108777
 20
-23.0095281195
 40
0.189462091
100
AcDbArc
 50
292.7717188963
 51
297.2921248774
  0
ARC
  5
3B5
100
AcDbEntity
  8
SUPERFICI
100
AcDbCircle
 62
253
  6
CONTINUOUS
 10
1.7618170993
 20
-23.795546163
 40
0.1608900976
100
AcDbArc
 50
60.1189448308
 51
63.4863134447
  0
ARC
  5
3B6
100
AcDbEntity
  8
SUPERFICI
100
AcDbCircle
 62
253
  6
CONTINUOUS
 10
1.8164282215
 20
-24.3695457745
 40
0.0940651916
100
AcDbArc
 50
297.1594546592
 51
301.5975241388
  0
ARC
  5
3B7
100
AcDbEntity
  8
RACCORDO
100
AcDbCircle
 62
253
  6
CONTINUOUS
 10
-6.2177429984
 20
11.913273599
 40
9.5755720039
100
AcDbArc
 50
206.4491252422
 51
208.509772776
  0
ARC
  5
3B8
100
AcDbEntity
  8
0
100
AcDbCircle
 62
7
  6
CONTINUOUS
 10
-11.0816922642
 20
9.2016401522
 40
3.3557551236
100
AcDbArc
 50
230.3687595051
 51
231.1760114698
  0
ARC
  5
3B9
100
AcDbEntity
  8
0
100
AcDbCircle
 62
7
  6
CONTINUOUS
 10
-11.6483072869
 20
8.6504397451
 40
2.8395975236
100
AcDbArc
 50
237.0942043707
 51
238.0895600074
  0
ARC
  5
3BA
100
AcDbEntity
  8
0
100
AcDbCircle
 62
7
  6
CONTINUOUS
 10
-11.736325795
 20
8.5076208681
 40
2.6718362382
100
AcDbArc
 50
238.0729124096
 51
242.0819001819
  0
ARC
  5
3BB
100
AcDbEntity
  8
0
100
AcDbCircle
 62
7
  6
CONTINUOUS
 10
-13.4710311804
 20
10.4731764099
 40
1.1942541595
100
AcDbArc
 50
126.4434692317
 51
133.6888029223
  0
ARC
  5
3BC
100
AcDbEntity
  8
0
100
AcDbCircle
 62
7
  6
CONTINUOUS
 10
-11.8530046848
 20
7.2330406516
 40
1.1858264169
100
AcDbArc
 50
282.1709112036
 51
284.0249255775
  0
ARC
  5
3BD
100
AcDbEntity
  8
0
100
AcDbCircle
 62
7
  6
CONTINUOUS
 10
-11.8468705725
 20
7.2091961695
 40
1.1612061772
100
AcDbArc
 50
284.0164047737
 51
289.0766947554
  0
ARC
  5
3BE
100
AcDbEntity
  8
0
100
AcDbCircle
 62
7
  6
CONTINUOUS
 10
-13.4975776165
 20
10.5075278302
 40
1.1508514167
100
AcDbArc
 50
124.0382574848
 51
126.3962052438
  0
ARC
  5
3BF
100
AcDbEntity
  8
SUPERFICI
100
AcDbCircle
 62
7
  6
CONTINUOUS
 10
-0.3818921974
 20
16.3597546999
 40
0.2510466792
100
AcDbArc
 50
243.463873566
 51
258.1750263545
  0
ARC
  5
3C0
100
AcDbEntity
  8
SUPERFICI
100
AcDbCircle
 62
7
  6
CONTINUOUS
 10
-2.059540952
 20
17.1997650331
 40
0.2521069749
100
AcDbArc
 50
225.6742842524
 51
243.3887221039
  0
ARC
  5
3C1
100
AcDbEntity
  8
SUPERFICI
100
AcDbCircle
 62
7
  6
CONTINUOUS
 10
-14.3631989447
 20
23.3515940294
 40
0.2521069749
100
AcDbArc
 50
225.6742842524
 51
243.3887221039
  0
ARC
  5
3C2
100
AcDbEntity
  8
SUPERFICI
100
AcDbCircle
 62
7
  6
CONTINUOUS
 10
-12.6856322391
 20
22.5113457788
 40
0.2507981164
100
AcDbArc
 50
243.4584440923
 51
258.182365037
  0
ARC
  5
3C3
100
AcDbEntity
  8
SUPERFICI
100
AcDbCircle
 62
7
  6
CONTINUOUS
 10
0.0541584719
 20
18.6089013755
 40
0.250447831
100
AcDbArc
 50
63.3914982006
 51
72.8349627172
  0
ARC
  5
3C4
100
AcDbEntity
  8
SUPERFICI
100
AcDbCircle
 62
7
  6
CONTINUOUS
 10
-12.2490865063
 20
24.7607613921
 40
0.2504131733
100
AcDbArc
 50
106.7201789702
 51
116.0176457828
  0
ARC
  5
3C5
100
AcDbEntity
  8
SUPERFICI
100
AcDbCircle
 62
7
  6
CONTINUOUS
 10
-2.0607710417
 20
17.1980300156
 40
0.2500064919
100
AcDbArc
 50
187.174163263
 51
225.5981196305
  0
ARC
  5
3C6
100
AcDbEntity
  8
SUPERFICI
100
AcDbCircle
 62
7
  6
CONTINUOUS
 10
-14.3644290344
 20
23.3498590119
 40
0.2500064919
100
AcDbArc
 50
187.174163263
 51
225.5981196305
  0
ARC
  5
3C7
100
AcDbEntity
  8
SUPERFICI
100
AcDbCircle
 62
7
  6
CONTINUOUS
 10
-14.3644265683
 20
23.6898206849
 40
0.2500006447
100
AcDbArc
 50
117.1387678223
 51
179.9872749512
  0
ARC
  5
3C8
100
AcDbEntity
  8
SUPERFICI
100
AcDbCircle
 62
7
  6
CONTINUOUS
 10
-10.5584123403
 20
23.9156847227
 40
0.2499982232
100
AcDbArc
 50
0.0130237276
 51
63.4572926533
  0
ARC
  5
3C9
100
AcDbEntity
  8
SUPERFICI
100
AcDbCircle
 62
7
  6
CONTINUOUS
 10
-2.0607828853
 20
17.5380041201
 40
0.2499945351
100
AcDbArc
 50
117.1578603627
 51
180.0169054294
  0
ARC
  5
3CA
100
AcDbEntity
  8
SUPERFICI
100
AcDbCircle
 62
7
  6
CONTINUOUS
 10
-10.5583322134
 20
23.5681479368
 40
0.2499261752
100
AcDbArc
 50
324.9408372855
 51
0.0031605067
  0
ARC
  5
3CB
100
AcDbEntity
  8
SUPERFICI
100
AcDbCircle
 62
7
  6
CONTINUOUS
 10
0.0544022708
 20
18.609546298
 40
0.2497596867
100
AcDbArc
 50
72.844736908
 51
108.9930452782
  0
ARC
  5
3CC
100
AcDbEntity
  8
SUPERFICI
100
AcDbCircle
 62
7
  6
CONTINUOUS
 10
-12.2493136244
 20
24.7613773123
 40
0.2497579553
100
AcDbArc
 50
70.4367598766
 51
106.7109300558
  0
ARC
  5
3CD
100
AcDbEntity
  8
SUPERFICI
100
AcDbCircle
 62
7
  6
CONTINUOUS
 10
-10.5581372501
 20
23.5679900999
 40
0.2496813983
100
AcDbArc
 50
320.5790754919
 51
324.9319368105
  0
ARC
  5
3CE
100
AcDbEntity
  8
SUPERFICI
100
AcDbCircle
 62
7
  6
CONTINUOUS
 10
-2.0612356696
 20
17.1980220162
 40
0.2495445076
100
AcDbArc
 50
179.9925750309
 51
187.185663701
  0
ARC
  5
3CF
100
AcDbEntity
  8
SUPERFICI
100
AcDbCircle
 62
7
  6
CONTINUOUS
 10
-14.3648936623
 20
23.3498510125
 40
0.2495445076
100
AcDbArc
 50
179.9925750309
 51
187.185663701
  0
ARC
  5
3D0
100
AcDbEntity
  8
SUPERFICI
100
AcDbCircle
 62
7
  6
CONTINUOUS
 10
0.0537247438
 20
18.6104240917
 40
0.2487094316
100
AcDbArc
 50
108.9112722204
 51
115.9510477769
  0
ARC
  5
3D1
100
AcDbEntity
  8
SUPERFICI
100
AcDbCircle
 62
7
  6
CONTINUOUS
 10
-12.248621127
 20
24.7622546963
 40
0.2486995986
100
AcDbArc
 50
63.4563011823
 51
70.5194050608
  0
ARC
  5
3D2
100
AcDbEntity
  8
SUPERFICI
100
AcDbCircle
 62
7
  6
CONTINUOUS
 10
-5.1440677402
 20
20.0786158937
 40
0.2000264278
100
AcDbArc
 50
117.3009020161
 51
179.9954553107
  0
ARC
  5
3D3
100
AcDbEntity
  8
SUPERFICI
100
AcDbCircle
 62
7
  6
CONTINUOUS
 10
-3.4897460511
 20
24.7843279094
 40
0.1999012936
100
AcDbArc
 50
107.1517021645
 51
110.4366764977
  0
ARC
  5
3D4
100
AcDbEntity
  8
RACCORDO
100
AcDbCircle
 62
7
  6
CONTINUOUS
 10
-2.4633959899
 20
21.4687499082
 40
0.1583888448
100
AcDbArc
 50
114.7904438172
 51
131.2191435256
  0
ARC
  5
3D5
100
AcDbEntity
  8
SUPERFICI
100
AcDbCircle
 62
7
  6
CONTINUOUS
 10
-2.7956495178
 20
24.5336578434
 40
0.1504439129
100
AcDbArc
 50
98.1097445931
 51
100.4406301733
  0
ARC
  5
3D6
100
AcDbEntity
  8
SUPERFICI
100
AcDbCircle
 62
253
  6
CONTINUOUS
 10
-12.1796272583
 20
24.9004057814
 40
0.0942783586
100
AcDbArc
 50
63.4468793616
 51
70.0270077918
  0
ARC
  5
3D7
100
AcDbEntity
  8
SUPERFICI
100
AcDbCircle
 62
253
  6
CONTINUOUS
 10
-14.4341619506
 20
23.210381426
 40
0.0940674832
100
AcDbArc
 50
238.1053923535
 51
243.4300951634
  0
ARC
  5
3D8
100
AcDbEntity
  8
SUPERFICI
100
AcDbCircle
 62
253
  6
CONTINUOUS
 10
-2.130503958
 20
17.0585524297
 40
0.0940674832
100
AcDbArc
 50
238.1053923533
 51
243.4300951634
  0
ARC
  5
3D9
100
AcDbEntity
  8
SUPERFICI
100
AcDbCircle
 62
253
  6
CONTINUOUS
 10
-0.0139362155
 20
18.7494874446
 40
0.0940592748
100
AcDbArc
 50
109.4786603836
 51
115.960772569
  0
ARC
  5
3DA
100
AcDbEntity
  8
SUPERFICI
100
AcDbCircle
 62
253
  6
CONTINUOUS
 10
-14.5516099726
 20
23.3498644326
 40
0.0628249628
100
AcDbArc
 50
180.0077231325
 51
185.9625733039
  0
ARC
  5
3DB
100
AcDbEntity
  8
SUPERFICI
100
AcDbCircle
 62
253
  6
CONTINUOUS
 10
-2.24795198
 20
17.1980354362
 40
0.0628249628
100
AcDbArc
 50
180.0077231325
 51
185.9625733039
  0
ARC
  5
3DC
100
AcDbEntity
  8
SUPERFICI
100
AcDbCircle
 62
253
  6
CONTINUOUS
 10
-10.3710880509
 20
23.5681642132
 40
0.0626817544
100
AcDbArc
 50
355.7955822633
 51
359.9977237731
  0
ARC
  5
3DD
100
AcDbEntity
  8
0
100
AcDbCircle
 62
7
  6
CONTINUOUS
 10
12.6324752494
 20
4.7930079759
 40
0.9321555723
100
AcDbArc
 50
33.7668614667
 51
37.0683931285
  0
ARC
  5
3DE
100
AcDbEntity
  8
0
100
AcDbCircle
 62
7
  6
CONTINUOUS
 10
12.6324752494
 20
9.1231349948
 40
0.9321555723
100
AcDbArc
 50
33.7668614664
 51
37.068393128
  0
ARC
  5
3DF
100
AcDbEntity
  8
RACCORDO
100
AcDbCircle
 62
7
  6
CONTINUOUS
 10
4.903281973
 20
27.8405938435
 40
1.0000009487
100
AcDbArc
 50
63.4347123609
 51
115.2484099087
  0
ARC
  5
3E0
100
AcDbEntity
  8
RACCORDO
100
AcDbCircle
 62
7
  6
CONTINUOUS
 10
18.0388352012
 20
21.27281855
 40
0.9999997707
100
AcDbArc
 50
30.1049981242
 51
63.4346411817
  0
ARC
  5
3E1
100
AcDbEntity
  8
RACCORDO
100
AcDbCircle
 62
253
  6
CONTINUOUS
 10
4.6389449283
 20
28.4011061953
 40
0.3802847515
100
AcDbArc
 50
113.7297936544
 51
115.2482364724
  0
ARC
  5
3E2
100
AcDbEntity
  8
SUPERFICI
100
AcDbCircle
 62
7
  6
CONTINUOUS
 10
1.7443046281
 20
17.4172184596
 40
0.2512675066
100
AcDbArc
 50
320.5866247217
 51
329.1148386625
  0
ARC
  5
3E3
100
AcDbEntity
  8
SUPERFICI
100
AcDbCircle
 62
7
  6
CONTINUOUS
 10
1.7452580847
 20
17.7638678299
 40
0.2499940505
100
AcDbArc
 50
359.9833255576
 51
63.4358379551
  0
ARC
  5
3E4
100
AcDbEntity
  8
SUPERFICI
100
AcDbCircle
 62
7
  6
CONTINUOUS
 10
1.7457665652
 20
17.4161435203
 40
0.2494611479
100
AcDbArc
 50
329.1543594972
 51
0.0704820915
  0
ARC
  5
3E5
100
AcDbEntity
  8
SUPERFICI
100
AcDbCircle
 62
253
  6
CONTINUOUS
 10
1.9326330535
 20
17.4163334627
 40
0.0626186426
100
AcDbArc
 50
356.9681397122
 51
359.999326711
  0
ARC
  5
3E6
100
AcDbEntity
  8
SUPERFICI
100
AcDbCircle
 62
253
  6
CONTINUOUS
 10
518.3593304787
 20
0.7432100092
 40
537.5842273239
100
AcDbArc
 50
179.1231055813
 51
180.8768944187
  0
ARC
  5
3E7
100
AcDbEntity
  8
SUPERFICI
100
AcDbCircle
 62
253
  6
CONTINUOUS
 10
518.8425254452
 20
-6.6897955018
 40
523.2031420078
100
AcDbArc
 50
179.0990007583
 51
180.9009992417
  0
ARC
  5
3E8
100
AcDbEntity
  8
SUPERFICI
100
AcDbCircle
 62
253
  6
CONTINUOUS
 10
519.0112037393
 20
-6.6928856677
 40
522.6709379715
100
AcDbArc
 50
179.098985241
 51
180.901014759
  0
SPLINE
  5
3E9
100
AcDbEntity
  8
0
100
AcDbSpline
 62
7
  6
CONTINUOUS
 70
0
 71
3
 72
9
 73
5
 74
3
 42
0.0000001
 43
0.0000001
 44
0.0000000001
 12
-0.2568585613
 22
0.0241973246
 32
0.0
 13
-0.2541098997
 23
-0.0446093025
 33
0.0
 40
0.0
 40
0.0
 40
0.0
 40
0.0
 40
0.2427755223
 40
1.0
 40
1.0
 40
1.0
 40
1.0
 10
13.5201998903
 20
1.0039843882
 30
0.0
 10
13.4994135665
 20
1.0059425609
 30
0.0
 10
13.4135026355
 20
1.0108209503
 30
0.0
 10
13.327063148
 20
1.0033382066
 30
0.0
 10
13.2629237359
 20
0.9920784547
 30
0.0
 11
13.5201998903
 21
1.0039843882
 31
0.0
 11
13.4576682711
 21
1.0075827034
 31
0.0
 11
13.2629237359
 21
0.9920784547
 31
0.0
  0
SPLINE
  5
3EA
100
AcDbEntity
  8
0
100
AcDbSpline
 62
7
  6
CONTINUOUS
 70
0
 71
3
 72
9
 73
5
 74
3
 42
0.0000001
 43
0.0000001
 44
0.0000000001
 12
-0.2568585613
 22
0.0241973246
 32
0.0
 13
-0.2541098997
 23
-0.0446093025
 33
0.0
 40
0.0
 40
0.0
 40
0.0
 40
0.0
 40
0.2427755223
 40
1.0
 40
1.0
 40
1.0
 40
1.0
 10
13.5201998903
 20
-7.6562696496
 30
0.0
 10
13.4994135665
 20
-7.6543114769
 30
0.0
 10
13.4135026355
 20
-7.6494330875
 30
0.0
 10
13.327063148
 20
-7.6569158312
 30
0.0
 10
13.2629237359
 20
-7.6681755831
 30
0.0
 11
13.5201998903
 21
-7.6562696496
 31
0.0
 11
13.4576682711
 21
-7.6526713345
 31
0.0
 11
13.2629237359
 21
-7.6681755831
 31
0.0
  0
SPLINE
  5
3EB
100
AcDbEntity
  8
0
100
AcDbSpline
 62
7
  6
CONTINUOUS
 70
0
 71
3
 72
9
 73
5
 74
3
 42
0.0000001
 43
0.0000001
 44
0.0000000001
 12
-0.2568585613
 22
0.0241973246
 32
0.0
 13
-0.2541098997
 23
-0.0446093025
 33
0.0
 40
0.0
 40
0.0
 40
0.0
 40
0.0
 40
0.2427755223
 40
1.0
 40
1.0
 40
1.0
 40
1.0
 10
13.5201998903
 20
-3.3261426307
 30
0.0
 10
13.4994135665
 20
-3.324184458
 30
0.0
 10
13.4135026354
 20
-3.3193060686
 30
0.0
 10
13.327063148
 20
-3.3267888123
 30
0.0
 10
13.2629237359
 20
-3.3380485642
 30
0.0
 11
13.5201998903
 21
-3.3261426307
 31
0.0
 11
13.4576682711
 21
-3.3225443156
 31
0.0
 11
13.2629237359
 21
-3.3380485642
 31
0.0
  0
SPLINE
  5
3EC
100
AcDbEntity
  8
0
100
AcDbSpline
 62
7
  6
CONTINUOUS
 70
0
 71
3
 72
9
 73
5
 74
3
 42
0.0000001
 43
0.0000001
 44
0.0000000001
 12
-0.2568585613
 22
0.0241973246
 32
0.0
 13
-0.2541098997
 23
-0.0446093025
 33
0.0
 40
0.0
 40
0.0
 40
0.0
 40
0.0
 40
0.2427755223
 40
1.0
 40
1.0
 40
1.0
 40
1.0
 10
13.5201998903
 20
5.3341114071
 30
0.0
 10
13.4994135665
 20
5.3360695798
 30
0.0
 10
13.4135026355
 20
5.3409479692
 30
0.0
 10
13.327063148
 20
5.3334652256
 30
0.0
 10
13.2629237359
 20
5.3222054736
 30
0.0
 11
13.5201998903
 21
5.3341114071
 31
0.0
 11
13.4576682711
 21
5.3377097223
 31
0.0
 11
13.2629237359
 21
5.3222054736
 31
0.0
  0
SPLINE
  5
3ED
100
AcDbEntity
  8
0
100
AcDbSpline
 62
7
  6
CONTINUOUS
 70
0
 71
3
 72
9
 73
5
 74
3
 42
0.0000001
 43
0.0000001
 44
0.0000000001
 12
-0.2568585613
 22
0.0241973246
 32
0.0
 13
-0.2541098997
 23
-0.0446093025
 33
0.0
 40
0.0
 40
0.0
 40
0.0
 40
0.0
 40
0.2427755223
 40
1.0
 40
1.0
 40
1.0
 40
1.0
 10
13.5201998903
 20
9.664238426
 30
0.0
 10
13.4994135665
 20
9.6661965987
 30
0.0
 10
13.4135026354
 20
9.6710749882
 30
0.0
 10
13.327063148
 20
9.6635922445
 30
0.0
 10
13.2629237359
 20
9.6523324925
 30
0.0
 11
13.5201998903
 21
9.664238426
 31
0.0
 11
13.4576682711
 21
9.6678367412
 31
0.0
 11
13.2629237359
 21
9.6523324925
 31
0.0
  0
SPLINE
  5
3EE
100
AcDbEntity
  8
0
100
AcDbSpline
 62
7
  6
CONTINUOUS
 70
0
 71
3
 72
17
 73
13
 74
11
 42
0.0000001
 43
0.0000001
 44
0.0000000001
 12
5.0484873501
 22
2.5247560564
 32
0.0
 13
-4.3473044117
 23
3.6003558186
 33
0.0
 40
0.0
 40
0.0
 40
0.0
 40
0.0
 40
0.0447875476
 40
0.0909273561
 40
0.1395669284
 40
0.1915110989
 40
0.3065030273
 40
0.4360839552
 40
0.576419005
 40
0.7216180479
 40
0.8649411162
 40
1.0
 40
1.0
 40
1.0
 40
1.0
 10
-11.5964683711
 20
6.0364091456
 30
0.0
 10
-11.521098582
 20
6.0741016896
 30
0.0
 10
-11.3763485828
 20
6.1684269366
 30
0.0
 10
-11.1914957487
 20
6.3575355981
 30
0.0
 10
-11.0408828258
 20
6.5909024957
 30
0.0
 10
-10.8835994051
 20
6.9666732022
 30
0.0
 10
-10.7930665325
 20
7.524919711
 30
0.0
 10
-10.8438609661
 20
8.2519995127
 30
0.0
 10
-11.0440947564
 20
9.0112656251
 30
0.0
 10
-11.3796966317
 20
9.7491884268
 30
0.0
 10
-11.8263068205
 20
10.4135048823
 30
0.0
 10
-12.1935153965
 20
10.7925435999
 30
0.0
 10
-12.3892294237
 20
10.9546302793
 30
0.0
 11
-11.5964683711
 21
6.0364091456
 31
0.0
 11
-11.3844015568
 21
6.1740305944
 31
0.0
 11
-11.2014993761
 21
6.3594393713
 31
0.0
 11
-11.0512585984
 21
6.5892353205
 31
0.0
 11
-10.9364564766
 21
6.859030408
 31
0.0
 11
-10.8211632942
 21
7.4977934532
 31
0.0
 11
-10.8642393637
 21
8.2279576709
 31
0.0
 11
-11.062453484
 21
8.9948941149
 31
0.0
 11
-11.4010268813
 21
9.7412847357
 31
0.0
 11
-11.8545532673
 21
10.4112095799
 31
0.0
 11
-12.3892294237
 21
10.9546302793
 31
0.0
  0
SPLINE
  5
3EF
100
AcDbEntity
  8
0
100
AcDbSpline
 62
7
  6
CONTINUOUS
 70
0
 71
3
 72
17
 73
13
 74
11
 42
0.0000001
 43
0.0000001
 44
0.0000000001
 12
2.9457197464
 22
1.4720867993
 32
0.0
 13
-2.5361250301
 23
2.1005652098
 33
0.0
 40
0.0
 40
0.0
 40
0.0
 40
0.0
 40
0.0447869646
 40
0.0909233062
 40
0.1395570434
 40
0.1914952527
 40
0.3064742987
 40
0.4360468798
 40
0.576387003
 40
0.7215877592
 40
0.864944184
 40
1.0
 40
1.0
 40
1.0
 40
1.0
 10
-11.8907393975
 20
7.2868267575
 30
0.0
 10
-11.8467627821
 20
7.308803524
 30
0.0
 10
-11.7622483748
 20
7.3637228287
 30
0.0
 10
-11.6544087855
 20
7.4740457833
 30
0.0
 10
-11.5664561406
 20
7.6101114709
 30
0.0
 10
-11.47465717
 20
7.829296856
 30
0.0
 10
-11.4217439378
 20
8.1549272853
 30
0.0
 10
-11.4512929671
 20
8.5791012838
 30
0.0
 10
-11.5680786178
 20
9.0220633369
 30
0.0
 10
-11.7638303243
 20
9.4526357934
 30
0.0
 10
-12.024418009
 20
9.840220199
 30
0.0
 10
-12.2386574463
 20
10.0613858436
 30
0.0
 10
-12.3528302581
 20
10.1559503598
 30
0.0
 11
-11.8907393975
 21
7.2868267575
 31
0.0
 11
-11.7669615051
 21
7.3670222813
 31
0.0
 11
-11.6602291762
 21
7.4751471364
 31
0.0
 11
-11.5725205236
 21
7.6091492968
 31
0.0
 11
-11.505503549
 21
7.7665090041
 31
0.0
 11
-11.4381462501
 21
8.1391035037
 31
0.0
 11
-11.4631904396
 21
8.5650593675
 31
0.0
 11
-11.5787868942
 21
9.0125186746
 31
0.0
 11
-11.7762709284
 21
9.4479877786
 31
0.0
 11
-12.0409175002
 21
9.8389151258
 31
0.0
 11
-12.3528302581
 21
10.1559503598
 31
0.0
  0
SPLINE
  5
3F0
100
AcDbEntity
  8
0
100
AcDbSpline
 62
7
  6
CONTINUOUS
 70
0
 71
3
 72
13
 73
9
 74
7
 42
0.0000001
 43
0.0000001
 44
0.0000000001
 12
-2.9569641319
 22
-1.4800971831
 32
0.0
 13
-2.5467549492
 23
2.1091144534
 33
0.0
 40
0.0
 40
0.0
 40
0.0
 40
0.0
 40
0.1203562893
 40
0.2409608729
 40
0.3621837485
 40
0.4846263712
 40
0.7356493768
 40
1.0
 40
1.0
 40
1.0
 40
1.0
 10
-10.3747216101
 20
5.3615724725
 30
0.0
 10
-10.4933513536
 20
5.3021928043
 30
0.0
 10
-10.7423874831
 20
5.2049684368
 30
0.0
 10
-11.1361965856
 20
5.128373053
 30
0.0
 10
-11.5395401247
 20
5.1204057384
 30
0.0
 10
-12.0814317576
 20
5.1967714357
 30
0.0
 10
-12.7476500614
 20
5.4479239531
 30
0.0
 10
-13.2210481882
 20
5.7703297403
 30
0.0
 10
-13.4454602741
 20
5.9561783137
 30
0.0
 11
-10.3747216101
 21
5.3615724725
 31
0.0
 11
-10.7453654646
 21
5.216611159
 31
0.0
 11
-11.136724052
 21
5.1399085014
 31
0.0
 11
-11.5374751825
 21
5.1310613011
 31
0.0
 11
-11.9385393571
 21
5.1865325817
 31
0.0
 11
-12.7183263028
 21
5.471018055
 31
0.0
 11
-13.4454602741
 21
5.9561783137
 31
0.0
  0
SPLINE
  5
3F1
100
AcDbEntity
  8
0
100
AcDbSpline
 62
7
  6
CONTINUOUS
 70
0
 71
3
 72
18
 73
14
 74
12
 42
0.0000001
 43
0.0000001
 44
0.0000000001
 12
-6.0928586196
 22
5.0459909852
 32
0.0
 13
7.0743254484
 23
3.5410267765
 33
0.0
 40
0.0
 40
0.0
 40
0.0
 40
0.0
 40
0.1295227615
 40
0.2642277304
 40
0.3998795536
 40
0.5318484213
 40
0.656928102
 40
0.7167582318
 40
0.7749950489
 40
0.8320335429
 40
0.8883215425
 40
0.9442311388
 40
1.0
 40
1.0
 40
1.0
 40
1.0
 10
-13.4455097546
 20
5.9562192919
 30
0.0
 10
-13.7085643792
 20
6.1740761875
 30
0.0
 10
-14.1968583425
 20
6.6788960991
 30
0.0
 10
-14.781158448
 20
7.5627419182
 30
0.0
 10
-15.2076952362
 20
8.540196225
 30
0.0
 10
-15.4489147932
 20
9.553049236
 30
0.0
 10
-15.4771132493
 20
10.3959047815
 30
0.0
 10
-15.3794649537
 20
11.0312891802
 30
0.0
 10
-15.246795075
 20
11.4753180752
 30
0.0
 10
-15.0511087333
 20
11.8854431636
 30
0.0
 10
-14.791249622
 20
12.2512926748
 30
0.0
 10
-14.4698081319
 20
12.5599050488
 30
0.0
 10
-14.219108911
 20
12.7189088069
 30
0.0
 10
-14.0875998862
 20
12.7847351506
 30
0.0
 11
-13.4455097546
 21
5.9562192919
 31
0.0
 11
-14.1627223029
 21
6.6880255661
 31
0.0
 11
-14.7528603309
 21
7.5753630864
 31
0.0
 11
-15.1809387091
 21
8.559436607
 31
0.0
 11
-15.41755795
 21
9.5762833036
 31
0.0
 11
-15.4414115861
 21
10.5655092465
 31
0.0
 11
-15.3680299388
 21
11.0331063021
 31
0.0
 11
-15.2346203432
 21
11.4740829711
 31
0.0
 11
-15.0389165786
 21
11.8806703274
 31
0.0
 11
-14.7799874599
 21
12.2429492901
 31
0.0
 11
-14.4602711292
 21
12.548587475
 31
0.0
 11
-14.0875998862
 21
12.7847351506
 31
0.0
  0
SPLINE
  5
3F2
100
AcDbEntity
  8
0
100
AcDbSpline
 62
7
  6
CONTINUOUS
 70
0
 71
3
 72
13
 73
9
 74
7
 42
0.0000001
 43
0.0000001
 44
0.0000000001
 12
-1.5790393062
 22
1.3076933874
 32
0.0
 13
-1.8337035371
 23
-0.9170378749
 33
0.0
 40
0.0
 40
0.0
 40
0.0
 40
0.0
 40
0.2919664315
 40
0.426518603
 40
0.5531852706
 40
0.785054566
 40
0.8937312216
 40
1.0
 40
1.0
 40
1.0
 40
1.0
 10
-12.3892294237
 20
-13.6404911882
 30
0.0
 10
-12.5429049142
 20
-13.5132236642
 30
0.0
 10
-12.7847324819
 20
-13.3457326283
 30
0.0
 10
-13.1286845254
 20
-13.1866800984
 30
0.0
 10
-13.4503847427
 20
-13.0846743015
 30
0.0
 10
-13.7748020244
 20
-13.0530826261
 30
0.0
 10
-14.0769246691
 20
-13.1068742723
 30
0.0
 10
-14.2151115427
 20
-13.1598456063
 30
0.0
 10
-14.2800666876
 20
-13.1923297712
 30
0.0
 11
-12.3892294237
 21
-13.6404911882
 31
0.0
 11
-12.8849328845
 21
-13.3049368853
 31
0.0
 11
-13.1357119235
 21
-13.1900024514
 31
0.0
 11
-13.383625697
 21
-13.1126693092
 31
0.0
 11
-13.8574700497
 21
-13.0744340147
 31
0.0
 11
-14.0767243286
 21
-13.114090322
 31
0.0
 11
-14.2800666876
 21
-13.1923297712
 31
0.0
  0
SPLINE
  5
3F3
100
AcDbEntity
  8
0
100
AcDbSpline
 62
7
  6
CONTINUOUS
 70
0
 71
3
 72
12
 73
8
 74
6
 42
0.0000001
 43
0.0000001
 44
0.0000000001
 12
1.6918090907
 22
0.8452655039
 32
0.0
 13
0.0000138911
 23
1.8912143642
 33
0.0
 40
0.0
 40
0.0
 40
0.0
 40
0.0
 40
0.1078338167
 40
0.2178206313
 40
0.450862421
 40
0.7105190951
 40
1.0
 40
1.0
 40
1.0
 40
1.0
 10
-11.5970467788
 20
-6.2614200079
 30
0.0
 10
-11.5362353683
 20
-6.2310372727
 30
0.0
 10
-11.4187158115
 20
-6.1582949123
 30
0.0
 10
-11.2065484651
 20
-5.9672391405
 30
0.0
 10
-10.994630081
 20
-5.6437263143
 30
0.0
 10
-10.8465356266
 20
-5.168642647
 30
0.0
 10
-10.8169485262
 20
-4.8211106331
 30
0.0
 10
-10.8169471858
 20
-4.6386204846
 30
0.0
 11
-11.5970467788
 21
-6.2614200079
 31
0.0
 11
-11.4235578755
 21
-6.1542199865
 31
0.0
 11
-11.2686509181
 21
-6.0153984091
 31
0.0
 11
-11.0218769528
 21
-5.6502309291
 31
0.0
 11
-10.8688133852
 21
-5.1836285452
 31
0.0
 11
-10.8169471858
 21
-4.6386204846
 31
0.0
  0
SPLINE
  5
3F4
100
AcDbEntity
  8
0
100
AcDbSpline
 62
7
  6
CONTINUOUS
 70
0
 71
3
 72
11
 73
7
 74
5
 42
0.0000001
 43
0.0000001
 44
0.0000000001
 12
0.9854623835
 22
0.4928700443
 32
0.0
 13
0.0000605519
 23
1.1018425415
 33
0.0
 40
0.0
 40
0.0
 40
0.0
 40
0.0
 40
0.2171635391
 40
0.45037587
 40
0.7103699282
 40
1.0
 40
1.0
 40
1.0
 40
1.0
 10
-11.8903475801
 20
-5.010557196
 30
0.0
 10
-11.8190120805
 20
-4.974879395
 30
0.0
 10
-11.6841063931
 20
-4.8721014493
 30
0.0
 10
-11.539388947
 20
-4.6502512672
 30
0.0
 10
-11.4529028671
 20
-4.3730898387
 30
0.0
 10
-11.4356714652
 20
-4.170471803
 30
0.0
 10
-11.4356656194
 20
-4.0640962249
 30
0.0
 11
-11.8903475801
 21
-5.010557196
 31
0.0
 11
-11.6989471003
 21
-4.8669577974
 31
0.0
 11
-11.5551273056
 21
-4.6540118239
 31
0.0
 11
-11.4659085733
 21
-4.3817866979
 31
0.0
 11
-11.4356656194
 21
-4.0640962249
 31
0.0
  0
SPLINE
  5
3F5
100
AcDbEntity
  8
0
100
AcDbSpline
 62
7
  6
CONTINUOUS
 70
0
 71
3
 72
18
 73
14
 74
12
 42
0.0000001
 43
0.0000001
 44
0.0000000001
 12
-7.2693266194
 22
-3.6295836398
 32
0.0
 13
-0.0000596577
 23
8.1250838084
 33
0.0
 40
0.0
 40
0.0
 40
0.0
 40
0.0
 40
0.0557679698
 40
0.1116870227
 40
0.1680129094
 40
0.2251528239
 40
0.283571407
 40
0.3436693259
 40
0.469466168
 40
0.602087381
 40
0.737883007
 40
0.8719190222
 40
1.0
 40
1.0
 40
1.0
 40
1.0
 10
-10.375851556
 20
-6.9365699776
 30
0.0
 10
-10.5109834184
 20
-7.0040414812
 30
0.0
 10
-10.7965630401
 20
-7.1113036548
 30
0.0
 10
-11.2490641326
 20
-7.181601822
 30
0.0
 10
-11.710121547
 20
-7.1639416133
 30
0.0
 10
-12.1671145254
 20
-7.0646482137
 30
0.0
 10
-12.6121111338
 20
-6.8914809735
 30
0.0
 10
-13.1909877964
 20
-6.5673704895
 30
0.0
 10
-13.8581073586
 20
-6.0077593848
 30
0.0
 10
-14.5254002846
 20
-5.1667168601
 30
0.0
 10
-15.0412477429
 20
-4.1997725029
 30
0.0
 10
-15.3739454936
 20
-3.1689157684
 30
0.0
 10
-15.4585445618
 20
-2.4576351757
 30
0.0
 10
-15.4585471088
 20
-2.110745616
 30
0.0
 11
-10.375851556
 21
-6.9365699776
 31
0.0
 11
-10.7999718546
 21
-7.0960666505
 31
0.0
 11
-11.2487679539
 21
-7.1668709558
 31
0.0
 11
-11.7061378696
 21
-7.1507893862
 31
0.0
 11
-12.1601722168
 21
-7.0538549628
 31
0.0
 11
-12.6031363017
 21
-6.8833233621
 31
0.0
 11
-13.0299787613
 21
-6.6461672579
 31
0.0
 11
-13.8192122824
 21
-5.9966912641
 31
0.0
 11
-14.4930981636
 21
-5.1558523523
 31
0.0
 11
-15.0130470785
 21
-4.1826944993
 31
0.0
 11
-15.3437389265
 21
-3.1450619995
 31
0.0
 11
-15.4585471088
 21
-2.110745616
 31
0.0
  0
SPLINE
  5
3F6
100
AcDbEntity
  8
0
100
AcDbSpline
 62
7
  6
CONTINUOUS
 70
0
 71
3
 72
12
 73
8
 74
6
 42
0.0000001
 43
0.0000001
 44
0.0000000001
 12
-0.9203423229
 22
0.7621180391
 32
0.0
 13
-1.0688886422
 23
-0.5341638022
 33
0.0
 40
0.0
 40
0.0
 40
0.0
 40
0.0
 40
0.2920446876
 40
0.5529705328
 40
0.7849273305
 40
0.8936770335
 40
1.0
 40
1.0
 40
1.0
 40
1.0
 10
-12.3528302581
 20
-14.4391711077
 30
0.0
 10
-12.4424239535
 20
-14.3649802661
 30
0.0
 10
-12.6249680834
 20
-14.2387039741
 30
0.0
 10
-12.9175701447
 20
-14.1203013787
 30
0.0
 10
-13.1607540026
 20
-14.0966053893
 30
0.0
 10
-13.3369888828
 20
-14.1277798126
 30
0.0
 10
-13.4175831049
 20
-14.1586510468
 30
0.0
 10
-13.4554655754
 20
-14.1775823402
 30
0.0
 11
-12.3528302581
 21
-14.4391711077
 31
0.0
 11
-12.6418208466
 21
-14.2435535196
 31
0.0
 11
-12.9327106684
 21
-14.1313274786
 31
0.0
 11
-13.2089804923
 21
-14.1089853067
 31
0.0
 11
-13.3368730236
 21
-14.1320072858
 31
0.0
 11
-13.4554655754
 21
-14.1775823402
 31
0.0
  0
SPLINE
  5
3F7
100
AcDbEntity
  8
0
100
AcDbSpline
 62
7
  6
CONTINUOUS
 70
0
 71
3
 72
13
 73
9
 74
7
 42
0.0000001
 43
0.0000001
 44
0.0000000001
 12
0.0000227068
 22
3.0925366794
 32
0.0
 13
2.7668218243
 23
1.3814775086
 33
0.0
 40
0.0
 40
0.0
 40
0.0
 40
0.0
 40
0.262644763
 40
0.5133679231
 40
0.6361086057
 40
0.7578297329
 40
0.879018765
 40
1.0
 40
1.0
 40
1.0
 40
1.0
 10
-15.4585471088
 20
-2.1106818678
 30
0.0
 10
-15.4585451209
 20
-1.83993568
 30
0.0
 10
-15.4093644776
 20
-1.3087774439
 30
0.0
 10
-15.1979201176
 20
-0.6797970426
 30
0.0
 10
-14.9362321921
 20
-0.2395487497
 30
0.0
 10
-14.6956553973
 20
0.0527252815
 30
0.0
 10
-14.4121546457
 20
0.3008754985
 30
0.0
 10
-14.1980477808
 20
0.4320451814
 30
0.0
 10
-14.0864699404
 20
0.4877561332
 30
0.0
 11
-15.4585471088
 21
-2.1106818678
 31
0.0
 11
-15.3764295805
 21
-1.302605018
 31
0.0
 11
-15.1223768478
 21
-0.5700364352
 31
0.0
 11
-14.9277142476
 21
-0.2441722053
 31
0.0
 11
-14.6879165506
 21
0.0459904883
 31
0.0
 11
-14.4056226645
 21
0.2925089557
 31
0.0
 11
-14.0864699404
 21
0.4877561332
 31
0.0
  0
SPLINE
  5
3F8
100
AcDbEntity
  8
0
100
AcDbSpline
 62
7
  6
CONTINUOUS
 70
0
 71
3
 72
17
 73
13
 74
11
 42
0.0000001
 43
0.0000001
 44
0.0000000001
 12
5.0484873501
 22
2.5247560564
 32
0.0
 13
-4.3473044117
 23
3.6003558186
 33
0.0
 40
0.0
 40
0.0
 40
0.0
 40
0.0
 40
0.0447875476
 40
0.0909273561
 40
0.1395669284
 40
0.1915110989
 40
0.3065030273
 40
0.4360839552
 40
0.576419005
 40
0.7216180479
 40
0.8649411162
 40
1.0
 40
1.0
 40
1.0
 40
1.0
 10
-11.5964683711
 20
-18.5587123219
 30
0.0
 10
-11.521098582
 20
-18.5210197779
 30
0.0
 10
-11.3763485828
 20
-18.4266945309
 30
0.0
 10
-11.1914957487
 20
-18.2375858694
 30
0.0
 10
-11.0408828258
 20
-18.0042189718
 30
0.0
 10
-10.8835994051
 20
-17.6284482653
 30
0.0
 10
-10.7930665325
 20
-17.0702017565
 30
0.0
 10
-10.8438609661
 20
-16.3431219548
 30
0.0
 10
-11.0440947564
 20
-15.5838558424
 30
0.0
 10
-11.3796966317
 20
-14.8459330406
 30
0.0
 10
-11.8263068205
 20
-14.1816165852
 30
0.0
 10
-12.1935153965
 20
-13.8025778676
 30
0.0
 10
-12.3892294237
 20
-13.6404911882
 30
0.0
 11
-11.5964683711
 21
-18.5587123219
 31
0.0
 11
-11.3844015568
 21
-18.4210908731
 31
0.0
 11
-11.2014993761
 21
-18.2356820962
 31
0.0
 11
-11.0512585984
 21
-18.005886147
 31
0.0
 11
-10.9364564766
 21
-17.7360910595
 31
0.0
 11
-10.8211632942
 21
-17.0973280143
 31
0.0
 11
-10.8642393637
 21
-16.3671637966
 31
0.0
 11
-11.062453484
 21
-15.6002273526
 31
0.0
 11
-11.4010268813
 21
-14.8538367318
 31
0.0
 11
-11.8545532673
 21
-14.1839118876
 31
0.0
 11
-12.3892294237
 21
-13.6404911882
 31
0.0
  0
SPLINE
  5
3F9
100
AcDbEntity
  8
0
100
AcDbSpline
 62
7
  6
CONTINUOUS
 70
0
 71
3
 72
17
 73
13
 74
11
 42
0.0000001
 43
0.0000001
 44
0.0000000001
 12
2.9457197464
 22
1.4720867993
 32
0.0
 13
-2.5361250301
 23
2.1005652098
 33
0.0
 40
0.0
 40
0.0
 40
0.0
 40
0.0
 40
0.0447869646
 40
0.0909233062
 40
0.1395570434
 40
0.1914952527
 40
0.3064742987
 40
0.4360468798
 40
0.576387003
 40
0.7215877592
 40
0.864944184
 40
1.0
 40
1.0
 40
1.0
 40
1.0
 10
-11.8907393975
 20
-17.30829471
 30
0.0
 10
-11.8467627821
 20
-17.2863179435
 30
0.0
 10
-11.7622483748
 20
-17.2313986388
 30
0.0
 10
-11.6544087855
 20
-17.1210756842
 30
0.0
 10
-11.5664561406
 20
-16.9850099966
 30
0.0
 10
-11.47465717
 20
-16.7658246114
 30
0.0
 10
-11.4217439378
 20
-16.4401941821
 30
0.0
 10
-11.4512929671
 20
-16.0160201836
 30
0.0
 10
-11.5680786178
 20
-15.5730581306
 30
0.0
 10
-11.7638303243
 20
-15.1424856741
 30
0.0
 10
-12.024418009
 20
-14.7549012685
 30
0.0
 10
-12.2386574463
 20
-14.5337356239
 30
0.0
 10
-12.3528302581
 20
-14.4391711077
 30
0.0
 11
-11.8907393975
 21
-17.30829471
 31
0.0
 11
-11.7669615051
 21
-17.2280991862
 31
0.0
 11
-11.6602291762
 21
-17.119974331
 31
0.0
 11
-11.5725205236
 21
-16.9859721707
 31
0.0
 11
-11.505503549
 21
-16.8286124634
 31
0.0
 11
-11.4381462501
 21
-16.4560179638
 31
0.0
 11
-11.4631904396
 21
-16.0300621
 31
0.0
 11
-11.5787868942
 21
-15.5826027929
 31
0.0
 11
-11.7762709284
 21
-15.1471336889
 31
0.0
 11
-12.0409175002
 21
-14.7562063416
 31
0.0
 11
-12.3528302581
 21
-14.4391711077
 31
0.0
  0
SPLINE
  5
3FA
100
AcDbEntity
  8
0
100
AcDbSpline
 62
7
  6
CONTINUOUS
 70
0
 71
3
 72
13
 73
9
 74
7
 42
0.0000001
 43
0.0000001
 44
0.0000000001
 12
-2.9569641319
 22
-1.4800971831
 32
0.0
 13
-2.5467549492
 23
2.1091144534
 33
0.0
 40
0.0
 40
0.0
 40
0.0
 40
0.0
 40
0.1203562893
 40
0.2409608729
 40
0.3621837485
 40
0.4846263712
 40
0.7356493768
 40
1.0
 40
1.0
 40
1.0
 40
1.0
 10
-10.3747216101
 20
-19.233548995
 30
0.0
 10
-10.4933513536
 20
-19.2929286632
 30
0.0
 10
-10.7423874831
 20
-19.3901530307
 30
0.0
 10
-11.1361965856
 20
-19.4667484144
 30
0.0
 10
-11.5395401247
 20
-19.4747157291
 30
0.0
 10
-12.0814317576
 20
-19.3983500318
 30
0.0
 10
-12.7476500614
 20
-19.1471975144
 30
0.0
 10
-13.2210481882
 20
-18.8247917272
 30
0.0
 10
-13.4454602741
 20
-18.6389431538
 30
0.0
 11
-10.3747216101
 21
-19.233548995
 31
0.0
 11
-10.7453654646
 21
-19.3785103085
 31
0.0
 11
-11.136724052
 21
-19.4552129661
 31
0.0
 11
-11.5374751825
 21
-19.4640601664
 31
0.0
 11
-11.9385393571
 21
-19.4085888858
 31
0.0
 11
-12.7183263028
 21
-19.1241034125
 31
0.0
 11
-13.4454602741
 21
-18.6389431538
 31
0.0
  0
SPLINE
  5
3FB
100
AcDbEntity
  8
0
100
AcDbSpline
 62
7
  6
CONTINUOUS
 70
0
 71
3
 72
18
 73
14
 74
12
 42
0.0000001
 43
0.0000001
 44
0.0000000001
 12
-6.0928586196
 22
5.0459909852
 32
0.0
 13
7.0743254484
 23
3.5410267765
 33
0.0
 40
0.0
 40
0.0
 40
0.0
 40
0.0
 40
0.1295227615
 40
0.2642277304
 40
0.3998795536
 40
0.5318484213
 40
0.656928102
 40
0.7167582318
 40
0.7749950489
 40
0.8320335429
 40
0.8883215425
 40
0.9442311388
 40
1.0
 40
1.0
 40
1.0
 40
1.0
 10
-13.4455097546
 20
-18.6389021756
 30
0.0
 10
-13.7085643792
 20
-18.42104528
 30
0.0
 10
-14.1968583425
 20
-17.9162253684
 30
0.0
 10
-14.781158448
 20
-17.0323795493
 30
0.0
 10
-15.2076952362
 20
-16.0549252424
 30
0.0
 10
-15.4489147932
 20
-15.0420722315
 30
0.0
 10
-15.4771132493
 20
-14.199216686
 30
0.0
 10
-15.3794649537
 20
-13.5638322873
 30
0.0
 10
-15.246795075
 20
-13.1198033922
 30
0.0
 10
-15.0511087333
 20
-12.7096783039
 30
0.0
 10
-14.791249622
 20
-12.3438287926
 30
0.0
 10
-14.4698081319
 20
-12.0352164187
 30
0.0
 10
-14.219108911
 20
-11.8762126606
 30
0.0
 10
-14.0875998862
 20
-11.8103863169
 30
0.0
 11
-13.4455097546
 21
-18.6389021756
 31
0.0
 11
-14.1627223029
 21
-17.9070959014
 31
0.0
 11
-14.7528603309
 21
-17.0197583811
 31
0.0
 11
-15.1809387091
 21
-16.0356848605
 31
0.0
 11
-15.41755795
 21
-15.0188381639
 31
0.0
 11
-15.4414115861
 21
-14.029612221
 31
0.0
 11
-15.3680299388
 21
-13.5620151654
 31
0.0
 11
-15.2346203432
 21
-13.1210384964
 31
0.0
 11
-15.0389165786
 21
-12.7144511401
 31
0.0
 11
-14.7799874599
 21
-12.3521721774
 31
0.0
 11
-14.4602711292
 21
-12.0465339925
 31
0.0
 11
-14.0875998862
 21
-11.8103863169
 31
0.0
  0
SPLINE
  5
3FC
100
AcDbEntity
  8
0
100
AcDbSpline
 62
7
  6
CONTINUOUS
 70
0
 71
3
 72
17
 73
13
 74
11
 42
0.0000001
 43
0.0000001
 44
0.0000000001
 12
-0.0000426197
 22
5.8025296066
 32
0.0
 13
-5.1907242898
 23
-2.5934014699
 33
0.0
 40
0.0
 40
0.0
 40
0.0
 40
0.0
 40
0.1325733557
 40
0.27475839
 40
0.4200100145
 40
0.5612028387
 40
0.6919508918
 40
0.8079353901
 40
0.8602030864
 40
0.9090245611
 40
0.9552259895
 40
1.0
 40
1.0
 40
1.0
 40
1.0
 10
-10.8169471858
 20
-4.6386204846
 30
0.0
 10
-10.8169490692
 20
-4.3822002108
 30
0.0
 10
-10.8802989262
 20
-3.8499622695
 30
0.0
 10
-11.1255950482
 20
-3.0714871322
 30
0.0
 10
-11.5069764022
 20
-2.3308186131
 30
0.0
 10
-11.9963963496
 20
-1.6837065447
 30
0.0
 10
-12.5573961771
 20
-1.1781724919
 30
0.0
 10
-13.0715410095
 20
-0.8962412525
 30
0.0
 10
-13.4787227218
 20
-0.7864685814
 30
0.0
 10
-13.7643998824
 20
-0.7624929356
 30
0.0
 10
-14.0347960383
 20
-0.7953927844
 30
0.0
 10
-14.2020184319
 20
-0.8557949562
 30
0.0
 10
-14.2794882799
 20
-0.8945006177
 30
0.0
 11
-10.8169471858
 21
-4.6386204846
 31
0.0
 11
-10.9006927893
 21
-3.8739317341
 31
0.0
 11
-11.1453083569
 21
-3.0859961636
 31
0.0
 11
-11.5314585066
 21
-2.3368331886
 31
0.0
 11
-12.0286644025
 21
-1.6856813535
 31
0.0
 11
-12.5976887607
 21
-1.183893936
 31
0.0
 11
-13.193596206
 21
-0.8711192437
 31
0.0
 11
-13.486910466
 21
-0.7939930601
 31
0.0
 11
-13.7693476171
 21
-0.7720527699
 31
0.0
 11
-14.0353021005
 21
-0.8057850041
 31
0.0
 11
-14.2794882799
 21
-0.8945006177
 31
0.0
  0
SPLINE
  5
3FD
100
AcDbEntity
  8
0
100
AcDbSpline
 62
7
  6
CONTINUOUS
 70
0
 71
3
 72
17
 73
13
 74
11
 42
0.0000001
 43
0.0000001
 44
0.0000000001
 12
-0.0001860249
 22
3.3852197012
 32
0.0
 13
-3.0276618935
 23
-1.5142575472
 33
0.0
 40
0.0
 40
0.0
 40
0.0
 40
0.0
 40
0.1325734287
 40
0.2747839417
 40
0.4200386795
 40
0.5612339955
 40
0.6919756355
 40
0.8079489258
 40
0.8602086534
 40
0.9090277013
 40
0.9552233378
 40
1.0
 40
1.0
 40
1.0
 40
1.0
 10
-11.4356656194
 20
-4.0640962249
 30
0.0
 10
-11.43567384
 20
-3.9144994973
 30
0.0
 10
-11.4726474892
 20
-3.60396415
 30
0.0
 10
-11.6157574718
 20
-3.1497630451
 30
0.0
 10
-11.8383210287
 20
-2.717646905
 30
0.0
 10
-12.1238805306
 20
-2.3401389448
 30
0.0
 10
-12.4512198898
 20
-2.0452924329
 30
0.0
 10
-12.7511886121
 20
-1.8808773393
 30
0.0
 10
-12.9887466535
 20
-1.8169674058
 30
0.0
 10
-13.1553986089
 20
-1.8030014119
 30
0.0
 10
-13.3131279183
 20
-1.8223287575
 30
0.0
 10
-13.4106678614
 20
-1.8575972538
 30
0.0
 10
-13.4558573927
 20
-1.8801983867
 30
0.0
 11
-11.4356656194
 21
-4.0640962249
 31
0.0
 11
-11.4845366068
 21
-3.617974879
 31
0.0
 11
-11.6272781836
 21
-3.158209592
 31
0.0
 11
-11.852602182
 21
-2.7211548265
 31
0.0
 11
-12.1427197485
 21
-2.3412943666
 31
0.0
 11
-12.4747310258
 21
-2.0486278486
 31
0.0
 11
-12.8224012289
 21
-1.8662647028
 31
0.0
 11
-12.9935147939
 21
-1.8213477863
 31
0.0
 11
-13.1582855509
 21
-1.8085993005
 31
0.0
 11
-13.3134123738
 21
-1.8283759871
 31
0.0
 11
-13.4558573927
 21
-1.8801983867
 31
0.0
  0
SPLINE
  5
3FE
100
AcDbEntity
  8
0
100
AcDbSpline
 62
7
  6
CONTINUOUS
 70
0
 71
3
 72
13
 73
9
 74
7
 42
0.0000001
 43
0.0000001
 44
0.0000000001
 12
-1.5790393062
 22
1.3076933874
 32
0.0
 13
-1.8337035371
 23
-0.9170378749
 33
0.0
 40
0.0
 40
0.0
 40
0.0
 40
0.0
 40
0.2919664315
 40
0.426518603
 40
0.5531852706
 40
0.785054566
 40
0.8937312216
 40
1.0
 40
1.0
 40
1.0
 40
1.0
 10
-12.3892294237
 20
10.9546302793
 30
0.0
 10
-12.5429049142
 20
11.0818978032
 30
0.0
 10
-12.7847324819
 20
11.2493888392
 30
0.0
 10
-13.1286845254
 20
11.4084413691
 30
0.0
 10
-13.4503847427
 20
11.510447166
 30
0.0
 10
-13.7748020244
 20
11.5420388414
 30
0.0
 10
-14.0769246691
 20
11.4882471952
 30
0.0
 10
-14.2151115427
 20
11.4352758612
 30
0.0
 10
-14.2800666876
 20
11.4027916963
 30
0.0
 11
-12.3892294237
 21
10.9546302793
 31
0.0
 11
-12.8849328845
 21
11.2901845822
 31
0.0
 11
-13.1357119235
 21
11.405119016
 31
0.0
 11
-13.383625697
 21
11.4824521583
 31
0.0
 11
-13.8574700497
 21
11.5206874528
 31
0.0
 11
-14.0767243286
 21
11.4810311455
 31
0.0
 11
-14.2800666876
 21
11.4027916963
 31
0.0
  0
SPLINE
  5
3FF
100
AcDbEntity
  8
0
100
AcDbSpline
 62
7
  6
CONTINUOUS
 70
0
 71
3
 72
12
 73
8
 74
6
 42
0.0000001
 43
0.0000001
 44
0.0000000001
 12
-0.9203423229
 22
0.7621180391
 32
0.0
 13
-1.0688886422
 23
-0.5341638022
 33
0.0
 40
0.0
 40
0.0
 40
0.0
 40
0.0
 40
0.2920446876
 40
0.5529705328
 40
0.7849273305
 40
0.8936770335
 40
1.0
 40
1.0
 40
1.0
 40
1.0
 10
-12.3528302581
 20
10.1559503598
 30
0.0
 10
-12.4424239535
 20
10.2301412013
 30
0.0
 10
-12.6249680834
 20
10.3564174933
 30
0.0
 10
-12.9175701447
 20
10.4748200888
 30
0.0
 10
-13.1607540026
 20
10.4985160782
 30
0.0
 10
-13.3369888828
 20
10.4673416549
 30
0.0
 10
-13.4175831049
 20
10.4364704207
 30
0.0
 10
-13.4554655754
 20
10.4175391273
 30
0.0
 11
-12.3528302581
 21
10.1559503598
 31
0.0
 11
-12.6418208466
 21
10.3515679479
 31
0.0
 11
-12.9327106684
 21
10.4637939889
 31
0.0
 11
-13.2089804923
 21
10.4861361607
 31
0.0
 11
-13.3368730236
 21
10.4631141817
 31
0.0
 11
-13.4554655754
 21
10.4175391273
 31
0.0
  0
SPLINE
  5
400
100
AcDbEntity
  8
0
100
AcDbSpline
 62
7
  6
CONTINUOUS
 70
0
 71
3
 72
11
 73
7
 74
5
 42
0.0000001
 43
0.0000001
 44
0.0000000001
 12
0.0000117163
 22
1.5951253757
 32
0.0
 13
1.1968323963
 23
1.0545222517
 33
0.0
 40
0.0
 40
0.0
 40
0.0
 40
0.0
 40
0.2836503959
 40
0.5437471989
 40
0.7809043626
 40
1.0
 40
1.0
 40
1.0
 40
1.0
 10
-14.79442283
 20
-2.3847176196
 30
0.0
 10
-14.7944217222
 20
-2.2338983048
 30
0.0
 10
-14.773951884
 20
-1.9441135723
 30
0.0
 10
-14.6735616066
 20
-1.5387031475
 30
0.0
 10
-14.5063991253
 20
-1.1930006313
 30
0.0
 10
-14.3476039617
 20
-1.0049920928
 30
0.0
 10
-14.2601970428
 20
-0.9279783512
 30
0.0
 11
-14.79442283
 21
-2.3847176196
 31
0.0
 11
-14.7596132746
 21
-1.9336006877
 31
0.0
 11
-14.6563551887
 21
-1.5317686341
 31
0.0
 11
-14.4880464051
 21
-1.1929772964
 31
0.0
 11
-14.2601970428
 21
-0.9279783512
 31
0.0
  0
SPLINE
  5
401
100
AcDbEntity
  8
0
100
AcDbSpline
 62
7
  6
CONTINUOUS
 70
0
 71
3
 72
17
 73
13
 74
11
 42
0.0000001
 43
0.0000001
 44
0.0000000001
 12
0.0001860249
 22
-3.3852197012
 32
0.0
 13
3.0276618935
 23
1.5142575472
 33
0.0
 40
0.0
 40
0.0
 40
0.0
 40
0.0
 40
0.1325734287
 40
0.2747839417
 40
0.4200386795
 40
0.5612339955
 40
0.6919756355
 40
0.8079489258
 40
0.8602086534
 40
0.9090277013
 40
0.9552233378
 40
1.0
 40
1.0
 40
1.0
 40
1.0
 10
-13.9105393535
 20
-2.8266593578
 30
0.0
 10
-13.9105311329
 20
-2.9762560853
 30
0.0
 10
-13.8735574836
 20
-3.2867914326
 30
0.0
 10
-13.7304475011
 20
-3.7409925376
 30
0.0
 10
-13.5078839442
 20
-4.1731086776
 30
0.0
 10
-13.2223244423
 20
-4.5506166379
 30
0.0
 10
-12.894985083
 20
-4.8454631498
 30
0.0
 10
-12.5950163608
 20
-5.0098782433
 30
0.0
 10
-12.3574583194
 20
-5.0737881769
 30
0.0
 10
-12.190806364
 20
-5.0877541707
 30
0.0
 10
-12.0330770545
 20
-5.0684268252
 30
0.0
 10
-11.9355371114
 20
-5.0331583289
 30
0.0
 10
-11.8903475801
 20
-5.010557196
 30
0.0
 11
-13.9105393535
 21
-2.8266593578
 31
0.0
 11
-13.861668366
 21
-3.2727807036
 31
0.0
 11
-13.7189267893
 21
-3.7325459906
 31
0.0
 11
-13.4936027909
 21
-4.1696007561
 31
0.0
 11
-13.2034852244
 21
-4.549461216
 31
0.0
 11
-12.8714739471
 21
-4.8421277341
 31
0.0
 11
-12.523803744
 21
-5.0244908798
 31
0.0
 11
-12.352690179
 21
-5.0694077963
 31
0.0
 11
-12.187919422
 21
-5.0821562821
 31
0.0
 11
-12.0327925991
 21
-5.0623795956
 31
0.0
 11
-11.8903475801
 21
-5.010557196
 31
0.0
  0
SPLINE
  5
402
100
AcDbEntity
  8
0
100
AcDbSpline
 62
253
  6
CONTINUOUS
 70
0
 71
3
 72
22
 73
18
 74
16
 42
0.0000001
 43
0.0000001
 44
0.0000000001
 12
5.9559119523
 22
-4.9602033941
 32
0.0
 13
-6.4253218515
 23
4.3349445209
 33
0.0
 40
0.0
 40
0.0
 40
0.0
 40
0.0
 40
0.1438259811
 40
0.2198907184
 40
0.296476157
 40
0.3718872902
 40
0.4445233177
 40
0.5130089539
 40
0.5763523562
 40
0.6341257481
 40
0.6866747074
 40
0.7353022027
 40
0.7822426043
 40
0.8302050873
 40
0.8816063143
 40
0.9379902744
 40
1.0
 40
1.0
 40
1.0
 40
1.0
 10
-12.3617775184
 20
-13.5287396952
 30
0.0
 10
-12.0762392252
 20
-13.7665417351
 30
0.0
 10
-11.6913548263
 20
-14.1956720229
 30
0.0
 10
-11.2868623041
 20
-14.8471128967
 30
0.0
 10
-11.0342941365
 20
-15.3810911809
 30
0.0
 10
-10.8481985642
 20
-15.9322021414
 30
0.0
 10
-10.7346870456
 20
-16.4815585062
 30
0.0
 10
-10.6978338537
 20
-17.0103324291
 30
0.0
 10
-10.7392309473
 20
-17.5007195172
 30
0.0
 10
-10.8584280082
 20
-17.9364103864
 30
0.0
 10
-11.0534881778
 20
-18.3024693912
 30
0.0
 10
-11.320614133
 20
-18.5840048919
 30
0.0
 10
-11.6507663138
 20
-18.7659925045
 30
0.0
 10
-12.0275285415
 20
-18.8386302922
 30
0.0
 10
-12.432694465
 20
-18.8018044705
 30
0.0
 10
-12.8516057996
 20
-18.661209078
 30
0.0
 10
-13.1189665103
 20
-18.5088641169
 30
0.0
 10
-13.2517773252
 20
-18.4192612102
 30
0.0
 11
-12.3617775184
 21
-13.5287396952
 31
0.0
 11
-11.6090626858
 21
-14.3510277982
 31
0.0
 11
-11.2973090208
 21
-14.8514305892
 31
0.0
 11
-11.0437603594
 21
-15.3881628947
 31
0.0
 11
-10.857585386
 21
-15.9422245257
 31
0.0
 11
-10.7453714398
 21
-16.4939230106
 31
0.0
 11
-10.7110878341
 21
-17.0236402998
 31
0.0
 11
-10.755951854
 21
-17.5125547947
 31
0.0
 11
-10.8783762153
 21
-17.943290816
 31
0.0
 11
-11.0740294022
 21
-18.3005227827
 31
0.0
 11
-11.3359476938
 21
-18.5715536157
 31
0.0
 11
-11.6547994889
 21
-18.7467854111
 31
0.0
 11
-12.0192802591
 21
-18.8199547119
 31
0.0
 11
-12.4164410949
 21
-18.788481372
 31
0.0
 11
-12.8321159699
 21
-18.6535492553
 31
0.0
 11
-13.2517773252
 21
-18.4192612102
 31
0.0
  0
SPLINE
  5
403
100
AcDbEntity
  8
0
100
AcDbSpline
 62
253
  6
CONTINUOUS
 70
0
 71
3
 72
9
 73
5
 74
3
 42
0.0000001
 43
0.0000001
 44
0.0000000001
 12
-0.2724280832
 22
0.1837978943
 32
0.0
 13
-0.253522067
 23
0.2091059253
 33
0.0
 40
0.0
 40
0.0
 40
0.0
 40
0.0
 40
0.2457338141
 40
1.0
 40
1.0
 40
1.0
 40
1.0
 10
-13.2517773252
 20
-18.4192612102
 30
0.0
 10
-13.2740922559
 20
-18.404206091
 30
0.0
 10
-13.3641150103
 20
-18.3417790848
 30
0.0
 10
-13.4510164995
 20
-18.2748762407
 30
0.0
 10
-13.5147575403
 20
-18.2223023978
 30
0.0
 11
-13.2517773252
 21
-18.4192612102
 31
0.0
 11
-13.3181470476
 21
-18.3732549644
 31
0.0
 11
-13.5147575403
 21
-18.2223023978
 31
0.0
  0
SPLINE
  5
404
100
AcDbEntity
  8
0
100
AcDbSpline
 62
253
  6
CONTINUOUS
 70
0
 71
3
 72
22
 73
18
 74
16
 42
0.0000001
 43
0.0000001
 44
0.0000000001
 12
-6.2072768331
 22
5.169545128
 32
0.0
 13
6.2317729951
 23
-5.1399890906
 33
0.0
 40
0.0
 40
0.0
 40
0.0
 40
0.0
 40
0.1437314705
 40
0.2197493492
 40
0.2960952821
 40
0.3709486263
 40
0.4426160816
 40
0.5096884396
 40
0.5712343759
 40
0.6270211913
 40
0.6777581967
 40
0.7252548145
 40
0.7722197252
 40
0.8215311363
 40
0.8753618387
 40
0.9348495249
 40
1.0
 40
1.0
 40
1.0
 40
1.0
 10
-13.5147575403
 20
-18.2223023978
 30
0.0
 10
-13.812151216
 20
-17.9746269568
 30
0.0
 10
-14.2107941573
 20
-17.5248212178
 30
0.0
 10
-14.6239491957
 20
-16.8418788528
 30
0.0
 10
-14.8773604657
 20
-16.2831858104
 30
0.0
 10
-15.0577294482
 20
-15.7092570337
 30
0.0
 10
-15.1586746588
 20
-15.1412590356
 30
0.0
 10
-15.1761670315
 20
-14.6001105046
 30
0.0
 10
-15.1090455674
 20
-14.1053418451
 30
0.0
 10
-14.9582666398
 20
-13.6746633399
 30
0.0
 10
-14.726310017
 20
-13.3246130351
 30
0.0
 10
-14.4187725597
 20
-13.0726361111
 30
0.0
 10
-14.0496723731
 20
-12.9346769376
 30
0.0
 10
-13.6401190023
 20
-12.9168960286
 30
0.0
 10
-13.2089070803
 20
-13.0146113644
 30
0.0
 10
-12.7716426469
 20
-13.2211576629
 30
0.0
 10
-12.4971118422
 20
-13.4171154515
 30
0.0
 10
-12.3617775184
 20
-13.5287396952
 30
0.0
 11
-13.5147575403
 21
-18.2223023978
 31
0.0
 11
-14.2942665479
 21
-17.3618136942
 31
0.0
 11
-14.6128694842
 21
-16.8368571111
 31
0.0
 11
-14.8672300759
 21
-16.2750301031
 31
0.0
 11
-15.0474319567
 21
-15.6978389237
 31
0.0
 11
-15.1465834922
 21
-15.1274613099
 31
0.0
 11
-15.1608635874
 21
-14.5858373646
 31
0.0
 11
-15.0897379886
 21
-14.0937817256
 31
0.0
 11
-14.9359471718
 21
-13.6701883504
 31
0.0
 11
-14.7053913544
 21
-13.3313300369
 31
0.0
 11
-14.4069186909
 21
-13.0902418183
 31
0.0
 11
-14.0520040937
 21
-12.9561984437
 31
0.0
 11
-13.6542627833
 21
-12.9343891387
 31
0.0
 11
-13.2290568292
 21
-13.0254425048
 31
0.0
 11
-12.7925431394
 21
-13.2263837152
 31
0.0
 11
-12.3617775184
 21
-13.5287396952
 31
0.0
  0
SPLINE
  5
405
100
AcDbEntity
  8
0
100
AcDbSpline
 62
7
  6
CONTINUOUS
 70
0
 71
3
 72
9
 73
5
 74
3
 42
0.0000001
 43
0.0000001
 44
0.0000000001
 12
0.2835136388
 22
-0.2347939721
 32
0.0
 13
0.3090638061
 23
-0.1999693889
 33
0.0
 40
0.0
 40
0.0
 40
0.0
 40
0.0
 40
0.255194014
 40
1.0
 40
1.0
 40
1.0
 40
1.0
 10
-13.4873056351
 20
-18.1105509049
 30
0.0
 10
-13.4631886406
 20
-18.130523577
 30
0.0
 10
-13.3676045385
 20
-18.2074701374
 30
0.0
 10
-13.2676761264
 20
-18.2790620479
 30
0.0
 10
-13.1909452688
 20
-18.3287081805
 30
0.0
 11
-13.4873056351
 21
-18.1105509049
 31
0.0
 11
-13.4141207404
 21
-18.169447464
 31
0.0
 11
-13.1909452688
 21
-18.3287081805
 31
0.0
  0
SPLINE
  5
406
100
AcDbEntity
  8
0
100
AcDbSpline
 62
7
  6
CONTINUOUS
 70
0
 71
3
 72
11
 73
7
 74
5
 42
0.0000001
 43
0.0000001
 44
0.0000000001
 12
1.2787891252
 22
-0.6758827754
 32
0.0
 13
1.2936612485
 23
0.6469619206
 33
0.0
 40
0.0
 40
0.0
 40
0.0
 40
0.0
 40
0.2805726255
 40
0.5370315352
 40
0.7740578866
 40
1.0
 40
1.0
 40
1.0
 40
1.0
 10
-12.987303498
 20
-18.4483825681
 30
0.0
 10
-12.8677057573
 20
-18.5115939697
 30
0.0
 10
-12.6282663996
 20
-18.6144847461
 30
0.0
 10
-12.2599113173
 20
-18.6907906235
 30
0.0
 10
-11.9094954947
 20
-18.678042109
 30
0.0
 10
-11.6938992233
 20
-18.6074376364
 30
0.0
 10
-11.5964683711
 20
-18.5587123219
 30
0.0
 11
-12.987303498
 21
-18.4483825681
 31
0.0
 11
-12.6131148953
 21
-18.605470434
 31
0.0
 11
-12.2491710309
 21
-18.6772060108
 31
0.0
 11
-11.9066927549
 21
-18.6614896383
 31
0.0
 11
-11.5964683711
 21
-18.5587123219
 31
0.0
  0
SPLINE
  5
407
100
AcDbEntity
  8
0
100
AcDbSpline
 62
253
  6
CONTINUOUS
 70
0
 71
3
 72
13
 73
9
 74
7
 42
0.0000001
 43
0.0000001
 44
0.0000000001
 12
0.3455996988
 22
1.4067734242
 32
0.0
 13
1.2956699021
 23
0.647834951
 33
0.0
 40
0.0
 40
0.0
 40
0.0
 40
0.0
 40
0.110321856
 40
0.232183657
 40
0.4963675639
 40
0.7625388417
 40
0.8867316226
 40
1.0
 40
1.0
 40
1.0
 40
1.0
 10
-12.3617566163
 20
-13.5287493902
 30
0.0
 10
-12.3490475496
 20
-13.4770167718
 30
0.0
 10
-12.3134984876
 20
-13.3702430669
 30
0.0
 10
-12.2110784883
 20
-13.1531080548
 30
0.0
 10
-12.0332116105
 20
-12.8908318884
 30
0.0
 10
-11.8126425602
 20
-12.6618366179
 30
0.0
 10
-11.6192695036
 20
-12.5137468299
 30
0.0
 10
-11.5205520216
 20
-12.4546571996
 30
0.0
 10
-11.4716325458
 20
-12.4301974617
 30
0.0
 11
-12.3617566163
 21
-13.5287493902
 31
0.0
 11
-12.3124749796
 21
-13.3767251227
 31
0.0
 11
-12.2378919065
 21
-13.2167251746
 31
0.0
 11
-12.0252961147
 21
-12.8985106556
 31
0.0
 11
-11.7562728133
 21
-12.6222938798
 31
0.0
 11
-11.6130118453
 21
-12.513470739
 31
0.0
 11
-11.4716325458
 21
-12.4301974617
 31
0.0
  0
SPLINE
  5
408
100
AcDbEntity
  8
0
100
AcDbSpline
 62
253
  6
CONTINUOUS
 70
0
 71
3
 72
18
 73
14
 74
12
 42
0.0000001
 43
0.0000001
 44
0.0000000001
 12
6.0147211482
 22
-4.9812789999
 32
0.0
 13
-6.9840572002
 23
-3.4947039919
 33
0.0
 40
0.0
 40
0.0
 40
0.0
 40
0.0
 40
0.1350196982
 40
0.278323791
 40
0.4234932925
 40
0.5638068908
 40
0.6303191331
 40
0.6935480556
 40
0.8085223485
 40
0.8604597358
 40
0.9090890713
 40
0.9552211184
 40
1.0
 40
1.0
 40
1.0
 40
1.0
 10
-11.4716325459
 20
-12.4301974616
 30
0.0
 10
-11.2009306012
 20
-12.6543877239
 30
0.0
 10
-10.6930082463
 20
-13.1787029198
 30
0.0
 10
-10.0751304633
 20
-14.0976169977
 30
0.0
 10
-9.6109959839
 20
-15.1182814909
 30
0.0
 10
-9.375742469
 20
-16.0094122573
 30
0.0
 10
-9.2964113686
 20
-16.7092188573
 30
0.0
 10
-9.2914664745
 20
-17.3467480684
 30
0.0
 10
-9.3888491756
 20
-17.9467673453
 30
0.0
 10
-9.6063137926
 20
-18.4665457044
 30
0.0
 10
-9.8146998703
 20
-18.7893484485
 30
0.0
 10
-10.0703040549
 20
-19.0510396946
 30
0.0
 10
-10.2705706449
 20
-19.1814726011
 30
0.0
 10
-10.3748167349
 20
-19.2336355798
 30
0.0
 11
-11.4716325459
 21
-12.4301974616
 31
0.0
 11
-10.7320953253
 21
-13.181830383
 31
0.0
 11
-10.10465942
 21
-14.1085552037
 31
0.0
 11
-9.6363078543
 21
-15.1410093358
 31
0.0
 11
-9.3620747435
 21
-16.2019343078
 31
0.0
 11
-9.3047743838
 21
-16.7181988324
 31
0.0
 11
-9.3024584296
 21
-17.2119866369
 31
0.0
 11
-9.461915563
 21
-18.0956187702
 31
0.0
 11
-9.6206911062
 21
-18.4688618621
 31
0.0
 11
-9.828510355
 21
-18.7867314674
 31
0.0
 11
-10.081470608
 21
-19.0432620979
 31
0.0
 11
-10.3748167349
 21
-19.2336355798
 31
0.0
  0
SPLINE
  5
409
100
AcDbEntity
  8
0
100
AcDbSpline
 62
7
  6
CONTINUOUS
 70
0
 71
3
 72
11
 73
7
 74
5
 42
0.0000001
 43
0.0000001
 44
0.0000000001
 12
-0.9854623835
 22
-0.4928700443
 32
0.0
 13
-0.0000605519
 23
-1.1018425415
 33
0.0
 40
0.0
 40
0.0
 40
0.0
 40
0.0
 40
0.2171635391
 40
0.45037587
 40
0.7103699282
 40
1.0
 40
1.0
 40
1.0
 40
1.0
 10
-13.4558573927
 20
-1.8801983867
 30
0.0
 10
-13.5271928923
 20
-1.9158761877
 30
0.0
 10
-13.6620985798
 20
-2.0186541334
 30
0.0
 10
-13.8068160259
 20
-2.2405043154
 30
0.0
 10
-13.8933021058
 20
-2.517665744
 30
0.0
 10
-13.9105335076
 20
-2.7202837797
 30
0.0
 10
-13.9105393535
 20
-2.8266593578
 30
0.0
 11
-13.4558573927
 21
-1.8801983867
 31
0.0
 11
-13.6472578725
 21
-2.0237977853
 31
0.0
 11
-13.7910776673
 21
-2.2367437588
 31
0.0
 11
-13.8802963996
 21
-2.5089688848
 31
0.0
 11
-13.9105393535
 21
-2.8266593578
 31
0.0
  0
SPLINE
  5
40A
100
AcDbEntity
  8
0
100
AcDbSpline
 62
7
  6
CONTINUOUS
 70
0
 71
3
 72
17
 73
13
 74
11
 42
0.0000001
 43
0.0000001
 44
0.0000000001
 12
-5.3933208734
 22
-1.1415186262
 32
0.0
 13
-0.0000404916
 23
5.5128009955
 33
0.0
 40
0.0
 40
0.0
 40
0.0
 40
0.0
 40
0.0454053522
 40
0.0932460333
 40
0.1442143518
 40
0.198698147
 40
0.3181487999
 40
0.4499878615
 40
0.5898514048
 40
0.732074312
 40
0.8706086042
 40
1.0
 40
1.0
 40
1.0
 40
1.0
 10
-11.6071760272
 20
-6.2245722596
 30
0.0
 10
-11.6888045718
 20
-6.241849278
 30
0.0
 10
-11.8605650215
 20
-6.2597485718
 30
0.0
 10
-12.1259019767
 20
-6.2368081734
 30
0.0
 10
-12.3997669291
 20
-6.165992091
 30
0.0
 10
-12.7815510707
 20
-6.004607868
 30
0.0
 10
-13.251255699
 20
-5.68634908
 30
0.0
 10
-13.7570176764
 20
-5.170430542
 30
0.0
 10
-14.1915060521
 20
-4.5419132534
 30
0.0
 10
-14.5263313401
 20
-3.841622005
 30
0.0
 10
-14.7398989163
 20
-3.1155256863
 30
0.0
 10
-14.7944210836
 20
-2.6224872914
 30
0.0
 10
-14.79442283
 20
-2.3847176196
 30
0.0
 11
-11.6071760272
 21
-6.2245722596
 31
0.0
 11
-11.8560319197
 21
-6.2515199249
 31
0.0
 11
-12.1189121898
 21
-6.2302896886
 31
0.0
 11
-12.3912939783
 21
-6.1613193449
 31
0.0
 11
-12.6685113329
 21
-6.0457094016
 31
0.0
 11
-13.2184212001
 21
-5.6834505157
 31
0.0
 11
-13.7310758963
 21
-5.1682543875
 31
0.0
 11
-14.1714395708
 21
-4.5353386491
 31
0.0
 11
-14.5094320363
 21
-3.8278853717
 31
0.0
 11
-14.7219376327
 21
-3.0943341693
 31
0.0
 11
-14.79442283
 21
-2.3847176196
 31
0.0
  0
SPLINE
  5
40B
100
AcDbEntity
  8
0
100
AcDbSpline
 62
253
  6
CONTINUOUS
 70
0
 71
3
 72
14
 73
10
 74
8
 42
0.0000001
 43
0.0000001
 44
0.0000000001
 12
-2.1860398722
 22
1.810385523
 32
0.0
 13
-2.5383989414
 23
-1.2699594007
 33
0.0
 40
0.0
 40
0.0
 40
0.0
 40
0.0
 40
0.2917375494
 40
0.4261591458
 40
0.5527547996
 40
0.6720745616
 40
0.7852086151
 40
0.8938070868
 40
1.0
 40
1.0
 40
1.0
 40
1.0
 10
-11.4716835249
 20
-12.4301552424
 30
0.0
 10
-11.6842668299
 20
-12.2541027637
 30
0.0
 10
-12.0188675802
 20
-12.0224251867
 30
0.0
 10
-12.4944357559
 20
-11.8023957217
 30
0.0
 10
-12.8385866205
 20
-11.6934928622
 30
0.0
 10
-13.1750518823
 20
-11.6380917009
 30
0.0
 10
-13.4993017647
 20
-11.6374186982
 30
0.0
 10
-13.8064342472
 20
-11.691962005
 30
0.0
 10
-13.9975592468
 20
-11.7653003681
 30
0.0
 10
-14.0874125729
 20
-11.8102539309
 30
0.0
 11
-11.4716835249
 21
-12.4301552424
 31
0.0
 11
-12.1574046722
 21
-11.9659766782
 31
0.0
 11
-12.5042492713
 21
-11.8070149542
 31
0.0
 11
-12.8472715199
 21
-11.7000142106
 31
0.0
 11
-13.181683535
 21
-11.6464668423
 31
0.0
 11
-13.5027976058
 21
-11.6471248145
 31
0.0
 11
-13.8061189532
 21
-11.7019770327
 31
0.0
 11
-14.0874125729
 21
-11.8102539309
 31
0.0
  0
SPLINE
  5
40C
100
AcDbEntity
  8
0
100
AcDbSpline
 62
7
  6
CONTINUOUS
 70
0
 71
3
 72
11
 73
7
 74
5
 42
0.0000001
 43
0.0000001
 44
0.0000000001
 12
-1.1058386854
 22
-0.552501638
 32
0.0
 13
-0.3031221832
 23
-1.1984382338
 33
0.0
 40
0.0
 40
0.0
 40
0.0
 40
0.0
 40
0.2304739128
 40
0.4696917908
 40
0.7246566875
 40
1.0
 40
1.0
 40
1.0
 40
1.0
 10
-14.2794882799
 20
-0.8945006177
 30
0.0
 10
-14.3644439362
 20
-0.9369463559
 30
0.0
 10
-14.5271657516
 20
-1.0461325959
 30
0.0
 10
-14.7286725774
 20
-1.2700142274
 30
0.0
 10
-14.8856632981
 20
-1.5479933267
 30
0.0
 10
-14.9558202244
 20
-1.7562984607
 30
0.0
 10
-14.9836411131
 20
-1.8662924451
 30
0.0
 11
-14.2794882799
 21
-0.8945006177
 31
0.0
 11
-14.5164041913
 21
-1.0527497532
 31
0.0
 11
-14.7157175073
 21
-1.2712037571
 31
0.0
 11
-14.8727148226
 21
-1.5445014196
 31
0.0
 11
-14.9836411131
 21
-1.8662924451
 31
0.0
  0
SPLINE
  5
40D
100
AcDbEntity
  8
0
100
AcDbSpline
 62
7
  6
CONTINUOUS
 70
0
 71
3
 72
9
 73
5
 74
3
 42
0.0000001
 43
0.0000001
 44
0.0000000001
 12
-0.0610698356
 22
-0.2414485973
 32
0.0
 13
-0.0353643974
 23
-0.2465285164
 33
0.0
 40
0.0
 40
0.0
 40
0.0
 40
0.0
 40
0.2450849448
 40
1.0
 40
1.0
 40
1.0
 40
1.0
 10
-14.9836411131
 20
-1.8662924451
 30
0.0
 10
-14.9886302122
 20
-1.8860175838
 30
0.0
 10
-15.0078602231
 20
-1.9667830718
 30
0.0
 10
-15.0226545161
 20
-2.0485895414
 30
0.0
 10
-15.0315535547
 20
-2.1106255709
 30
0.0
 11
-14.9836411131
 21
-1.8662924451
 31
0.0
 11
-14.9977897459
 21
-1.9256689224
 31
0.0
 11
-15.0315535547
 21
-2.1106255709
 31
0.0
  0
LINE
  5
40E
100
AcDbEntity
  8
0
100
AcDbLine
 62
7
  6
CONTINUOUS
 10
-15.0315535547
 20
-2.1106255709
 11
-15.0323212435
 21
-2.1160177744
  0
SPLINE
  5
40F
100
AcDbEntity
  8
0
100
AcDbSpline
 62
7
  6
CONTINUOUS
 70
0
 71
3
 72
9
 73
5
 74
3
 42
0.0000001
 43
0.0000001
 44
0.0000000001
 12
-0.056296253
 22
-0.3984382993
 32
0.0
 13
-0.0000029556
 23
-0.4023957584
 33
0.0
 40
0.0
 40
0.0
 40
0.0
 40
0.0
 40
0.2436158869
 40
1.0
 40
1.0
 40
1.0
 40
1.0
 10
-15.0323212435
 20
-2.1160177744
 30
0.0
 10
-15.0368927973
 20
-2.1483730743
 30
0.0
 10
-15.0531338599
 20
-2.281536143
 30
0.0
 10
-15.0595871277
 20
-2.4158448881
 30
0.0
 10
-15.0595878729
 20
-2.517300141
 30
0.0
 11
-15.0323212435
 21
-2.1160177744
 31
0.0
 11
-15.0442250662
 21
-2.2133223469
 31
0.0
 11
-15.0595878729
 21
-2.517300141
 31
0.0
  0
SPLINE
  5
410
100
AcDbEntity
  8
0
100
AcDbSpline
 62
253
  6
CONTINUOUS
 70
0
 71
3
 72
22
 73
18
 74
16
 42
0.0000001
 43
0.0000001
 44
0.0000000001
 12
5.9559119523
 22
-4.9602033941
 32
0.0
 13
-6.4253218515
 23
4.3349445209
 33
0.0
 40
0.0
 40
0.0
 40
0.0
 40
0.0
 40
0.1438259811
 40
0.2198907184
 40
0.296476157
 40
0.3718872902
 40
0.4445233177
 40
0.5130089539
 40
0.5763523562
 40
0.6341257481
 40
0.6866747074
 40
0.7353022027
 40
0.7822426043
 40
0.8302050873
 40
0.8816063143
 40
0.9379902744
 40
1.0
 40
1.0
 40
1.0
 40
1.0
 10
-12.3617775184
 20
11.0663817722
 30
0.0
 10
-12.0762392252
 20
10.8285797324
 30
0.0
 10
-11.6913548263
 20
10.3994494445
 30
0.0
 10
-11.2868623041
 20
9.7480085708
 30
0.0
 10
-11.0342941365
 20
9.2140302866
 30
0.0
 10
-10.8481985642
 20
8.6629193261
 30
0.0
 10
-10.7346870456
 20
8.1135629613
 30
0.0
 10
-10.6978338537
 20
7.5847890384
 30
0.0
 10
-10.7392309473
 20
7.0944019502
 30
0.0
 10
-10.8584280082
 20
6.6587110811
 30
0.0
 10
-11.0534881778
 20
6.2926520763
 30
0.0
 10
-11.320614133
 20
6.0111165755
 30
0.0
 10
-11.6507663138
 20
5.829128963
 30
0.0
 10
-12.0275285415
 20
5.7564911753
 30
0.0
 10
-12.432694465
 20
5.793316997
 30
0.0
 10
-12.8516057996
 20
5.9339123895
 30
0.0
 10
-13.1189665103
 20
6.0862573505
 30
0.0
 10
-13.2517773252
 20
6.1758602573
 30
0.0
 11
-12.3617775184
 21
11.0663817722
 31
0.0
 11
-11.6090626858
 21
10.2440936693
 31
0.0
 11
-11.2973090208
 21
9.7436908783
 31
0.0
 11
-11.0437603594
 21
9.2069585728
 31
0.0
 11
-10.857585386
 21
8.6528969418
 31
0.0
 11
-10.7453714398
 21
8.1011984569
 31
0.0
 11
-10.7110878341
 21
7.5714811677
 31
0.0
 11
-10.755951854
 21
7.0825666728
 31
0.0
 11
-10.8783762153
 21
6.6518306515
 31
0.0
 11
-11.0740294022
 21
6.2945986848
 31
0.0
 11
-11.3359476938
 21
6.0235678518
 31
0.0
 11
-11.6547994889
 21
5.8483360563
 31
0.0
 11
-12.0192802591
 21
5.7751667555
 31
0.0
 11
-12.4164410949
 21
5.8066400955
 31
0.0
 11
-12.8321159699
 21
5.9415722122
 31
0.0
 11
-13.2517773252
 21
6.1758602573
 31
0.0
  0
SPLINE
  5
411
100
AcDbEntity
  8
0
100
AcDbSpline
 62
253
  6
CONTINUOUS
 70
0
 71
3
 72
9
 73
5
 74
3
 42
0.0000001
 43
0.0000001
 44
0.0000000001
 12
-0.2724280832
 22
0.1837978943
 32
0.0
 13
-0.253522067
 23
0.2091059253
 33
0.0
 40
0.0
 40
0.0
 40
0.0
 40
0.0
 40
0.2457338141
 40
1.0
 40
1.0
 40
1.0
 40
1.0
 10
-13.2517773252
 20
6.1758602573
 30
0.0
 10
-13.2740922559
 20
6.1909153765
 30
0.0
 10
-13.3641150103
 20
6.2533423827
 30
0.0
 10
-13.4510164995
 20
6.3202452267
 30
0.0
 10
-13.5147575403
 20
6.3728190696
 30
0.0
 11
-13.2517773252
 21
6.1758602573
 31
0.0
 11
-13.3181470476
 21
6.2218665031
 31
0.0
 11
-13.5147575403
 21
6.3728190696
 31
0.0
  0
SPLINE
  5
412
100
AcDbEntity
  8
0
100
AcDbSpline
 62
253
  6
CONTINUOUS
 70
0
 71
3
 72
22
 73
18
 74
16
 42
0.0000001
 43
0.0000001
 44
0.0000000001
 12
-6.2072768331
 22
5.169545128
 32
0.0
 13
6.2317729951
 23
-5.1399890906
 33
0.0
 40
0.0
 40
0.0
 40
0.0
 40
0.0
 40
0.1437314705
 40
0.2197493492
 40
0.2960952821
 40
0.3709486263
 40
0.4426160816
 40
0.5096884396
 40
0.5712343759
 40
0.6270211913
 40
0.6777581967
 40
0.7252548145
 40
0.7722197252
 40
0.8215311363
 40
0.8753618387
 40
0.9348495249
 40
1.0
 40
1.0
 40
1.0
 40
1.0
 10
-13.5147575403
 20
6.3728190696
 30
0.0
 10
-13.812151216
 20
6.6204945107
 30
0.0
 10
-14.2107941573
 20
7.0703002497
 30
0.0
 10
-14.6239491957
 20
7.7532426147
 30
0.0
 10
-14.8773604657
 20
8.3119356571
 30
0.0
 10
-15.0577294482
 20
8.8858644338
 30
0.0
 10
-15.1586746588
 20
9.4538624319
 30
0.0
 10
-15.1761670315
 20
9.9950109629
 30
0.0
 10
-15.1090455674
 20
10.4897796224
 30
0.0
 10
-14.9582666398
 20
10.9204581276
 30
0.0
 10
-14.726310017
 20
11.2705084324
 30
0.0
 10
-14.4187725597
 20
11.5224853564
 30
0.0
 10
-14.0496723731
 20
11.6604445299
 30
0.0
 10
-13.6401190023
 20
11.6782254389
 30
0.0
 10
-13.2089070803
 20
11.580510103
 30
0.0
 10
-12.7716426469
 20
11.3739638046
 30
0.0
 10
-12.4971118422
 20
11.178006016
 30
0.0
 10
-12.3617775184
 20
11.0663817722
 30
0.0
 11
-13.5147575403
 21
6.3728190696
 31
0.0
 11
-14.2942665479
 21
7.2333077733
 31
0.0
 11
-14.6128694842
 21
7.7582643564
 31
0.0
 11
-14.8672300759
 21
8.3200913644
 31
0.0
 11
-15.0474319567
 21
8.8972825438
 31
0.0
 11
-15.1465834922
 21
9.4676601575
 31
0.0
 11
-15.1608635874
 21
10.0092841029
 31
0.0
 11
-15.0897379886
 21
10.5013397419
 31
0.0
 11
-14.9359471718
 21
10.924933117
 31
0.0
 11
-14.7053913544
 21
11.2637914306
 31
0.0
 11
-14.4069186909
 21
11.5048796492
 31
0.0
 11
-14.0520040937
 21
11.6389230238
 31
0.0
 11
-13.6542627833
 21
11.6607323288
 31
0.0
 11
-13.2290568292
 21
11.5696789627
 31
0.0
 11
-12.7925431394
 21
11.3687377523
 31
0.0
 11
-12.3617775184
 21
11.0663817722
 31
0.0
  0
SPLINE
  5
413
100
AcDbEntity
  8
0
100
AcDbSpline
 62
7
  6
CONTINUOUS
 70
0
 71
3
 72
9
 73
5
 74
3
 42
0.0000001
 43
0.0000001
 44
0.0000000001
 12
0.2835136388
 22
-0.2347939721
 32
0.0
 13
0.3090638061
 23
-0.1999693889
 33
0.0
 40
0.0
 40
0.0
 40
0.0
 40
0.0
 40
0.255194014
 40
1.0
 40
1.0
 40
1.0
 40
1.0
 10
-13.4873056351
 20
6.4845705626
 30
0.0
 10
-13.4631886406
 20
6.4645978905
 30
0.0
 10
-13.3676045385
 20
6.3876513301
 30
0.0
 10
-13.2676761264
 20
6.3160594196
 30
0.0
 10
-13.1909452688
 20
6.266413287
 30
0.0
 11
-13.4873056351
 21
6.4845705626
 31
0.0
 11
-13.4141207404
 21
6.4256740034
 31
0.0
 11
-13.1909452688
 21
6.266413287
 31
0.0
  0
SPLINE
  5
414
100
AcDbEntity
  8
0
100
AcDbSpline
 62
7
  6
CONTINUOUS
 70
0
 71
3
 72
11
 73
7
 74
5
 42
0.0000001
 43
0.0000001
 44
0.0000000001
 12
1.2787891252
 22
-0.6758827754
 32
0.0
 13
1.2936612485
 23
0.6469619206
 33
0.0
 40
0.0
 40
0.0
 40
0.0
 40
0.0
 40
0.2805726255
 40
0.5370315352
 40
0.7740578866
 40
1.0
 40
1.0
 40
1.0
 40
1.0
 10
-12.987303498
 20
6.1467388994
 30
0.0
 10
-12.8677057573
 20
6.0835274977
 30
0.0
 10
-12.6282663996
 20
5.9806367214
 30
0.0
 10
-12.2599113173
 20
5.904330844
 30
0.0
 10
-11.9094954947
 20
5.9170793585
 30
0.0
 10
-11.6938992233
 20
5.9876838311
 30
0.0
 10
-11.5964683711
 20
6.0364091456
 30
0.0
 11
-12.987303498
 21
6.1467388994
 31
0.0
 11
-12.6131148953
 21
5.9896510335
 31
0.0
 11
-12.2491710309
 21
5.9179154567
 31
0.0
 11
-11.9066927549
 21
5.9336318292
 31
0.0
 11
-11.5964683711
 21
6.0364091456
 31
0.0
  0
SPLINE
  5
415
100
AcDbEntity
  8
0
100
AcDbSpline
 62
253
  6
CONTINUOUS
 70
0
 71
3
 72
13
 73
9
 74
7
 42
0.0000001
 43
0.0000001
 44
0.0000000001
 12
0.3455996988
 22
1.4067734242
 32
0.0
 13
1.2956699021
 23
0.647834951
 33
0.0
 40
0.0
 40
0.0
 40
0.0
 40
0.0
 40
0.110321856
 40
0.232183657
 40
0.4963675639
 40
0.7625388417
 40
0.8867316226
 40
1.0
 40
1.0
 40
1.0
 40
1.0
 10
-12.3617566163
 20
11.0663720773
 30
0.0
 10
-12.3490475496
 20
11.1181046957
 30
0.0
 10
-12.3134984876
 20
11.2248784006
 30
0.0
 10
-12.2110784883
 20
11.4420134127
 30
0.0
 10
-12.0332116105
 20
11.704289579
 30
0.0
 10
-11.8126425602
 20
11.9332848496
 30
0.0
 10
-11.6192695036
 20
12.0813746375
 30
0.0
 10
-11.5205520216
 20
12.1404642679
 30
0.0
 10
-11.4716325458
 20
12.1649240058
 30
0.0
 11
-12.3617566163
 21
11.0663720773
 31
0.0
 11
-12.3124749796
 21
11.2183963448
 31
0.0
 11
-12.2378919065
 21
11.3783962929
 31
0.0
 11
-12.0252961147
 21
11.6966108118
 31
0.0
 11
-11.7562728133
 21
11.9728275877
 31
0.0
 11
-11.6130118453
 21
12.0816507285
 31
0.0
 11
-11.4716325458
 21
12.1649240058
 31
0.0
  0
SPLINE
  5
416
100
AcDbEntity
  8
0
100
AcDbSpline
 62
253
  6
CONTINUOUS
 70
0
 71
3
 72
18
 73
14
 74
12
 42
0.0000001
 43
0.0000001
 44
0.0000000001
 12
6.0147211482
 22
-4.9812789999
 32
0.0
 13
-6.9840572002
 23
-3.4947039919
 33
0.0
 40
0.0
 40
0.0
 40
0.0
 40
0.0
 40
0.1350196982
 40
0.278323791
 40
0.4234932925
 40
0.5638068908
 40
0.6303191331
 40
0.6935480556
 40
0.8085223485
 40
0.8604597358
 40
0.9090890713
 40
0.9552211184
 40
1.0
 40
1.0
 40
1.0
 40
1.0
 10
-11.4716325459
 20
12.1649240059
 30
0.0
 10
-11.2009306012
 20
11.9407337435
 30
0.0
 10
-10.6930082463
 20
11.4164185477
 30
0.0
 10
-10.0751304633
 20
10.4975044697
 30
0.0
 10
-9.6109959839
 20
9.4768399765
 30
0.0
 10
-9.375742469
 20
8.5857092102
 30
0.0
 10
-9.2964113686
 20
7.8859026102
 30
0.0
 10
-9.2914664745
 20
7.2483733991
 30
0.0
 10
-9.3888491756
 20
6.6483541221
 30
0.0
 10
-9.6063137926
 20
6.1285757631
 30
0.0
 10
-9.8146998703
 20
5.805773019
 30
0.0
 10
-10.0703040549
 20
5.5440817729
 30
0.0
 10
-10.2705706449
 20
5.4136488664
 30
0.0
 10
-10.3748167349
 20
5.3614858877
 30
0.0
 11
-11.4716325459
 21
12.1649240059
 31
0.0
 11
-10.7320953253
 21
11.4132910845
 31
0.0
 11
-10.10465942
 21
10.4865662638
 31
0.0
 11
-9.6363078543
 21
9.4541121316
 31
0.0
 11
-9.3620747435
 21
8.3931871597
 31
0.0
 11
-9.3047743838
 21
7.8769226351
 31
0.0
 11
-9.3024584296
 21
7.3831348305
 31
0.0
 11
-9.461915563
 21
6.4995026973
 31
0.0
 11
-9.6206911062
 21
6.1262596054
 31
0.0
 11
-9.828510355
 21
5.80839
 31
0.0
 11
-10.081470608
 21
5.5518593696
 31
0.0
 11
-10.3748167349
 21
5.3614858877
 31
0.0
  0
SPLINE
  5
417
100
AcDbEntity
  8
0
100
AcDbSpline
 62
253
  6
CONTINUOUS
 70
0
 71
3
 72
14
 73
10
 74
8
 42
0.0000001
 43
0.0000001
 44
0.0000000001
 12
-2.1860398722
 22
1.810385523
 32
0.0
 13
-2.5383989414
 23
-1.2699594007
 33
0.0
 40
0.0
 40
0.0
 40
0.0
 40
0.0
 40
0.2917375494
 40
0.4261591458
 40
0.5527547996
 40
0.6720745616
 40
0.7852086151
 40
0.8938070868
 40
1.0
 40
1.0
 40
1.0
 40
1.0
 10
-11.4716835249
 20
12.1649662251
 30
0.0
 10
-11.6842668299
 20
12.3410187037
 30
0.0
 10
-12.0188675802
 20
12.5726962808
 30
0.0
 10
-12.4944357559
 20
12.7927257457
 30
0.0
 10
-12.8385866205
 20
12.9016286052
 30
0.0
 10
-13.1750518823
 20
12.9570297666
 30
0.0
 10
-13.4993017647
 20
12.9577027693
 30
0.0
 10
-13.8064342472
 20
12.9031594625
 30
0.0
 10
-13.9975592468
 20
12.8298210994
 30
0.0
 10
-14.0874125729
 20
12.7848675366
 30
0.0
 11
-11.4716835249
 21
12.1649662251
 31
0.0
 11
-12.1574046722
 21
12.6291447893
 31
0.0
 11
-12.5042492713
 21
12.7881065133
 31
0.0
 11
-12.8472715199
 21
12.8951072569
 31
0.0
 11
-13.181683535
 21
12.9486546251
 31
0.0
 11
-13.5027976058
 21
12.947996653
 31
0.0
 11
-13.8061189532
 21
12.8931444348
 31
0.0
 11
-14.0874125729
 21
12.7848675366
 31
0.0
  0
SPLINE
  5
418
100
AcDbEntity
  8
0
100
AcDbSpline
 62
253
  6
CONTINUOUS
 70
0
 71
3
 72
11
 73
7
 74
5
 42
0.0000001
 43
0.0000001
 44
0.0000000001
 12
-0.000086103
 22
-0.4812661103
 32
0.0
 13
0.4304579359
 23
-0.2152278834
 33
0.0
 40
0.0
 40
0.0
 40
0.0
 40
0.0
 40
0.2064945007
 40
0.4343928126
 40
0.697716409
 40
1.0
 40
1.0
 40
1.0
 40
1.0
 10
-15.4585008006
 20
-2.1107456178
 30
0.0
 10
-15.4585067272
 20
-2.1438718862
 30
0.0
 10
-15.4439387873
 20
-2.2141030215
 30
0.0
 10
-15.3828074694
 20
-2.3099822429
 30
0.0
 10
-15.287469989
 20
-2.3959651923
 30
0.0
 10
-15.2090333531
 20
-2.4426020419
 30
0.0
 10
-15.1656598962
 20
-2.4642886611
 30
0.0
 11
-15.4585008006
 21
-2.1107456178
 31
0.0
 11
-15.4393481067
 21
-2.208261368
 31
0.0
 11
-15.3824717555
 21
-2.3020415639
 31
0.0
 11
-15.2898793239
 21
-2.3885679261
 31
0.0
 11
-15.1656598962
 21
-2.4642886611
 31
0.0
  0
SPLINE
  5
419
100
AcDbEntity
  8
0
100
AcDbSpline
 62
7
  6
CONTINUOUS
 70
0
 71
3
 72
17
 73
13
 74
11
 42
0.0000001
 43
0.0000001
 44
0.0000000001
 12
-4.0834031333
 22
3.3817977391
 32
0.0
 13
3.8350058501
 23
3.6610746
 33
0.0
 40
0.0
 40
0.0
 40
0.0
 40
0.0
 40
0.1311841427
 40
0.2701965523
 40
0.4118980698
 40
0.5507571616
 40
0.6816569907
 40
0.8006685816
 40
0.8551696551
 40
0.9062990463
 40
0.9543796297
 40
1.0
 40
1.0
 40
1.0
 40
1.0
 10
-13.2221405921
 20
-17.9779683834
 30
0.0
 10
-13.4006998386
 20
-17.830088971
 30
0.0
 10
-13.7382984472
 20
-17.4880501965
 30
0.0
 10
-14.1593505405
 20
-16.8908451795
 30
0.0
 10
-14.4909206674
 20
-16.2243584408
 30
0.0
 10
-14.712795807
 20
-15.528629263
 30
0.0
 10
-14.8117306391
 20
-14.8453759029
 30
0.0
 10
-14.7853500969
 20
-14.3032100576
 30
0.0
 10
-14.6926538247
 20
-13.9160975011
 30
0.0
 10
-14.5930858027
 20
-13.6622511982
 30
0.0
 10
-14.4628658265
 20
-13.4405902033
 30
0.0
 10
-14.3542697548
 20
-13.314050502
 30
0.0
 10
-14.2959516258
 20
-13.2583773091
 30
0.0
 11
-13.2221405921
 21
-17.9779683834
 31
0.0
 11
-13.7140446037
 21
-17.4862408477
 31
0.0
 11
-14.1406329125
 21
-16.8852026216
 31
0.0
 11
-14.4752019145
 21
-16.2125154211
 31
0.0
 11
-14.6967338799
 21
-15.5104110624
 31
0.0
 11
-14.7913661455
 21
-14.8228678884
 31
0.0
 11
-14.7531500365
 21
-14.1930320147
 31
0.0
 11
-14.684650843
 21
-13.9123060508
 31
0.0
 11
-14.5844874924
 21
-13.6604036812
 31
0.0
 11
-14.4542430675
 21
-13.4412663374
 31
0.0
 11
-14.2959516258
 21
-13.2583773091
 31
0.0
  0
SPLINE
  5
41A
100
AcDbEntity
  8
0
100
AcDbSpline
 62
7
  6
CONTINUOUS
 70
0
 71
3
 72
17
 73
13
 74
11
 42
0.0000001
 43
0.0000001
 44
0.0000000001
 12
-4.0834031333
 22
3.3817977391
 32
0.0
 13
3.8350058501
 23
3.6610746
 33
0.0
 40
0.0
 40
0.0
 40
0.0
 40
0.0
 40
0.1311841427
 40
0.2701965523
 40
0.4118980698
 40
0.5507571616
 40
0.6816569907
 40
0.8006685816
 40
0.8551696551
 40
0.9062990463
 40
0.9543796297
 40
1.0
 40
1.0
 40
1.0
 40
1.0
 10
-13.2221405921
 20
6.617153084
 30
0.0
 10
-13.4006998386
 20
6.7650324964
 30
0.0
 10
-13.7382984472
 20
7.107071271
 30
0.0
 10
-14.1593505405
 20
7.7042762879
 30
0.0
 10
-14.4909206674
 20
8.3707630266
 30
0.0
 10
-14.712795807
 20
9.0664922045
 30
0.0
 10
-14.8117306391
 20
9.7497455645
 30
0.0
 10
-14.7853500969
 20
10.2919114099
 30
0.0
 10
-14.6926538247
 20
10.6790239664
 30
0.0
 10
-14.5930858027
 20
10.9328702692
 30
0.0
 10
-14.4628658265
 20
11.1545312642
 30
0.0
 10
-14.3542697548
 20
11.2810709654
 30
0.0
 10
-14.2959516258
 20
11.3367441584
 30
0.0
 11
-13.2221405921
 21
6.617153084
 31
0.0
 11
-13.7140446037
 21
7.1088806198
 31
0.0
 11
-14.1406329125
 21
7.7099188459
 31
0.0
 11
-14.4752019145
 21
8.3826060464
 31
0.0
 11
-14.6967338799
 21
9.0847104051
 31
0.0
 11
-14.7913661455
 21
9.7722535791
 31
0.0
 11
-14.7531500365
 21
10.4020894528
 31
0.0
 11
-14.684650843
 21
10.6828154166
 31
0.0
 11
-14.5844874924
 21
10.9347177862
 31
0.0
 11
-14.4542430675
 21
11.15385513
 31
0.0
 11
-14.2959516258
 21
11.3367441584
 31
0.0
  0
SPLINE
  5
41B
100
AcDbEntity
  8
0
100
AcDbSpline
 62
7
  6
CONTINUOUS
 70
0
 71
3
 72
12
 73
8
 74
6
 42
0.0000001
 43
0.0000001
 44
0.0000000001
 12
0.9203423229
 22
-0.7621180391
 32
0.0
 13
1.0688886422
 23
0.5341638022
 33
0.0
 40
0.0
 40
0.0
 40
0.0
 40
0.0
 40
0.2920446876
 40
0.5529705328
 40
0.7849273305
 40
0.8936770335
 40
1.0
 40
1.0
 40
1.0
 40
1.0
 10
-12.9933747147
 20
7.548415525
 30
0.0
 10
-12.9037810194
 20
7.4742246835
 30
0.0
 10
-12.7212368895
 20
7.3479483915
 30
0.0
 10
-12.4286348282
 20
7.229545796
 30
0.0
 10
-12.1854509703
 20
7.2058498067
 30
0.0
 10
-12.00921609
 20
7.2370242299
 30
0.0
 10
-11.9286218679
 20
7.2678954641
 30
0.0
 10
-11.8907393975
 20
7.2868267575
 30
0.0
 11
-12.9933747147
 21
7.548415525
 31
0.0
 11
-12.7043841263
 21
7.3527979369
 31
0.0
 11
-12.4134943045
 21
7.2405718959
 31
0.0
 11
-12.1372244806
 21
7.2182297241
 31
0.0
 11
-12.0093319493
 21
7.2412517031
 31
0.0
 11
-11.8907393975
 21
7.2868267575
 31
0.0
  0
SPLINE
  5
41C
100
AcDbEntity
  8
0
100
AcDbSpline
 62
7
  6
CONTINUOUS
 70
0
 71
3
 72
12
 73
8
 74
6
 42
0.0000001
 43
0.0000001
 44
0.0000000001
 12
0.9203423229
 22
-0.7621180391
 32
0.0
 13
1.0688886422
 23
0.5341638022
 33
0.0
 40
0.0
 40
0.0
 40
0.0
 40
0.0
 40
0.2920446876
 40
0.5529705328
 40
0.7849273305
 40
0.8936770335
 40
1.0
 40
1.0
 40
1.0
 40
1.0
 10
-12.9933747147
 20
-17.0467059425
 30
0.0
 10
-12.9037810194
 20
-17.120896784
 30
0.0
 10
-12.7212368895
 20
-17.247173076
 30
0.0
 10
-12.4286348282
 20
-17.3655756715
 30
0.0
 10
-12.1854509703
 20
-17.3892716608
 30
0.0
 10
-12.00921609
 20
-17.3580972376
 30
0.0
 10
-11.9286218679
 20
-17.3272260033
 30
0.0
 10
-11.8907393975
 20
-17.30829471
 30
0.0
 11
-12.9933747147
 21
-17.0467059425
 31
0.0
 11
-12.7043841263
 21
-17.2423235306
 31
0.0
 11
-12.4134943045
 21
-17.3545495716
 31
0.0
 11
-12.1372244806
 21
-17.3768917434
 31
0.0
 11
-12.0093319493
 21
-17.3538697643
 31
0.0
 11
-11.8907393975
 21
-17.30829471
 31
0.0
  0
SPLINE
  5
41D
100
AcDbEntity
  8
0
100
AcDbSpline
 62
7
  6
CONTINUOUS
 70
0
 71
3
 72
17
 73
13
 74
11
 42
0.0000001
 43
0.0000001
 44
0.0000000001
 12
-2.9457197464
 22
-1.4720867993
 32
0.0
 13
2.5361250301
 23
-2.1005652098
 33
0.0
 40
0.0
 40
0.0
 40
0.0
 40
0.0
 40
0.0447869646
 40
0.0909233062
 40
0.1395570434
 40
0.1914952527
 40
0.3064742987
 40
0.4360468798
 40
0.576387003
 40
0.7215877592
 40
0.864944184
 40
1.0
 40
1.0
 40
1.0
 40
1.0
 10
-13.4554655754
 20
10.4175391273
 30
0.0
 10
-13.4994421908
 20
10.3955623608
 30
0.0
 10
-13.5839565981
 20
10.3406430562
 30
0.0
 10
-13.6917961874
 20
10.2303201015
 30
0.0
 10
-13.7797488322
 20
10.0942544139
 30
0.0
 10
-13.8715478028
 20
9.8750690288
 30
0.0
 10
-13.924461035
 20
9.5494385995
 30
0.0
 10
-13.8949120058
 20
9.125264601
 30
0.0
 10
-13.778126355
 20
8.6823025479
 30
0.0
 10
-13.5823746485
 20
8.2517300914
 30
0.0
 10
-13.3217869639
 20
7.8641456858
 30
0.0
 10
-13.1075475266
 20
7.6429800412
 30
0.0
 10
-12.9933747147
 20
7.548415525
 30
0.0
 11
-13.4554655754
 21
10.4175391273
 31
0.0
 11
-13.5792434678
 21
10.3373436035
 31
0.0
 11
-13.6859757967
 21
10.2292187484
 31
0.0
 11
-13.7736844492
 21
10.0952165881
 31
0.0
 11
-13.8407014238
 21
9.9378568807
 31
0.0
 11
-13.9080587227
 21
9.5652623811
 31
0.0
 11
-13.8830145333
 21
9.1393065173
 31
0.0
 11
-13.7674180787
 21
8.6918472103
 31
0.0
 11
-13.5699340445
 21
8.2563781063
 31
0.0
 11
-13.3052874726
 21
7.865450759
 31
0.0
 11
-12.9933747147
 21
7.548415525
 31
0.0
  0
SPLINE
  5
41E
100
AcDbEntity
  8
0
100
AcDbSpline
 62
7
  6
CONTINUOUS
 70
0
 71
3
 72
11
 73
7
 74
5
 42
0.0000001
 43
0.0000001
 44
0.0000000001
 12
-1.2933679469
 22
-0.2789953072
 32
0.0
 13
-1.128940323
 23
0.6900237493
 33
0.0
 40
0.0
 40
0.0
 40
0.0
 40
0.0
 40
0.2240383827
 40
0.4629453286
 40
0.7209415095
 40
1.0
 40
1.0
 40
1.0
 40
1.0
 10
-11.6029986328
 20
6.0738679876
 30
0.0
 10
-11.6995866538
 20
6.0530327685
 30
0.0
 10
-11.9051847138
 20
6.0351014011
 30
0.0
 10
-12.2224083026
 20
6.0774151755
 30
0.0
 10
-12.5487569704
 20
6.1860012666
 30
0.0
 10
-12.7595205151
 20
6.2962813226
 30
0.0
 10
-12.8645339759
 20
6.3604669846
 30
0.0
 11
-11.6029986328
 21
6.0738679876
 31
0.0
 11
-11.8981373835
 21
6.0462403331
 31
0.0
 11
-12.2117758581
 21
6.0856269571
 31
0.0
 11
-12.5364123425
 21
6.1911600768
 31
0.0
 11
-12.8645339759
 21
6.3604669846
 31
0.0
  0
SPLINE
  5
41F
100
AcDbEntity
  8
0
100
AcDbSpline
 62
7
  6
CONTINUOUS
 70
0
 71
3
 72
9
 73
5
 74
3
 42
0.0000001
 43
0.0000001
 44
0.0000000001
 12
-0.335470343
 22
0.2050440569
 32
0.0
 13
-0.3063147884
 23
0.2464846176
 33
0.0
 40
0.0
 40
0.0
 40
0.0
 40
0.0
 40
0.2441358802
 40
1.0
 40
1.0
 40
1.0
 40
1.0
 10
-12.8645339759
 20
6.3604669846
 30
0.0
 10
-12.8918340917
 20
6.3771531883
 30
0.0
 10
-13.0024657672
 20
6.4474406298
 30
0.0
 10
-13.1083385348
 20
6.5251504211
 30
0.0
 10
-13.1855159875
 20
6.5872533806
 30
0.0
 11
-12.8645339759
 21
6.3604669846
 31
0.0
 11
-12.9455687727
 21
6.4119149504
 31
0.0
 11
-13.1855159875
 21
6.5872533806
 31
0.0
  0
SPLINE
  5
420
100
AcDbEntity
  8
0
100
AcDbSpline
 62
7
  6
CONTINUOUS
 70
0
 71
3
 72
17
 73
13
 74
11
 42
0.0000001
 43
0.0000001
 44
0.0000000001
 12
-2.9457197464
 22
-1.4720867993
 32
0.0
 13
2.5361250301
 23
-2.1005652098
 33
0.0
 40
0.0
 40
0.0
 40
0.0
 40
0.0
 40
0.0447869646
 40
0.0909233062
 40
0.1395570434
 40
0.1914952527
 40
0.3064742987
 40
0.4360468798
 40
0.576387003
 40
0.7215877592
 40
0.864944184
 40
1.0
 40
1.0
 40
1.0
 40
1.0
 10
-13.4554655754
 20
-14.1775823402
 30
0.0
 10
-13.4994421908
 20
-14.1995591066
 30
0.0
 10
-13.5839565981
 20
-14.2544784113
 30
0.0
 10
-13.6917961874
 20
-14.364801366
 30
0.0
 10
-13.7797488322
 20
-14.5008670536
 30
0.0
 10
-13.8715478028
 20
-14.7200524387
 30
0.0
 10
-13.924461035
 20
-15.045682868
 30
0.0
 10
-13.8949120058
 20
-15.4698568665
 30
0.0
 10
-13.778126355
 20
-15.9128189196
 30
0.0
 10
-13.5823746485
 20
-16.343391376
 30
0.0
 10
-13.3217869639
 20
-16.7309757817
 30
0.0
 10
-13.1075475266
 20
-16.9521414263
 30
0.0
 10
-12.9933747147
 20
-17.0467059425
 30
0.0
 11
-13.4554655754
 21
-14.1775823402
 31
0.0
 11
-13.5792434678
 21
-14.2577778639
 31
0.0
 11
-13.6859757967
 21
-14.3659027191
 31
0.0
 11
-13.7736844492
 21
-14.4999048794
 31
0.0
 11
-13.8407014238
 21
-14.6572645868
 31
0.0
 11
-13.9080587227
 21
-15.0298590863
 31
0.0
 11
-13.8830145333
 21
-15.4558149501
 31
0.0
 11
-13.7674180787
 21
-15.9032742572
 31
0.0
 11
-13.5699340445
 21
-16.3387433612
 31
0.0
 11
-13.3052874726
 21
-16.7296707085
 31
0.0
 11
-12.9933747147
 21
-17.0467059425
 31
0.0
  0
SPLINE
  5
421
100
AcDbEntity
  8
0
100
AcDbSpline
 62
7
  6
CONTINUOUS
 70
0
 71
3
 72
11
 73
7
 74
5
 42
0.0000001
 43
0.0000001
 44
0.0000000001
 12
-1.2933679469
 22
-0.2789953072
 32
0.0
 13
-1.128940323
 23
0.6900237493
 33
0.0
 40
0.0
 40
0.0
 40
0.0
 40
0.0
 40
0.2240383827
 40
0.4629453286
 40
0.7209415095
 40
1.0
 40
1.0
 40
1.0
 40
1.0
 10
-11.6029986328
 20
-18.5212534799
 30
0.0
 10
-11.6995866538
 20
-18.542088699
 30
0.0
 10
-11.9051847138
 20
-18.5600200663
 30
0.0
 10
-12.2224083026
 20
-18.5177062919
 30
0.0
 10
-12.5487569704
 20
-18.4091202009
 30
0.0
 10
-12.7595205151
 20
-18.2988401449
 30
0.0
 10
-12.8645339759
 20
-18.2346544829
 30
0.0
 11
-11.6029986328
 21
-18.5212534799
 31
0.0
 11
-11.8981373835
 21
-18.5488811344
 31
0.0
 11
-12.2117758581
 21
-18.5094945104
 31
0.0
 11
-12.5364123425
 21
-18.4039613906
 31
0.0
 11
-12.8645339759
 21
-18.2346544829
 31
0.0
  0
SPLINE
  5
422
100
AcDbEntity
  8
0
100
AcDbSpline
 62
7
  6
CONTINUOUS
 70
0
 71
3
 72
9
 73
5
 74
3
 42
0.0000001
 43
0.0000001
 44
0.0000000001
 12
-0.335470343
 22
0.2050440569
 32
0.0
 13
-0.3063147884
 23
0.2464846176
 33
0.0
 40
0.0
 40
0.0
 40
0.0
 40
0.0
 40
0.2441358802
 40
1.0
 40
1.0
 40
1.0
 40
1.0
 10
-12.8645339759
 20
-18.2346544829
 30
0.0
 10
-12.8918340917
 20
-18.2179682791
 30
0.0
 10
-13.0024657672
 20
-18.1476808377
 30
0.0
 10
-13.1083385348
 20
-18.0699710464
 30
0.0
 10
-13.1855159875
 20
-18.0078680869
 30
0.0
 11
-12.8645339759
 21
-18.2346544829
 31
0.0
 11
-12.9455687727
 21
-18.183206517
 31
0.0
 11
-13.1855159875
 21
-18.0078680869
 31
0.0
  0
SPLINE
  5
423
100
AcDbEntity
  8
0
100
AcDbSpline
 62
7
  6
CONTINUOUS
 70
0
 71
3
 72
17
 73
13
 74
11
 42
0.0000001
 43
0.0000001
 44
0.0000000001
 12
-5.0484873501
 22
-2.5247560564
 32
0.0
 13
4.3473044117
 23
-3.6003558186
 33
0.0
 40
0.0
 40
0.0
 40
0.0
 40
0.0
 40
0.0447875476
 40
0.0909273561
 40
0.1395669284
 40
0.1915110989
 40
0.3065030273
 40
0.4360839552
 40
0.576419005
 40
0.7216180479
 40
0.8649411162
 40
1.0
 40
1.0
 40
1.0
 40
1.0
 10
-14.2800666876
 20
11.4027916963
 30
0.0
 10
-14.3554364768
 20
11.3650991523
 30
0.0
 10
-14.500186476
 20
11.2707739053
 30
0.0
 10
-14.68503931
 20
11.0816652438
 30
0.0
 10
-14.8356522329
 20
10.8482983462
 30
0.0
 10
-14.9929356536
 20
10.4725276397
 30
0.0
 10
-15.0834685262
 20
9.9142811308
 30
0.0
 10
-15.0326740926
 20
9.1872013292
 30
0.0
 10
-14.8324403024
 20
8.4279352168
 30
0.0
 10
-14.4968384271
 20
7.690012415
 30
0.0
 10
-14.0502282382
 20
7.0256959596
 30
0.0
 10
-13.6830196622
 20
6.646657242
 30
0.0
 10
-13.4873056351
 20
6.4845705626
 30
0.0
 11
-14.2800666876
 21
11.4027916963
 31
0.0
 11
-14.492133502
 21
11.2651702475
 31
0.0
 11
-14.6750356826
 21
11.0797614706
 31
0.0
 11
-14.8252764603
 21
10.8499655214
 31
0.0
 11
-14.9400785822
 21
10.5801704339
 31
0.0
 11
-15.0553717646
 21
9.9414073887
 31
0.0
 11
-15.012295695
 21
9.211243171
 31
0.0
 11
-14.8140815747
 21
8.444306727
 31
0.0
 11
-14.4755081774
 21
7.6979161061
 31
0.0
 11
-14.0219817914
 21
7.027991262
 31
0.0
 11
-13.4873056351
 21
6.4845705626
 31
0.0
  0
SPLINE
  5
424
100
AcDbEntity
  8
0
100
AcDbSpline
 62
7
  6
CONTINUOUS
 70
0
 71
3
 72
17
 73
13
 74
11
 42
0.0000001
 43
0.0000001
 44
0.0000000001
 12
-5.0484873501
 22
-2.5247560564
 32
0.0
 13
4.3473044117
 23
-3.6003558186
 33
0.0
 40
0.0
 40
0.0
 40
0.0
 40
0.0
 40
0.0447875476
 40
0.0909273561
 40
0.1395669284
 40
0.1915110989
 40
0.3065030273
 40
0.4360839552
 40
0.576419005
 40
0.7216180479
 40
0.8649411162
 40
1.0
 40
1.0
 40
1.0
 40
1.0
 10
-14.2800666876
 20
-13.1923297712
 30
0.0
 10
-14.3554364768
 20
-13.2300223152
 30
0.0
 10
-14.500186476
 20
-13.3243475622
 30
0.0
 10
-14.68503931
 20
-13.5134562237
 30
0.0
 10
-14.8356522329
 20
-13.7468231213
 30
0.0
 10
-14.9929356536
 20
-14.1225938278
 30
0.0
 10
-15.0834685262
 20
-14.6808403366
 30
0.0
 10
-15.0326740926
 20
-15.4079201383
 30
0.0
 10
-14.8324403024
 20
-16.1671862507
 30
0.0
 10
-14.4968384271
 20
-16.9051090525
 30
0.0
 10
-14.0502282382
 20
-17.5694255079
 30
0.0
 10
-13.6830196622
 20
-17.9484642255
 30
0.0
 10
-13.4873056351
 20
-18.1105509049
 30
0.0
 11
-14.2800666876
 21
-13.1923297712
 31
0.0
 11
-14.492133502
 21
-13.32995122
 31
0.0
 11
-14.6750356826
 21
-13.5153599969
 31
0.0
 11
-14.8252764603
 21
-13.7451559461
 31
0.0
 11
-14.9400785822
 21
-14.0149510336
 31
0.0
 11
-15.0553717646
 21
-14.6537140788
 31
0.0
 11
-15.012295695
 21
-15.3838782965
 31
0.0
 11
-14.8140815747
 21
-16.1508147405
 31
0.0
 11
-14.4755081774
 21
-16.8972053613
 31
0.0
 11
-14.0219817914
 21
-17.5671302055
 31
0.0
 11
-13.4873056351
 21
-18.1105509049
 31
0.0
  0
SPLINE
  5
425
100
AcDbEntity
  8
0
100
AcDbSpline
 62
7
  6
CONTINUOUS
 70
0
 71
3
 72
14
 73
10
 74
8
 42
0.0000001
 43
0.0000001
 44
0.0000000001
 12
2.2084494845
 22
1.5096145583
 32
0.0
 13
0.0340548879
 23
2.6748879425
 33
0.0
 40
0.0
 40
0.0
 40
0.0
 40
0.0
 40
0.115421872
 40
0.2382192861
 40
0.3662302821
 40
0.4971627566
 40
0.757265878
 40
0.881936012
 40
1.0
 40
1.0
 40
1.0
 40
1.0
 10
13.1079582464
 20
-2.472116895
 30
0.0
 10
13.1929260376
 20
-2.4140360489
 30
0.0
 10
13.3592956667
 20
-2.2806878402
 30
0.0
 10
13.5865837932
 20
-2.0451277561
 30
0.0
 10
13.7919672894
 20
-1.772611877
 30
0.0
 10
14.0285475149
 20
-1.3741390299
 30
0.0
 10
14.2008558538
 20
-0.9430560453
 30
0.0
 10
14.2945676844
 20
-0.5038155257
 30
0.0
 10
14.3135333865
 20
-0.2873963603
 30
0.0
 10
14.3148736051
 20
-0.1821270476
 30
0.0
 11
13.1079582464
 21
-2.472116895
 31
0.0
 11
13.34979527
 21
-2.2801506323
 31
0.0
 11
13.5783822189
 21
-2.0442320224
 31
0.0
 11
13.7851922967
 21
-1.7712912301
 31
0.0
 11
13.9643374523
 21
-1.4703132644
 31
0.0
 11
14.2201275047
 21
-0.8232326015
 31
0.0
 11
14.2888685525
 21
-0.496888158
 31
0.0
 11
14.3148736051
 21
-0.1821270476
 31
0.0
  0
SPLINE
  5
426
100
AcDbEntity
  8
0
100
AcDbSpline
 62
7
  6
CONTINUOUS
 70
0
 71
3
 72
14
 73
10
 74
8
 42
0.0000001
 43
0.0000001
 44
0.0000000001
 12
2.2084494845
 22
1.5096145583
 32
0.0
 13
0.0340548879
 23
2.6748879424
 33
0.0
 40
0.0
 40
0.0
 40
0.0
 40
0.0
 40
0.115421872
 40
0.2382192861
 40
0.3662302821
 40
0.4971627566
 40
0.757265878
 40
0.881936012
 40
1.0
 40
1.0
 40
1.0
 40
1.0
 10
13.1079582464
 20
-11.1323709329
 30
0.0
 10
13.1929260376
 20
-11.0742900868
 30
0.0
 10
13.3592956667
 20
-10.9409418781
 30
0.0
 10
13.5865837932
 20
-10.7053817939
 30
0.0
 10
13.7919672894
 20
-10.4328659148
 30
0.0
 10
14.0285475149
 20
-10.0343930677
 30
0.0
 10
14.2008558538
 20
-9.6033100832
 30
0.0
 10
14.2945676844
 20
-9.1640695636
 30
0.0
 10
14.3135333865
 20
-8.9476503981
 30
0.0
 10
14.3148736051
 20
-8.8423810855
 30
0.0
 11
13.1079582464
 21
-11.1323709329
 31
0.0
 11
13.34979527
 21
-10.9404046702
 31
0.0
 11
13.5783822189
 21
-10.7044860603
 31
0.0
 11
13.7851922967
 21
-10.431545268
 31
0.0
 11
13.9643374523
 21
-10.1305673023
 31
0.0
 11
14.2201275047
 21
-9.4834866393
 31
0.0
 11
14.2888685525
 21
-9.1571421958
 31
0.0
 11
14.3148736051
 21
-8.8423810855
 31
0.0
  0
SPLINE
  5
427
100
AcDbEntity
  8
0
100
AcDbSpline
 62
7
  6
CONTINUOUS
 70
0
 71
3
 72
14
 73
10
 74
8
 42
0.0000001
 43
0.0000001
 44
0.0000000001
 12
2.2084494845
 22
1.5096145583
 32
0.0
 13
0.0340548879
 23
2.6748879425
 33
0.0
 40
0.0
 40
0.0
 40
0.0
 40
0.0
 40
0.115421872
 40
0.2382192861
 40
0.3662302821
 40
0.4971627566
 40
0.757265878
 40
0.881936012
 40
1.0
 40
1.0
 40
1.0
 40
1.0
 10
13.1079582464
 20
-6.8022439139
 30
0.0
 10
13.1929260376
 20
-6.7441630679
 30
0.0
 10
13.3592956667
 20
-6.6108148592
 30
0.0
 10
13.5865837932
 20
-6.375254775
 30
0.0
 10
13.7919672894
 20
-6.1027388959
 30
0.0
 10
14.0285475149
 20
-5.7042660488
 30
0.0
 10
14.2008558538
 20
-5.2731830642
 30
0.0
 10
14.2945676844
 20
-4.8339425447
 30
0.0
 10
14.3135333865
 20
-4.6175233792
 30
0.0
 10
14.3148736051
 20
-4.5122540666
 30
0.0
 11
13.1079582464
 21
-6.8022439139
 31
0.0
 11
13.34979527
 21
-6.6102776513
 31
0.0
 11
13.5783822189
 21
-6.3743590414
 31
0.0
 11
13.7851922967
 21
-6.1014182491
 31
0.0
 11
13.9643374523
 21
-5.8004402834
 31
0.0
 11
14.2201275047
 21
-5.1533596204
 31
0.0
 11
14.2888685525
 21
-4.8270151769
 31
0.0
 11
14.3148736051
 21
-4.5122540666
 31
0.0
  0
SPLINE
  5
428
100
AcDbEntity
  8
0
100
AcDbSpline
 62
7
  6
CONTINUOUS
 70
0
 71
3
 72
14
 73
10
 74
8
 42
0.0000001
 43
0.0000001
 44
0.0000000001
 12
2.2084494845
 22
1.5096145583
 32
0.0
 13
0.0340548879
 23
2.6748879425
 33
0.0
 40
0.0
 40
0.0
 40
0.0
 40
0.0
 40
0.115421872
 40
0.2382192861
 40
0.3662302821
 40
0.4971627566
 40
0.757265878
 40
0.881936012
 40
1.0
 40
1.0
 40
1.0
 40
1.0
 10
13.1079582464
 20
6.1881371428
 30
0.0
 10
13.1929260376
 20
6.2462179889
 30
0.0
 10
13.3592956667
 20
6.3795661976
 30
0.0
 10
13.5865837932
 20
6.6151262818
 30
0.0
 10
13.7919672894
 20
6.8876421609
 30
0.0
 10
14.0285475149
 20
7.2861150079
 30
0.0
 10
14.2008558538
 20
7.7171979925
 30
0.0
 10
14.2945676844
 20
8.1564385121
 30
0.0
 10
14.3135333865
 20
8.3728576776
 30
0.0
 10
14.3148736051
 20
8.4781269902
 30
0.0
 11
13.1079582464
 21
6.1881371428
 31
0.0
 11
13.34979527
 21
6.3801034055
 31
0.0
 11
13.5783822189
 21
6.6160220154
 31
0.0
 11
13.7851922967
 21
6.8889628077
 31
0.0
 11
13.9643374523
 21
7.1899407734
 31
0.0
 11
14.2201275047
 21
7.8370214363
 31
0.0
 11
14.2888685525
 21
8.1633658799
 31
0.0
 11
14.3148736051
 21
8.4781269902
 31
0.0
  0
SPLINE
  5
429
100
AcDbEntity
  8
0
100
AcDbSpline
 62
7
  6
CONTINUOUS
 70
0
 71
3
 72
14
 73
10
 74
8
 42
0.0000001
 43
0.0000001
 44
0.0000000001
 12
2.2084494845
 22
1.5096145583
 32
0.0
 13
0.0340548879
 23
2.6748879424
 33
0.0
 40
0.0
 40
0.0
 40
0.0
 40
0.0
 40
0.115421872
 40
0.2382192861
 40
0.3662302821
 40
0.4971627566
 40
0.757265878
 40
0.881936012
 40
1.0
 40
1.0
 40
1.0
 40
1.0
 10
13.1079582464
 20
1.8580101239
 30
0.0
 10
13.1929260376
 20
1.91609097
 30
0.0
 10
13.3592956667
 20
2.0494391787
 30
0.0
 10
13.5865837932
 20
2.2849992628
 30
0.0
 10
13.7919672894
 20
2.5575151419
 30
0.0
 10
14.0285475149
 20
2.955987989
 30
0.0
 10
14.2008558538
 20
3.3870709736
 30
0.0
 10
14.2945676844
 20
3.8263114932
 30
0.0
 10
14.3135333865
 20
4.0427306586
 30
0.0
 10
14.3148736051
 20
4.1479999713
 30
0.0
 11
13.1079582464
 21
1.8580101239
 31
0.0
 11
13.34979527
 21
2.0499763866
 31
0.0
 11
13.5783822189
 21
2.2858949965
 31
0.0
 11
13.7851922967
 21
2.5588357888
 31
0.0
 11
13.9643374523
 21
2.8598137545
 31
0.0
 11
14.2201275047
 21
3.5068944174
 31
0.0
 11
14.2888685525
 21
3.833238861
 31
0.0
 11
14.3148736051
 21
4.1479999713
 31
0.0
  0
SPLINE
  5
42A
100
AcDbEntity
  8
0
100
AcDbSpline
 62
7
  6
CONTINUOUS
 70
0
 71
3
 72
14
 73
10
 74
8
 42
0.0000001
 43
0.0000001
 44
0.0000000001
 12
2.2084494845
 22
1.5096145583
 32
0.0
 13
0.0340548879
 23
2.6748879425
 33
0.0
 40
0.0
 40
0.0
 40
0.0
 40
0.0
 40
0.115421872
 40
0.2382192861
 40
0.3662302821
 40
0.4971627566
 40
0.757265878
 40
0.881936012
 40
1.0
 40
1.0
 40
1.0
 40
1.0
 10
13.1079582464
 20
10.5182641617
 30
0.0
 10
13.1929260376
 20
10.5763450078
 30
0.0
 10
13.3592956667
 20
10.7096932165
 30
0.0
 10
13.5865837932
 20
10.9452533007
 30
0.0
 10
13.7919672894
 20
11.2177691798
 30
0.0
 10
14.0285475149
 20
11.6162420269
 30
0.0
 10
14.2008558538
 20
12.0473250114
 30
0.0
 10
14.2945676844
 20
12.486565531
 30
0.0
 10
14.3135333865
 20
12.7029846965
 30
0.0
 10
14.3148736051
 20
12.8082540091
 30
0.0
 11
13.1079582464
 21
10.5182641617
 31
0.0
 11
13.34979527
 21
10.7102304244
 31
0.0
 11
13.5783822189
 21
10.9461490343
 31
0.0
 11
13.7851922967
 21
11.2190898266
 31
0.0
 11
13.9643374523
 21
11.5200677923
 31
0.0
 11
14.2201275047
 21
12.1671484553
 31
0.0
 11
14.2888685525
 21
12.4934928988
 31
0.0
 11
14.3148736051
 21
12.8082540091
 31
0.0
  0
SPLINE
  5
42B
100
AcDbEntity
  8
0
100
AcDbSpline
 62
253
  6
CONTINUOUS
 70
0
 71
3
 72
11
 73
7
 74
5
 42
0.0000001
 43
0.0000001
 44
0.0000000001
 12
-0.3412524647
 22
0.2823379879
 32
0.0
 13
0.1056528889
 23
0.4301226001
 33
0.0
 40
0.0
 40
0.0
 40
0.0
 40
0.0
 40
0.2016992407
 40
0.4273580738
 40
0.6922195312
 40
1.0
 40
1.0
 40
1.0
 40
1.0
 10
-13.4454354224
 20
-18.6389084503
 30
0.0
 10
-13.4683788767
 20
-18.6199259977
 30
0.0
 10
-13.5084358416
 20
-18.5685938975
 30
0.0
 10
-13.5378576851
 20
-18.4689803485
 30
0.0
 10
-13.5401272641
 20
-18.350183611
 30
0.0
 10
-13.5255790458
 20
-18.2664525275
 30
0.0
 10
-13.5147397472
 20
-18.222324749
 30
0.0
 11
-13.4454354224
 21
-18.6389084503
 31
0.0
 11
-13.5013133939
 21
-18.5692071394
 31
0.0
 11
-13.5320741818
 21
-18.4741123333
 31
0.0
 11
-13.536544664
 21
-18.3568881417
 31
0.0
 11
-13.5147397472
 21
-18.222324749
 31
0.0
  0
SPLINE
  5
42C
100
AcDbEntity
  8
0
100
AcDbSpline
 62
253
  6
CONTINUOUS
 70
0
 71
3
 72
22
 73
18
 74
16
 42
0.0000001
 43
0.0000001
 44
0.0000000001
 12
-0.0233791918
 22
-8.0778472001
 32
0.0
 13
-0.0169051412
 23
8.0778633432
 33
0.0
 40
0.0
 40
0.0
 40
0.0
 40
0.0
 40
0.0634378699
 40
0.1211417308
 40
0.1734092
 40
0.2217196479
 40
0.2685305503
 40
0.3167682626
 40
0.368919766
 40
0.4264530658
 40
0.4897620457
 40
0.5583738476
 40
0.6311900056
 40
0.7066950779
 40
0.7831405463
 40
0.858693573
 40
1.0
 40
1.0
 40
1.0
 40
1.0
 10
-10.7108811686
 20
-4.6916534932
 30
0.0
 10
-10.711375544
 20
-4.8624672998
 30
0.0
 10
-10.7358232888
 20
-5.1895407368
 30
0.0
 10
-10.8586524543
 20
-5.6435021765
 30
0.0
 10
-11.0642492403
 20
-6.0221647057
 30
0.0
 10
-11.3475056451
 20
-6.3089061849
 30
0.0
 10
-11.6982874698
 20
-6.4861201678
 30
0.0
 10
-12.0967143669
 20
-6.5439222641
 30
0.0
 10
-12.522436903
 20
-6.4838115216
 30
0.0
 10
-12.9593248463
 20
-6.3126887433
 30
0.0
 10
-13.3927925896
 20
-6.0389618308
 30
0.0
 10
-13.8079986087
 20
-5.6732994235
 30
0.0
 10
-14.190110339
 20
-5.2292749266
 30
0.0
 10
-14.5251243683
 20
-4.7235050719
 30
0.0
 10
-14.8005339955
 20
-4.1744393204
 30
0.0
 10
-15.068585069
 20
-3.4307137747
 30
0.0
 10
-15.1648576217
 20
-2.8447518015
 30
0.0
 10
-15.1656538901
 20
-2.4642671324
 30
0.0
 11
-10.7108811686
 21
-4.6916534932
 31
0.0
 11
-10.7538068404
 21
-5.2022960248
 31
0.0
 11
-10.8803857501
 21
-5.6509052357
 31
0.0
 11
-11.0863083393
 21
-6.0194937693
 31
0.0
 11
-11.3632700281
 21
-6.2944195828
 31
0.0
 11
-11.7007863092
 21
-6.4649107866
 31
0.0
 11
-12.0858674695
 21
-6.5244611688
 31
0.0
 11
-12.5037056688
 21
-6.4707702152
 31
0.0
 11
-12.9382338714
 21
-6.3059213275
 31
0.0
 11
-13.3727609224
 21
-6.0362573414
 31
0.0
 11
-13.7905991051
 21
-5.6721268929
 31
0.0
 11
-14.1756887821
 21
-5.2275085297
 31
0.0
 11
-14.5132202747
 21
-4.7194966137
 31
0.0
 11
-14.7902080981
 21
-4.1675858562
 31
0.0
 11
-14.9961226529
 21
-3.5930638885
 31
0.0
 11
-15.1656538901
 21
-2.4642671324
 31
0.0
  0
SPLINE
  5
42D
100
AcDbEntity
  8
0
100
AcDbSpline
 62
253
  6
CONTINUOUS
 70
0
 71
3
 72
9
 73
5
 74
3
 42
0.0000001
 43
0.0000001
 44
0.0000000001
 12
0.0012346701
 22
0.4265962984
 32
0.0
 13
0.0598735173
 23
0.4223755298
 33
0.0
 40
0.0
 40
0.0
 40
0.0
 40
0.0
 40
0.2562477004
 40
1.0
 40
1.0
 40
1.0
 40
1.0
 10
-15.1656538901
 20
-2.4642671324
 30
0.0
 10
-15.1655484297
 20
-2.4278290256
 30
0.0
 10
-15.1628948876
 20
-2.2856538994
 30
0.0
 10
-15.1510637796
 20
-2.1435852244
 30
0.0
 10
-15.1362200909
 20
-2.0388709672
 30
0.0
 11
-15.1656538901
 21
-2.4642671324
 31
0.0
 11
-15.1635858761
 21
-2.3549719172
 31
0.0
 11
-15.1362200909
 21
-2.0388709672
 31
0.0
  0
SPLINE
  5
42E
100
AcDbEntity
  8
0
100
AcDbSpline
 62
253
  6
CONTINUOUS
 70
0
 71
3
 72
22
 73
18
 74
16
 42
0.0000001
 43
0.0000001
 44
0.0000000001
 12
1.0741444386
 22
7.5775125057
 32
0.0
 13
0.0160165202
 23
-7.6532493439
 33
0.0
 40
0.0
 40
0.0
 40
0.0
 40
0.0
 40
0.058950069
 40
0.1125484912
 40
0.161901838
 40
0.2089702253
 40
0.2563395333
 40
0.3065052008
 40
0.3612449452
 40
0.4213918356
 40
0.4869272704
 40
0.5571789368
 40
0.631011458
 40
0.7069855527
 40
0.7834965653
 40
0.858891638
 40
1.0
 40
1.0
 40
1.0
 40
1.0
 10
-15.1362200909
 20
-2.0388709672
 30
0.0
 10
-15.1151131279
 20
-1.8899726723
 30
0.0
 10
-15.0509461976
 20
-1.607995795
 30
0.0
 10
-14.875052153
 20
-1.2303505284
 30
0.0
 10
-14.6285448417
 20
-0.9312153118
 30
0.0
 10
-14.3177889796
 20
-0.7255345234
 30
0.0
 10
-13.9571127621
 20
-0.6244427727
 30
0.0
 10
-13.5640688239
 20
-0.6303457061
 30
0.0
 10
-13.1537693076
 20
-0.7391977019
 30
0.0
 10
-12.7391184564
 20
-0.9447802606
 30
0.0
 10
-12.3328022515
 20
-1.2392547803
 30
0.0
 10
-11.9476772108
 20
-1.6125501597
 30
0.0
 10
-11.5963175436
 20
-2.0521688194
 30
0.0
 10
-11.2904386888
 20
-2.5432799738
 30
0.0
 10
-11.0403993127
 20
-3.069698012
 30
0.0
 10
-10.7979067493
 20
-3.7775243883
 30
0.0
 10
-10.7116345236
 20
-4.3316743334
 30
0.0
 10
-10.7108811686
 20
-4.6916534932
 30
0.0
 11
-15.1362200909
 21
-2.0388709672
 31
0.0
 11
-15.031953601
 21
-1.5999240977
 31
0.0
 11
-14.8549048711
 21
-1.2298967494
 31
0.0
 11
-14.611704813
 21
-0.9408953282
 31
0.0
 11
-14.3106254764
 21
-0.7431210943
 31
0.0
 11
-13.9620882594
 21
-0.6433726586
 31
0.0
 11
-13.5781607614
 21
-0.6450593117
 31
0.0
 11
-13.1721050035
 21
-0.7481496956
 31
0.0
 11
-12.7579641924
 21
-0.9491025151
 31
0.0
 11
-12.3500623758
 21
-1.2409563548
 31
0.0
 11
-11.962497065
 21
-1.613603243
 31
0.0
 11
-11.6086564639
 21
-2.054159205
 31
0.0
 11
-11.3007906845
 21
-2.5474164623
 31
0.0
 11
-11.0495666871
 21
-3.0763455773
 31
0.0
 11
-10.8635559134
 21
-3.6225601908
 31
0.0
 11
-10.7108811686
 21
-4.6916534932
 31
0.0
  0
SPLINE
  5
42F
100
AcDbEntity
  8
0
100
AcDbSpline
 62
7
  6
CONTINUOUS
 70
0
 71
3
 72
17
 73
13
 74
11
 42
0.0000001
 43
0.0000001
 44
0.0000000001
 12
0.0000426197
 22
-5.8025296066
 32
0.0
 13
5.1907242898
 23
2.5934014699
 33
0.0
 40
0.0
 40
0.0
 40
0.0
 40
0.0
 40
0.1325733557
 40
0.27475839
 40
0.4200100145
 40
0.5612028387
 40
0.6919508918
 40
0.8079353901
 40
0.8602030864
 40
0.9090245611
 40
0.9552259895
 40
1.0
 40
1.0
 40
1.0
 40
1.0
 10
-15.0595878729
 20
-2.517300141
 30
0.0
 10
-15.0595859895
 20
-2.7737204148
 30
0.0
 10
-14.9962361326
 20
-3.3059583561
 30
0.0
 10
-14.7509400106
 20
-4.0844334934
 30
0.0
 10
-14.3695586565
 20
-4.8251020125
 30
0.0
 10
-13.8801387092
 20
-5.4722140809
 30
0.0
 10
-13.3191388817
 20
-5.9777481337
 30
0.0
 10
-12.8049940492
 20
-6.2596793731
 30
0.0
 10
-12.397812337
 20
-6.3694520442
 30
0.0
 10
-12.1121351764
 20
-6.39342769
 30
0.0
 10
-11.8417390205
 20
-6.3605278412
 30
0.0
 10
-11.6745166269
 20
-6.3001256694
 30
0.0
 10
-11.5970467788
 20
-6.2614200079
 30
0.0
 11
-15.0595878729
 21
-2.517300141
 31
0.0
 11
-14.9758422695
 21
-3.2819888915
 31
0.0
 11
-14.7312267019
 21
-4.069924462
 31
0.0
 11
-14.3450765521
 21
-4.819087437
 31
0.0
 11
-13.8478706563
 21
-5.4702392721
 31
0.0
 11
-13.2788462981
 21
-5.9720266896
 31
0.0
 11
-12.6829388528
 21
-6.2848013819
 31
0.0
 11
-12.3896245927
 21
-6.3619275655
 31
0.0
 11
-12.1071874416
 21
-6.3838678557
 31
0.0
 11
-11.8412329582
 21
-6.3501356216
 31
0.0
 11
-11.5970467788
 21
-6.2614200079
 31
0.0
  0
SPLINE
  5
430
100
AcDbEntity
  8
0
100
AcDbSpline
 62
253
  6
CONTINUOUS
 70
0
 71
3
 72
13
 73
9
 74
7
 42
0.0000001
 43
0.0000001
 44
0.0000000001
 12
1.3010606698
 22
-0.650533613
 32
0.0
 13
1.3010619811
 23
0.6505309905
 33
0.0
 40
0.0
 40
0.0
 40
0.0
 40
0.0
 40
0.1125260113
 40
0.2356334969
 40
0.4999159884
 40
0.7642783134
 40
0.8874532109
 40
1.0
 40
1.0
 40
1.0
 40
1.0
 10
-10.7108751625
 20
-4.691681028
 30
0.0
 10
-10.6620741066
 20
-4.7160816789
 30
0.0
 10
-10.5556246533
 20
-4.7588254169
 30
0.0
 10
-10.3207600262
 20
-4.8205792594
 30
0.0
 10
-10.0038573382
 20
-4.8500525652
 30
0.0
 10
-9.6869149405
 20
-4.8206132331
 30
0.0
 10
-9.4519712388
 20
-4.7588402814
 30
0.0
 10
-9.3454777225
 20
-4.7160908707
 30
0.0
 10
-9.2966676064
 20
-4.6916858126
 30
0.0
 11
-10.7108751625
 21
-4.691681028
 31
0.0
 11
-10.5594350031
 21
-4.7537961751
 31
0.0
 11
-10.3864426774
 21
-4.8000766158
 31
0.0
 11
-10.0038947507
 21
-4.8381069773
 31
0.0
 11
-9.6212272802
 21
-4.8001052345
 31
0.0
 11
-9.4481386785
 21
-4.7538052378
 31
0.0
 11
-9.2966676064
 21
-4.6916858126
 31
0.0
  0
SPLINE
  5
431
100
AcDbEntity
  8
0
100
AcDbSpline
 62
253
  6
CONTINUOUS
 70
0
 71
3
 72
14
 73
10
 74
8
 42
0.0000001
 43
0.0000001
 44
0.0000000001
 12
-0.0000192295
 22
-2.6189465219
 32
0.0
 13
-2.3426573404
 23
-1.1708276861
 33
0.0
 40
0.0
 40
0.0
 40
0.0
 40
0.0
 40
0.2891446109
 40
0.4227136708
 40
0.5489599756
 40
0.6685064967
 40
0.7824366987
 40
0.8922913075
 40
1.0
 40
1.0
 40
1.0
 40
1.0
 10
-9.2966676064
 20
-4.6916858125
 30
0.0
 10
-9.2966694597
 20
-4.9441039035
 30
0.0
 10
-9.3281648731
 20
-5.3151215871
 30
0.0
 10
-9.4485437015
 20
-5.7799175762
 30
0.0
 10
-9.5708001458
 20
-6.0887517859
 30
0.0
 10
-9.7260935822
 20
-6.3629669684
 30
0.0
 10
-9.9128597568
 20
-6.5990717731
 30
0.0
 10
-10.1288804865
 20
-6.7937176516
 30
0.0
 10
-10.2913836149
 20
-6.8943764662
 30
0.0
 10
-10.3754918013
 20
-6.9364125726
 30
0.0
 11
-9.2966676064
 21
-4.6916858125
 31
0.0
 11
-9.3683906569
 21
-5.4455358229
 31
0.0
 11
-9.4572210158
 21
-5.7838793772
 31
0.0
 11
-9.5800553966
 21
-6.0908475296
 31
0.0
 11
-9.7353909178
 21
-6.3626814588
 31
0.0
 11
-9.9213223309
 21
-6.5960447104
 31
0.0
 11
-10.1355631215
 21
-6.7880710075
 31
0.0
 11
-10.3754918013
 21
-6.9364125726
 31
0.0
  0
SPLINE
  5
432
100
AcDbEntity
  8
0
100
AcDbSpline
 62
253
  6
CONTINUOUS
 70
0
 71
3
 72
19
 73
15
 74
13
 42
0.0000001
 43
0.0000001
 44
0.0000000001
 12
-0.0000589635
 22
8.0305750996
 32
0.0
 13
-7.1839344399
 23
-3.5890419889
 33
0.0
 40
0.0
 40
0.0
 40
0.0
 40
0.0
 40
0.1325011825
 40
0.2746366645
 40
0.4198257029
 40
0.5609581016
 40
0.6280288655
 40
0.6918302752
 40
0.7519044095
 40
0.8080270103
 40
0.8602712095
 40
0.9090682349
 40
0.9552465548
 40
1.0
 40
1.0
 40
1.0
 40
1.0
 10
-9.2966676064
 20
-4.6916211737
 30
0.0
 10
-9.2966702106
 20
-4.3369342748
 30
0.0
 10
-9.3843300023
 20
-3.6006724226
 30
0.0
 10
-9.7236116455
 20
-2.5236772801
 30
0.0
 10
-10.2512019101
 20
-1.4992353462
 30
0.0
 10
-10.8251813367
 20
-0.7400312727
 30
0.0
 10
-11.3451285825
 20
-0.2287377901
 30
0.0
 10
-11.7462858258
 20
0.089762864
 30
0.0
 10
-12.15740298
 20
0.343454062
 30
0.0
 10
-12.5708402626
 20
0.5272652498
 30
0.0
 10
-12.9789290206
 20
0.6372265538
 30
0.0
 10
-13.3740930209
 20
0.6703406809
 30
0.0
 10
-13.7481382094
 20
0.6248284132
 30
0.0
 10
-13.9794476503
 20
0.541245777
 30
0.0
 10
-14.0866162558
 20
0.4877051123
 30
0.0
 11
-9.2966676064
 21
-4.6916211737
 31
0.0
 11
-9.4125126582
 21
-3.6338853415
 31
0.0
 11
-9.7509018506
 21
-2.5437686371
 31
0.0
 11
-10.2851182316
 21
-1.50740205
 31
0.0
 11
-10.9729613306
 21
-0.6066194815
 31
0.0
 11
-11.3578866902
 21
-0.2298695221
 31
0.0
 11
-11.7601337644
 21
0.0874822116
 31
0.0
 11
-12.1717233726
 21
0.3391418075
 31
0.0
 11
-12.5844896458
 21
0.520115765
 31
0.0
 11
-12.9902462457
 21
0.6268143793
 31
0.0
 11
-13.3809404733
 21
0.6571242574
 31
0.0
 11
-13.7488295977
 21
0.6104470716
 31
0.0
 11
-14.0866162558
 21
0.4877051123
 31
0.0
  0
SPLINE
  5
433
100
AcDbEntity
  8
0
100
AcDbSpline
 62
253
  6
CONTINUOUS
 70
0
 71
3
 72
11
 73
7
 74
5
 42
0.0000001
 43
0.0000001
 44
0.0000000001
 12
-0.3412524647
 22
0.2823379879
 32
0.0
 13
0.1056528889
 23
0.4301226001
 33
0.0
 40
0.0
 40
0.0
 40
0.0
 40
0.0
 40
0.2016992407
 40
0.4273580738
 40
0.6922195312
 40
1.0
 40
1.0
 40
1.0
 40
1.0
 10
-13.4454354224
 20
5.9562130172
 30
0.0
 10
-13.4683788767
 20
5.9751954698
 30
0.0
 10
-13.5084358416
 20
6.02652757
 30
0.0
 10
-13.5378576851
 20
6.126141119
 30
0.0
 10
-13.5401272641
 20
6.2449378565
 30
0.0
 10
-13.5255790458
 20
6.32866894
 30
0.0
 10
-13.5147397472
 20
6.3727967185
 30
0.0
 11
-13.4454354224
 21
5.9562130172
 31
0.0
 11
-13.5013133939
 21
6.025914328
 31
0.0
 11
-13.5320741818
 21
6.1210091341
 31
0.0
 11
-13.536544664
 21
6.2382333258
 31
0.0
 11
-13.5147397472
 21
6.3727967185
 31
0.0
  0
SPLINE
  5
434
100
AcDbEntity
  8
ASSI
100
AcDbSpline
 62
7
  6
CONTINUOUS
 70
0
 71
3
 72
13
 73
9
 74
7
 42
0.0000001
 43
0.0000001
 44
0.0000000001
 12
-0.0000027133
 22
-0.1425291075
 32
0.0
 13
-0.1270314313
 23
-0.0646340618
 33
0.0
 40
0.0
 40
0.0
 40
0.0
 40
0.0
 40
0.1024904437
 40
0.2077977095
 40
0.4356598786
 40
0.5622810427
 40
0.6984260697
 40
1.0
 40
1.0
 40
1.0
 40
1.0
 10
17.7371736489
 20
-9.8017882125
 30
0.0
 10
17.7371735562
 20
-9.806657503
 30
0.0
 10
17.7361974131
 20
-9.8165560654
 30
0.0
 10
17.7302708913
 20
-9.8364960942
 30
0.0
 10
17.7184527129
 20
-9.8553741728
 30
0.0
 10
17.7024392941
 20
-9.8723462304
 30
0.0
 10
17.6818570159
 20
-9.8896158294
 30
0.0
 10
17.6639186024
 20
-9.9004244115
 30
0.0
 10
17.6511488131
 20
-9.9069217275
 30
0.0
 11
17.7371736489
 21
-9.8017882125
 31
0.0
 11
17.7357604426
 21
-9.8163275645
 31
0.0
 11
17.7315353273
 21
-9.8307299603
 31
0.0
 11
17.714834677
 21
-9.8585839235
 31
0.0
 11
17.7025162768
 21
-9.8717732563
 31
0.0
 11
17.6876994549
 21
-9.8843032771
 31
0.0
 11
17.6511488131
 21
-9.9069217275
 31
0.0
  0
SPLINE
  5
435
100
AcDbEntity
  8
ASSI
100
AcDbSpline
 62
7
  6
CONTINUOUS
 70
0
 71
3
 72
13
 73
9
 74
7
 42
0.0000001
 43
0.0000001
 44
0.0000000001
 12
-0.0000027133
 22
-0.1425291075
 32
0.0
 13
-0.1270314313
 23
-0.0646340618
 33
0.0
 40
0.0
 40
0.0
 40
0.0
 40
0.0
 40
0.1024904437
 40
0.2077977095
 40
0.4356598786
 40
0.5622810427
 40
0.6984260697
 40
1.0
 40
1.0
 40
1.0
 40
1.0
 10
17.7371736489
 20
-5.4716611935
 30
0.0
 10
17.7371735562
 20
-5.476530484
 30
0.0
 10
17.7361974131
 20
-5.4864290465
 30
0.0
 10
17.7302708913
 20
-5.5063690753
 30
0.0
 10
17.7184527129
 20
-5.5252471539
 30
0.0
 10
17.7024392941
 20
-5.5422192115
 30
0.0
 10
17.6818570159
 20
-5.5594888105
 30
0.0
 10
17.6639186024
 20
-5.5702973926
 30
0.0
 10
17.6511488131
 20
-5.5767947086
 30
0.0
 11
17.7371736489
 21
-5.4716611935
 31
0.0
 11
17.7357604426
 21
-5.4862005455
 31
0.0
 11
17.7315353273
 21
-5.5006029414
 31
0.0
 11
17.714834677
 21
-5.5284569046
 31
0.0
 11
17.7025162768
 21
-5.5416462373
 31
0.0
 11
17.6876994549
 21
-5.5541762581
 31
0.0
 11
17.6511488131
 21
-5.5767947086
 31
0.0
  0
SPLINE
  5
436
100
AcDbEntity
  8
ASSI
100
AcDbSpline
 62
7
  6
CONTINUOUS
 70
0
 71
3
 72
13
 73
9
 74
7
 42
0.0000001
 43
0.0000001
 44
0.0000000001
 12
-0.0000027133
 22
-0.1425291075
 32
0.0
 13
-0.1270314313
 23
-0.0646340618
 33
0.0
 40
0.0
 40
0.0
 40
0.0
 40
0.0
 40
0.1024904437
 40
0.2077977095
 40
0.4356598786
 40
0.5622810427
 40
0.6984260697
 40
1.0
 40
1.0
 40
1.0
 40
1.0
 10
17.7371736489
 20
-1.1415341746
 30
0.0
 10
17.7371735562
 20
-1.1464034651
 30
0.0
 10
17.7361974131
 20
-1.1563020276
 30
0.0
 10
17.7302708913
 20
-1.1762420564
 30
0.0
 10
17.7184527129
 20
-1.195120135
 30
0.0
 10
17.7024392941
 20
-1.2120921926
 30
0.0
 10
17.6818570159
 20
-1.2293617916
 30
0.0
 10
17.6639186024
 20
-1.2401703737
 30
0.0
 10
17.6511488131
 20
-1.2466676897
 30
0.0
 11
17.7371736489
 21
-1.1415341746
 31
0.0
 11
17.7357604426
 21
-1.1560735266
 31
0.0
 11
17.7315353273
 21
-1.1704759225
 31
0.0
 11
17.714834677
 21
-1.1983298857
 31
0.0
 11
17.7025162768
 21
-1.2115192184
 31
0.0
 11
17.6876994549
 21
-1.2240492392
 31
0.0
 11
17.6511488131
 21
-1.2466676897
 31
0.0
  0
SPLINE
  5
437
100
AcDbEntity
  8
ASSI
100
AcDbSpline
 62
7
  6
CONTINUOUS
 70
0
 71
3
 72
13
 73
9
 74
7
 42
0.0000001
 43
0.0000001
 44
0.0000000001
 12
-0.0000027133
 22
-0.1425291075
 32
0.0
 13
-0.1270314313
 23
-0.0646340618
 33
0.0
 40
0.0
 40
0.0
 40
0.0
 40
0.0
 40
0.1024904437
 40
0.2077977095
 40
0.4356598786
 40
0.5622810427
 40
0.6984260697
 40
1.0
 40
1.0
 40
1.0
 40
1.0
 10
17.7371736489
 20
3.1885928443
 30
0.0
 10
17.7371735562
 20
3.1837235538
 30
0.0
 10
17.7361974131
 20
3.1738249914
 30
0.0
 10
17.7302708913
 20
3.1538849625
 30
0.0
 10
17.7184527129
 20
3.135006884
 30
0.0
 10
17.7024392941
 20
3.1180348264
 30
0.0
 10
17.6818570159
 20
3.1007652273
 30
0.0
 10
17.6639186024
 20
3.0899566453
 30
0.0
 10
17.6511488131
 20
3.0834593293
 30
0.0
 11
17.7371736489
 21
3.1885928443
 31
0.0
 11
17.7357604426
 21
3.1740534923
 31
0.0
 11
17.7315353273
 21
3.1596510964
 31
0.0
 11
17.714834677
 21
3.1317971333
 31
0.0
 11
17.7025162768
 21
3.1186078005
 31
0.0
 11
17.6876994549
 21
3.1060777797
 31
0.0
 11
17.6511488131
 21
3.0834593293
 31
0.0
  0
SPLINE
  5
438
100
AcDbEntity
  8
ASSI
100
AcDbSpline
 62
7
  6
CONTINUOUS
 70
0
 71
3
 72
13
 73
9
 74
7
 42
0.0000001
 43
0.0000001
 44
0.0000000001
 12
-0.0000027133
 22
-0.1425291075
 32
0.0
 13
-0.1270314313
 23
-0.0646340618
 33
0.0
 40
0.0
 40
0.0
 40
0.0
 40
0.0
 40
0.1024904437
 40
0.2077977095
 40
0.4356598786
 40
0.5622810427
 40
0.6984260697
 40
1.0
 40
1.0
 40
1.0
 40
1.0
 10
17.7371736489
 20
7.5187198632
 30
0.0
 10
17.7371735562
 20
7.5138505727
 30
0.0
 10
17.7361974131
 20
7.5039520103
 30
0.0
 10
17.7302708913
 20
7.4840119814
 30
0.0
 10
17.7184527129
 20
7.4651339029
 30
0.0
 10
17.7024392941
 20
7.4481618453
 30
0.0
 10
17.6818570159
 20
7.4308922463
 30
0.0
 10
17.6639186024
 20
7.4200836642
 30
0.0
 10
17.6511488131
 20
7.4135863482
 30
0.0
 11
17.7371736489
 21
7.5187198632
 31
0.0
 11
17.7357604426
 21
7.5041805112
 31
0.0
 11
17.7315353273
 21
7.4897781153
 31
0.0
 11
17.714834677
 21
7.4619241522
 31
0.0
 11
17.7025162768
 21
7.4487348194
 31
0.0
 11
17.6876994549
 21
7.4362047986
 31
0.0
 11
17.6511488131
 21
7.4135863482
 31
0.0
  0
SPLINE
  5
439
100
AcDbEntity
  8
ASSI
100
AcDbSpline
 62
7
  6
CONTINUOUS
 70
0
 71
3
 72
13
 73
9
 74
7
 42
0.0000001
 43
0.0000001
 44
0.0000000001
 12
-0.0000027133
 22
-0.1425291075
 32
0.0
 13
-0.1270314313
 23
-0.0646340618
 33
0.0
 40
0.0
 40
0.0
 40
0.0
 40
0.0
 40
0.1024904437
 40
0.2077977095
 40
0.4356598786
 40
0.5622810427
 40
0.6984260697
 40
1.0
 40
1.0
 40
1.0
 40
1.0
 10
17.7371736489
 20
11.8488468821
 30
0.0
 10
17.7371735562
 20
11.8439775917
 30
0.0
 10
17.7361974131
 20
11.8340790292
 30
0.0
 10
17.7302708913
 20
11.8141390004
 30
0.0
 10
17.7184527129
 20
11.7952609218
 30
0.0
 10
17.7024392941
 20
11.7782888642
 30
0.0
 10
17.6818570159
 20
11.7610192652
 30
0.0
 10
17.6639186024
 20
11.7502106831
 30
0.0
 10
17.6511488131
 20
11.7437133671
 30
0.0
 11
17.7371736489
 21
11.8488468821
 31
0.0
 11
17.7357604426
 21
11.8343075301
 31
0.0
 11
17.7315353273
 21
11.8199051343
 31
0.0
 11
17.714834677
 21
11.7920511711
 31
0.0
 11
17.7025162768
 21
11.7788618384
 31
0.0
 11
17.6876994549
 21
11.7663318175
 31
0.0
 11
17.6511488131
 21
11.7437133671
 31
0.0
  0
SPLINE
  5
43A
100
AcDbEntity
  8
ASSI
100
AcDbSpline
 62
7
  6
CONTINUOUS
 70
0
 71
3
 72
15
 73
11
 74
9
 42
0.0000001
 43
0.0000001
 44
0.0000000001
 12
-0.0000021724
 22
-0.4687398473
 32
0.0
 13
-0.4162539982
 23
-0.2155218167
 33
0.0
 40
0.0
 40
0.0
 40
0.0
 40
0.0
 40
0.1027077972
 40
0.2081767552
 40
0.3188663381
 40
0.4367343548
 40
0.5631677775
 40
0.6990102561
 40
0.844627764
 40
1.0
 40
1.0
 40
1.0
 40
1.0
 10
19.3716104449
 20
-5.9953032963
 30
0.0
 10
19.3716103705
 20
-6.011351042
 30
0.0
 10
19.3684363122
 20
-6.0439597683
 30
0.0
 10
19.3543111188
 20
-6.0920103243
 30
0.0
 10
19.3310416965
 20
-6.1389932636
 30
0.0
 10
19.2989457975
 20
-6.1844647079
 30
0.0
 10
19.2583805472
 20
-6.228062855
 30
0.0
 10
19.20974072
 20
-6.2694378268
 30
0.0
 10
19.1534781403
 20
-6.3082498037
 30
0.0
 10
19.1125084562
 20
-6.331468125
 30
0.0
 10
19.0909503514
 20
-6.3426301605
 30
0.0
 11
19.3716104449
 21
-5.9953032963
 31
0.0
 11
19.3670063056
 21
-6.0432258712
 31
0.0
 11
19.353237067
 21
-6.0907071812
 31
0.0
 11
19.3304294411
 21
-6.1373100331
 31
0.0
 11
19.2987934519
 21
-6.1826053351
 31
0.0
 11
19.2586205248
 21
-6.2261760024
 31
0.0
 11
19.2102802135
 21
-6.2676210534
 31
0.0
 11
19.1542188462
 21
-6.3065582345
 31
0.0
 11
19.0909503514
 21
-6.3426301605
 31
0.0
  0
SPLINE
  5
43B
100
AcDbEntity
  8
ASSI
100
AcDbSpline
 62
7
  6
CONTINUOUS
 70
0
 71
3
 72
15
 73
11
 74
9
 42
0.0000001
 43
0.0000001
 44
0.0000000001
 12
-0.0000021724
 22
-0.4687398473
 32
0.0
 13
-0.4162539982
 23
-0.2155218167
 33
0.0
 40
0.0
 40
0.0
 40
0.0
 40
0.0
 40
0.1027077972
 40
0.2081767552
 40
0.3188663381
 40
0.4367343548
 40
0.5631677775
 40
0.6990102561
 40
0.844627764
 40
1.0
 40
1.0
 40
1.0
 40
1.0
 10
19.3716104449
 20
-1.6651762773
 30
0.0
 10
19.3716103705
 20
-1.6812240231
 30
0.0
 10
19.3684363122
 20
-1.7138327494
 30
0.0
 10
19.3543111188
 20
-1.7618833054
 30
0.0
 10
19.3310416965
 20
-1.8088662447
 30
0.0
 10
19.2989457975
 20
-1.854337689
 30
0.0
 10
19.2583805472
 20
-1.8979358361
 30
0.0
 10
19.20974072
 20
-1.9393108078
 30
0.0
 10
19.1534781403
 20
-1.9781227848
 30
0.0
 10
19.1125084562
 20
-2.0013411061
 30
0.0
 10
19.0909503514
 20
-2.0125031416
 30
0.0
 11
19.3716104449
 21
-1.6651762773
 31
0.0
 11
19.3670063056
 21
-1.7130988522
 31
0.0
 11
19.353237067
 21
-1.7605801622
 31
0.0
 11
19.3304294411
 21
-1.8071830142
 31
0.0
 11
19.2987934519
 21
-1.8524783161
 31
0.0
 11
19.2586205248
 21
-1.8960489835
 31
0.0
 11
19.2102802135
 21
-1.9374940345
 31
0.0
 11
19.1542188462
 21
-1.9764312156
 31
0.0
 11
19.0909503514
 21
-2.0125031416
 31
0.0
  0
SPLINE
  5
43C
100
AcDbEntity
  8
ASSI
100
AcDbSpline
 62
7
  6
CONTINUOUS
 70
0
 71
3
 72
15
 73
11
 74
9
 42
0.0000001
 43
0.0000001
 44
0.0000000001
 12
-0.0000021724
 22
-0.4687398473
 32
0.0
 13
-0.4162539982
 23
-0.2155218167
 33
0.0
 40
0.0
 40
0.0
 40
0.0
 40
0.0
 40
0.1027077972
 40
0.2081767552
 40
0.3188663381
 40
0.4367343548
 40
0.5631677775
 40
0.6990102561
 40
0.844627764
 40
1.0
 40
1.0
 40
1.0
 40
1.0
 10
19.3716104449
 20
2.6649507416
 30
0.0
 10
19.3716103705
 20
2.6489029959
 30
0.0
 10
19.3684363122
 20
2.6162942695
 30
0.0
 10
19.3543111188
 20
2.5682437136
 30
0.0
 10
19.3310416965
 20
2.5212607742
 30
0.0
 10
19.2989457975
 20
2.47578933
 30
0.0
 10
19.2583805472
 20
2.4321911829
 30
0.0
 10
19.20974072
 20
2.3908162111
 30
0.0
 10
19.1534781403
 20
2.3520042341
 30
0.0
 10
19.1125084562
 20
2.3287859129
 30
0.0
 10
19.0909503514
 20
2.3176238773
 30
0.0
 11
19.3716104449
 21
2.6649507416
 31
0.0
 11
19.3670063056
 21
2.6170281667
 31
0.0
 11
19.353237067
 21
2.5695468567
 31
0.0
 11
19.3304294411
 21
2.5229440048
 31
0.0
 11
19.2987934519
 21
2.4776487028
 31
0.0
 11
19.2586205248
 21
2.4340780354
 31
0.0
 11
19.2102802135
 21
2.3926329845
 31
0.0
 11
19.1542188462
 21
2.3536958033
 31
0.0
 11
19.0909503514
 21
2.3176238773
 31
0.0
  0
SPLINE
  5
43D
100
AcDbEntity
  8
ASSI
100
AcDbSpline
 62
7
  6
CONTINUOUS
 70
0
 71
3
 72
15
 73
11
 74
9
 42
0.0000001
 43
0.0000001
 44
0.0000000001
 12
-0.0000021724
 22
-0.4687398473
 32
0.0
 13
-0.4162539982
 23
-0.2155218167
 33
0.0
 40
0.0
 40
0.0
 40
0.0
 40
0.0
 40
0.1027077972
 40
0.2081767552
 40
0.3188663381
 40
0.4367343548
 40
0.5631677775
 40
0.6990102561
 40
0.844627764
 40
1.0
 40
1.0
 40
1.0
 40
1.0
 10
19.3716104449
 20
6.9950777605
 30
0.0
 10
19.3716103705
 20
6.9790300148
 30
0.0
 10
19.3684363122
 20
6.9464212885
 30
0.0
 10
19.3543111188
 20
6.8983707325
 30
0.0
 10
19.3310416965
 20
6.8513877931
 30
0.0
 10
19.2989457975
 20
6.8059163489
 30
0.0
 10
19.2583805472
 20
6.7623182018
 30
0.0
 10
19.20974072
 20
6.72094323
 30
0.0
 10
19.1534781403
 20
6.6821312531
 30
0.0
 10
19.1125084562
 20
6.6589129318
 30
0.0
 10
19.0909503514
 20
6.6477508963
 30
0.0
 11
19.3716104449
 21
6.9950777605
 31
0.0
 11
19.3670063056
 21
6.9471551856
 31
0.0
 11
19.353237067
 21
6.8996738756
 31
0.0
 11
19.3304294411
 21
6.8530710237
 31
0.0
 11
19.2987934519
 21
6.8077757217
 31
0.0
 11
19.2586205248
 21
6.7642050544
 31
0.0
 11
19.2102802135
 21
6.7227600034
 31
0.0
 11
19.1542188462
 21
6.6838228222
 31
0.0
 11
19.0909503514
 21
6.6477508963
 31
0.0
  0
SPLINE
  5
43E
100
AcDbEntity
  8
ASSI
100
AcDbSpline
 62
7
  6
CONTINUOUS
 70
0
 71
3
 72
15
 73
11
 74
9
 42
0.0000001
 43
0.0000001
 44
0.0000000001
 12
-0.0000021724
 22
-0.4687398473
 32
0.0
 13
-0.4162539982
 23
-0.2155218167
 33
0.0
 40
0.0
 40
0.0
 40
0.0
 40
0.0
 40
0.1027077972
 40
0.2081767552
 40
0.3188663381
 40
0.4367343548
 40
0.5631677775
 40
0.6990102561
 40
0.844627764
 40
1.0
 40
1.0
 40
1.0
 40
1.0
 10
19.3716104449
 20
11.3252047794
 30
0.0
 10
19.3716103705
 20
11.3091570337
 30
0.0
 10
19.3684363122
 20
11.2765483074
 30
0.0
 10
19.3543111188
 20
11.2284977514
 30
0.0
 10
19.3310416965
 20
11.1815148121
 30
0.0
 10
19.2989457975
 20
11.1360433678
 30
0.0
 10
19.2583805472
 20
11.0924452207
 30
0.0
 10
19.20974072
 20
11.0510702489
 30
0.0
 10
19.1534781403
 20
11.012258272
 30
0.0
 10
19.1125084562
 20
10.9890399507
 30
0.0
 10
19.0909503514
 20
10.9778779152
 30
0.0
 11
19.3716104449
 21
11.3252047794
 31
0.0
 11
19.3670063056
 21
11.2772822045
 31
0.0
 11
19.353237067
 21
11.2298008945
 31
0.0
 11
19.3304294411
 21
11.1831980426
 31
0.0
 11
19.2987934519
 21
11.1379027406
 31
0.0
 11
19.2586205248
 21
11.0943320733
 31
0.0
 11
19.2102802135
 21
11.0528870223
 31
0.0
 11
19.1542188462
 21
11.0139498411
 31
0.0
 11
19.0909503514
 21
10.9778779152
 31
0.0
  0
SPLINE
  5
43F
100
AcDbEntity
  8
ASSI
100
AcDbSpline
 62
7
  6
CONTINUOUS
 70
0
 71
3
 72
15
 73
11
 74
9
 42
0.0000001
 43
0.0000001
 44
0.0000000001
 12
-0.0000021724
 22
-0.4687398473
 32
0.0
 13
-0.4162539982
 23
-0.2155218167
 33
0.0
 40
0.0
 40
0.0
 40
0.0
 40
0.0
 40
0.1027077972
 40
0.2081767552
 40
0.3188663381
 40
0.4367343548
 40
0.5631677775
 40
0.6990102561
 40
0.844627764
 40
1.0
 40
1.0
 40
1.0
 40
1.0
 10
19.3716104449
 20
15.6553317983
 30
0.0
 10
19.3716103705
 20
15.6392840526
 30
0.0
 10
19.3684363122
 20
15.6066753263
 30
0.0
 10
19.3543111188
 20
15.5586247703
 30
0.0
 10
19.3310416965
 20
15.511641831
 30
0.0
 10
19.2989457975
 20
15.4661703867
 30
0.0
 10
19.2583805472
 20
15.4225722396
 30
0.0
 10
19.20974072
 20
15.3811972678
 30
0.0
 10
19.1534781403
 20
15.3423852909
 30
0.0
 10
19.1125084562
 20
15.3191669696
 30
0.0
 10
19.0909503514
 20
15.3080049341
 30
0.0
 11
19.3716104449
 21
15.6553317983
 31
0.0
 11
19.3670063056
 21
15.6074092234
 31
0.0
 11
19.353237067
 21
15.5599279135
 31
0.0
 11
19.3304294411
 21
15.5133250615
 31
0.0
 11
19.2987934519
 21
15.4680297596
 31
0.0
 11
19.2586205248
 21
15.4244590922
 31
0.0
 11
19.2102802135
 21
15.3830140412
 31
0.0
 11
19.1542188462
 21
15.3440768601
 31
0.0
 11
19.0909503514
 21
15.3080049341
 31
0.0
  0
SPLINE
  5
440
100
AcDbEntity
  8
ASSI
100
AcDbSpline
 62
7
  6
CONTINUOUS
 70
0
 71
3
 72
15
 73
11
 74
9
 42
0.0000001
 43
0.0000001
 44
0.0000000001
 12
0.4315161028
 22
-0.2157580514
 32
0.0
 13
-0.0000022359
 23
-0.4824496696
 33
0.0
 40
0.0
 40
0.0
 40
0.0
 40
0.0
 40
0.1560120636
 40
0.3021474201
 40
0.4383313505
 40
0.5648889357
 40
0.6826430938
 40
0.7929887037
 40
0.8979275553
 40
1.0
 40
1.0
 40
1.0
 40
1.0
 10
19.0787173322
 20
12.371580814
 30
0.0
 10
19.1011579048
 20
12.3603605278
 30
0.0
 10
19.1438215734
 20
12.3369690862
 30
0.0
 10
19.2024810753
 20
12.2976971092
 30
0.0
 10
19.2532405238
 20
12.2556944695
 30
0.0
 10
19.2956090901
 20
12.2113214061
 30
0.0
 10
19.3291582724
 20
12.1649483826
 30
0.0
 10
19.3534999319
 20
12.1169573022
 30
0.0
 10
19.3682863074
 20
12.067818267
 30
0.0
 10
19.371610521
 20
12.0344400415
 30
0.0
 10
19.3716104449
 20
12.0180251024
 30
0.0
 11
19.0787173322
 21
12.371580814
 31
0.0
 11
19.1446219234
 21
12.3352235322
 31
0.0
 11
19.2030805214
 21
12.2958121264
 31
0.0
 11
19.2535325836
 21
12.2537249779
 31
0.0
 11
19.2954909242
 21
12.2093680603
 31
0.0
 11
19.3285517285
 21
12.1631683745
 31
0.0
 11
19.3523964614
 21
12.1155708743
 31
0.0
 11
19.3667955675
 21
12.0670339688
 31
0.0
 11
19.3716104449
 21
12.0180251024
 31
0.0
  0
SPLINE
  5
441
100
AcDbEntity
  8
ASSI
100
AcDbSpline
 62
7
  6
CONTINUOUS
 70
0
 71
3
 72
15
 73
11
 74
9
 42
0.0000001
 43
0.0000001
 44
0.0000000001
 12
0.4315161028
 22
-0.2157580514
 32
0.0
 13
-0.0000022359
 23
-0.4824496696
 33
0.0
 40
0.0
 40
0.0
 40
0.0
 40
0.0
 40
0.1560120636
 40
0.3021474201
 40
0.4383313505
 40
0.5648889357
 40
0.6826430938
 40
0.7929887037
 40
0.8979275553
 40
1.0
 40
1.0
 40
1.0
 40
1.0
 10
19.0787173322
 20
8.0414537951
 30
0.0
 10
19.1011579048
 20
8.0302335088
 30
0.0
 10
19.1438215734
 20
8.0068420673
 30
0.0
 10
19.2024810753
 20
7.9675700903
 30
0.0
 10
19.2532405238
 20
7.9255674506
 30
0.0
 10
19.2956090901
 20
7.8811943872
 30
0.0
 10
19.3291582724
 20
7.8348213637
 30
0.0
 10
19.3534999319
 20
7.7868302833
 30
0.0
 10
19.3682863074
 20
7.7376912481
 30
0.0
 10
19.371610521
 20
7.7043130226
 30
0.0
 10
19.3716104449
 20
7.6878980835
 30
0.0
 11
19.0787173322
 21
8.0414537951
 31
0.0
 11
19.1446219234
 21
8.0050965133
 31
0.0
 11
19.2030805214
 21
7.9656851075
 31
0.0
 11
19.2535325836
 21
7.923597959
 31
0.0
 11
19.2954909242
 21
7.8792410414
 31
0.0
 11
19.3285517285
 21
7.8330413556
 31
0.0
 11
19.3523964614
 21
7.7854438554
 31
0.0
 11
19.3667955675
 21
7.7369069499
 31
0.0
 11
19.3716104449
 21
7.6878980835
 31
0.0
  0
SPLINE
  5
442
100
AcDbEntity
  8
ASSI
100
AcDbSpline
 62
7
  6
CONTINUOUS
 70
0
 71
3
 72
15
 73
11
 74
9
 42
0.0000001
 43
0.0000001
 44
0.0000000001
 12
0.4315161028
 22
-0.2157580514
 32
0.0
 13
-0.0000022359
 23
-0.4824496696
 33
0.0
 40
0.0
 40
0.0
 40
0.0
 40
0.0
 40
0.1560120636
 40
0.3021474201
 40
0.4383313505
 40
0.5648889357
 40
0.6826430938
 40
0.7929887037
 40
0.8979275553
 40
1.0
 40
1.0
 40
1.0
 40
1.0
 10
19.0787173322
 20
3.7113267762
 30
0.0
 10
19.1011579048
 20
3.7001064899
 30
0.0
 10
19.1438215734
 20
3.6767150484
 30
0.0
 10
19.2024810753
 20
3.6374430713
 30
0.0
 10
19.2532405238
 20
3.5954404317
 30
0.0
 10
19.2956090901
 20
3.5510673683
 30
0.0
 10
19.3291582724
 20
3.5046943448
 30
0.0
 10
19.3534999319
 20
3.4567032643
 30
0.0
 10
19.3682863074
 20
3.4075642291
 30
0.0
 10
19.371610521
 20
3.3741860037
 30
0.0
 10
19.3716104449
 20
3.3577710646
 30
0.0
 11
19.0787173322
 21
3.7113267762
 31
0.0
 11
19.1446219234
 21
3.6749694944
 31
0.0
 11
19.2030805214
 21
3.6355580886
 31
0.0
 11
19.2535325836
 21
3.59347094
 31
0.0
 11
19.2954909242
 21
3.5491140225
 31
0.0
 11
19.3285517285
 21
3.5029143366
 31
0.0
 11
19.3523964614
 21
3.4553168364
 31
0.0
 11
19.3667955675
 21
3.406779931
 31
0.0
 11
19.3716104449
 21
3.3577710646
 31
0.0
  0
SPLINE
  5
443
100
AcDbEntity
  8
ASSI
100
AcDbSpline
 62
7
  6
CONTINUOUS
 70
0
 71
3
 72
15
 73
11
 74
9
 42
0.0000001
 43
0.0000001
 44
0.0000000001
 12
0.4315161028
 22
-0.2157580514
 32
0.0
 13
-0.0000022359
 23
-0.4824496696
 33
0.0
 40
0.0
 40
0.0
 40
0.0
 40
0.0
 40
0.1560120636
 40
0.3021474201
 40
0.4383313505
 40
0.5648889357
 40
0.6826430938
 40
0.7929887037
 40
0.8979275553
 40
1.0
 40
1.0
 40
1.0
 40
1.0
 10
19.0787173322
 20
-0.6188002427
 30
0.0
 10
19.1011579048
 20
-0.630020529
 30
0.0
 10
19.1438215734
 20
-0.6534119705
 30
0.0
 10
19.2024810753
 20
-0.6926839476
 30
0.0
 10
19.2532405238
 20
-0.7346865873
 30
0.0
 10
19.2956090901
 20
-0.7790596506
 30
0.0
 10
19.3291582724
 20
-0.8254326742
 30
0.0
 10
19.3534999319
 20
-0.8734237546
 30
0.0
 10
19.3682863074
 20
-0.9225627898
 30
0.0
 10
19.371610521
 20
-0.9559410152
 30
0.0
 10
19.3716104449
 20
-0.9723559543
 30
0.0
 11
19.0787173322
 21
-0.6188002427
 31
0.0
 11
19.1446219234
 21
-0.6551575246
 31
0.0
 11
19.2030805214
 21
-0.6945689304
 31
0.0
 11
19.2535325836
 21
-0.7366560789
 31
0.0
 11
19.2954909242
 21
-0.7810129964
 31
0.0
 11
19.3285517285
 21
-0.8272126823
 31
0.0
 11
19.3523964614
 21
-0.8748101825
 31
0.0
 11
19.3667955675
 21
-0.923347088
 31
0.0
 11
19.3716104449
 21
-0.9723559543
 31
0.0
  0
SPLINE
  5
444
100
AcDbEntity
  8
ASSI
100
AcDbSpline
 62
7
  6
CONTINUOUS
 70
0
 71
3
 72
15
 73
11
 74
9
 42
0.0000001
 43
0.0000001
 44
0.0000000001
 12
0.4315161028
 22
-0.2157580514
 32
0.0
 13
-0.0000022359
 23
-0.4824496696
 33
0.0
 40
0.0
 40
0.0
 40
0.0
 40
0.0
 40
0.1560120636
 40
0.3021474201
 40
0.4383313505
 40
0.5648889357
 40
0.6826430938
 40
0.7929887037
 40
0.8979275553
 40
1.0
 40
1.0
 40
1.0
 40
1.0
 10
19.0787173322
 20
-4.9489272616
 30
0.0
 10
19.1011579048
 20
-4.9601475479
 30
0.0
 10
19.1438215734
 20
-4.9835389894
 30
0.0
 10
19.2024810753
 20
-5.0228109665
 30
0.0
 10
19.2532405238
 20
-5.0648136062
 30
0.0
 10
19.2956090901
 20
-5.1091866696
 30
0.0
 10
19.3291582724
 20
-5.1555596931
 30
0.0
 10
19.3534999319
 20
-5.2035507735
 30
0.0
 10
19.3682863074
 20
-5.2526898087
 30
0.0
 10
19.371610521
 20
-5.2860680342
 30
0.0
 10
19.3716104449
 20
-5.3024829732
 30
0.0
 11
19.0787173322
 21
-4.9489272616
 31
0.0
 11
19.1446219234
 21
-4.9852845435
 31
0.0
 11
19.2030805214
 21
-5.0246959493
 31
0.0
 11
19.2535325836
 21
-5.0667830978
 31
0.0
 11
19.2954909242
 21
-5.1111400153
 31
0.0
 11
19.3285517285
 21
-5.1573397012
 31
0.0
 11
19.3523964614
 21
-5.2049372014
 31
0.0
 11
19.3667955675
 21
-5.2534741069
 31
0.0
 11
19.3716104449
 21
-5.3024829732
 31
0.0
  0
SPLINE
  5
445
100
AcDbEntity
  8
ASSI
100
AcDbSpline
 62
7
  6
CONTINUOUS
 70
0
 71
3
 72
15
 73
11
 74
9
 42
0.0000001
 43
0.0000001
 44
0.0000000001
 12
0.4315161028
 22
-0.2157580514
 32
0.0
 13
-0.0000022359
 23
-0.4824496696
 33
0.0
 40
0.0
 40
0.0
 40
0.0
 40
0.0
 40
0.1560120636
 40
0.3021474201
 40
0.4383313505
 40
0.5648889357
 40
0.6826430938
 40
0.7929887037
 40
0.8979275553
 40
1.0
 40
1.0
 40
1.0
 40
1.0
 10
19.0787173322
 20
-9.2790542806
 30
0.0
 10
19.1011579048
 20
-9.2902745668
 30
0.0
 10
19.1438215734
 20
-9.3136660084
 30
0.0
 10
19.2024810753
 20
-9.3529379854
 30
0.0
 10
19.2532405238
 20
-9.3949406251
 30
0.0
 10
19.2956090901
 20
-9.4393136885
 30
0.0
 10
19.3291582724
 20
-9.485686712
 30
0.0
 10
19.3534999319
 20
-9.5336777924
 30
0.0
 10
19.3682863074
 20
-9.5828168276
 30
0.0
 10
19.371610521
 20
-9.6161950531
 30
0.0
 10
19.3716104449
 20
-9.6326099922
 30
0.0
 11
19.0787173322
 21
-9.2790542806
 31
0.0
 11
19.1446219234
 21
-9.3154115624
 31
0.0
 11
19.2030805214
 21
-9.3548229682
 31
0.0
 11
19.2535325836
 21
-9.3969101167
 31
0.0
 11
19.2954909242
 21
-9.4412670343
 31
0.0
 11
19.3285517285
 21
-9.4874667201
 31
0.0
 11
19.3523964614
 21
-9.5350642203
 31
0.0
 11
19.3667955675
 21
-9.5836011258
 31
0.0
 11
19.3716104449
 21
-9.6326099922
 31
0.0
  0
SPLINE
  5
446
100
AcDbEntity
  8
ASSI
100
AcDbSpline
 62
7
  6
CONTINUOUS
 70
0
 71
3
 72
15
 73
11
 74
9
 42
0.0000001
 43
0.0000001
 44
0.0000000001
 12
-0.0000021724
 22
-0.4687398473
 32
0.0
 13
-0.4162539982
 23
-0.2155218167
 33
0.0
 40
0.0
 40
0.0
 40
0.0
 40
0.0
 40
0.1027077972
 40
0.2081767552
 40
0.3188663381
 40
0.4367343548
 40
0.5631677775
 40
0.6990102561
 40
0.844627764
 40
1.0
 40
1.0
 40
1.0
 40
1.0
 10
19.3716104449
 20
-5.3024829732
 30
0.0
 10
19.3716103705
 20
-5.318530719
 30
0.0
 10
19.3684363122
 20
-5.3511394453
 30
0.0
 10
19.3543111188
 20
-5.3991900013
 30
0.0
 10
19.3310416965
 20
-5.4461729406
 30
0.0
 10
19.2989457975
 20
-5.4916443849
 30
0.0
 10
19.2583805472
 20
-5.535242532
 30
0.0
 10
19.20974072
 20
-5.5766175037
 30
0.0
 10
19.1534781403
 20
-5.6154294807
 30
0.0
 10
19.1125084562
 20
-5.6386478019
 30
0.0
 10
19.0909503514
 20
-5.6498098375
 30
0.0
 11
19.3716104449
 21
-5.3024829732
 31
0.0
 11
19.3670063056
 21
-5.3504055481
 31
0.0
 11
19.353237067
 21
-5.3978868581
 31
0.0
 11
19.3304294411
 21
-5.4444897101
 31
0.0
 11
19.2987934519
 21
-5.489785012
 31
0.0
 11
19.2586205248
 21
-5.5333556794
 31
0.0
 11
19.2102802135
 21
-5.5748007304
 31
0.0
 11
19.1542188462
 21
-5.6137379115
 31
0.0
 11
19.0909503514
 21
-5.6498098375
 31
0.0
  0
SPLINE
  5
447
100
AcDbEntity
  8
ASSI
100
AcDbSpline
 62
7
  6
CONTINUOUS
 70
0
 71
3
 72
15
 73
11
 74
9
 42
0.0000001
 43
0.0000001
 44
0.0000000001
 12
-0.0000021724
 22
-0.4687398473
 32
0.0
 13
-0.4162539982
 23
-0.2155218167
 33
0.0
 40
0.0
 40
0.0
 40
0.0
 40
0.0
 40
0.1027077972
 40
0.2081767552
 40
0.3188663381
 40
0.4367343548
 40
0.5631677775
 40
0.6990102561
 40
0.844627764
 40
1.0
 40
1.0
 40
1.0
 40
1.0
 10
19.3716104449
 20
-0.9723559543
 30
0.0
 10
19.3716103705
 20
-0.9884037
 30
0.0
 10
19.3684363122
 20
-1.0210124263
 30
0.0
 10
19.3543111188
 20
-1.0690629823
 30
0.0
 10
19.3310416965
 20
-1.1160459217
 30
0.0
 10
19.2989457975
 20
-1.1615173659
 30
0.0
 10
19.2583805472
 20
-1.205115513
 30
0.0
 10
19.20974072
 20
-1.2464904848
 30
0.0
 10
19.1534781403
 20
-1.2853024618
 30
0.0
 10
19.1125084562
 20
-1.308520783
 30
0.0
 10
19.0909503514
 20
-1.3196828185
 30
0.0
 11
19.3716104449
 21
-0.9723559543
 31
0.0
 11
19.3670063056
 21
-1.0202785292
 31
0.0
 11
19.353237067
 21
-1.0677598392
 31
0.0
 11
19.3304294411
 21
-1.1143626911
 31
0.0
 11
19.2987934519
 21
-1.1596579931
 31
0.0
 11
19.2586205248
 21
-1.2032286605
 31
0.0
 11
19.2102802135
 21
-1.2446737114
 31
0.0
 11
19.1542188462
 21
-1.2836108926
 31
0.0
 11
19.0909503514
 21
-1.3196828185
 31
0.0
  0
SPLINE
  5
448
100
AcDbEntity
  8
RACCORDO
100
AcDbSpline
 62
253
  6
CONTINUOUS
 70
0
 71
3
 72
11
 73
7
 74
5
 42
0.0000001
 43
0.0000001
 44
0.0000000001
 12
0.2032261373
 22
0.0938534834
 32
0.0
 13
0.1988173575
 23
-0.1028639761
 33
0.0
 40
0.0
 40
0.0
 40
0.0
 40
0.0
 40
0.2278649787
 40
0.4657800962
 40
0.7216148493
 40
1.0
 40
1.0
 40
1.0
 40
1.0
 10
-2.4501418777
 20
21.6493354566
 30
0.0
 10
-2.4347058379
 20
21.6564640972
 30
0.0
 10
-2.4009561425
 20
21.6666774054
 30
0.0
 10
-2.3465997867
 20
21.6682445415
 30
0.0
 10
-2.2897435601
 20
21.6565567353
 30
0.0
 10
-2.2527813423
 20
21.6409839753
 30
0.0
 10
-2.2343320756
 20
21.6314387075
 30
0.0
 11
-2.4501418777
 21
21.6493354566
 31
0.0
 11
-2.4013647007
 21
21.6642547926
 31
0.0
 11
-2.3481434474
 21
21.6662213512
 31
0.0
 11
-2.291948767
 21
21.6551811818
 31
0.0
 11
-2.2343320756
 21
21.6314387075
 31
0.0
  0
SPLINE
  5
449
100
AcDbEntity
  8
ASSI
100
AcDbSpline
 62
7
  6
CONTINUOUS
 70
0
 71
3
 72
15
 73
11
 74
9
 42
0.0000001
 43
0.0000001
 44
0.0000000001
 12
-0.0000021724
 22
-0.4687398473
 32
0.0
 13
-0.4162539982
 23
-0.2155218167
 33
0.0
 40
0.0
 40
0.0
 40
0.0
 40
0.0
 40
0.1027077972
 40
0.2081767552
 40
0.3188663381
 40
0.4367343548
 40
0.5631677775
 40
0.6990102561
 40
0.844627764
 40
1.0
 40
1.0
 40
1.0
 40
1.0
 10
19.3716104449
 20
3.3577710646
 30
0.0
 10
19.3716103705
 20
3.3417233189
 30
0.0
 10
19.3684363122
 20
3.3091145926
 30
0.0
 10
19.3543111188
 20
3.2610640366
 30
0.0
 10
19.3310416965
 20
3.2140810972
 30
0.0
 10
19.2989457975
 20
3.168609653
 30
0.0
 10
19.2583805472
 20
3.1250115059
 30
0.0
 10
19.20974072
 20
3.0836365341
 30
0.0
 10
19.1534781403
 20
3.0448245572
 30
0.0
 10
19.1125084562
 20
3.0216062359
 30
0.0
 10
19.0909503514
 20
3.0104442004
 30
0.0
 11
19.3716104449
 21
3.3577710646
 31
0.0
 11
19.3670063056
 21
3.3098484897
 31
0.0
 11
19.353237067
 21
3.2623671797
 31
0.0
 11
19.3304294411
 21
3.2157643278
 31
0.0
 11
19.2987934519
 21
3.1704690258
 31
0.0
 11
19.2586205248
 21
3.1268983585
 31
0.0
 11
19.2102802135
 21
3.0854533075
 31
0.0
 11
19.1542188462
 21
3.0465161263
 31
0.0
 11
19.0909503514
 21
3.0104442004
 31
0.0
  0
SPLINE
  5
44A
100
AcDbEntity
  8
ASSI
100
AcDbSpline
 62
7
  6
CONTINUOUS
 70
0
 71
3
 72
15
 73
11
 74
9
 42
0.0000001
 43
0.0000001
 44
0.0000000001
 12
-0.0000021724
 22
-0.4687398473
 32
0.0
 13
-0.4162539982
 23
-0.2155218167
 33
0.0
 40
0.0
 40
0.0
 40
0.0
 40
0.0
 40
0.1027077972
 40
0.2081767552
 40
0.3188663381
 40
0.4367343548
 40
0.5631677775
 40
0.6990102561
 40
0.844627764
 40
1.0
 40
1.0
 40
1.0
 40
1.0
 10
19.3716104449
 20
7.6878980835
 30
0.0
 10
19.3716103705
 20
7.6718503378
 30
0.0
 10
19.3684363122
 20
7.6392416115
 30
0.0
 10
19.3543111188
 20
7.5911910555
 30
0.0
 10
19.3310416965
 20
7.5442081162
 30
0.0
 10
19.2989457975
 20
7.4987366719
 30
0.0
 10
19.2583805472
 20
7.4551385248
 30
0.0
 10
19.20974072
 20
7.413763553
 30
0.0
 10
19.1534781403
 20
7.3749515761
 30
0.0
 10
19.1125084562
 20
7.3517332548
 30
0.0
 10
19.0909503514
 20
7.3405712193
 30
0.0
 11
19.3716104449
 21
7.6878980835
 31
0.0
 11
19.3670063056
 21
7.6399755086
 31
0.0
 11
19.353237067
 21
7.5924941986
 31
0.0
 11
19.3304294411
 21
7.5458913467
 31
0.0
 11
19.2987934519
 21
7.5005960447
 31
0.0
 11
19.2586205248
 21
7.4570253774
 31
0.0
 11
19.2102802135
 21
7.4155803264
 31
0.0
 11
19.1542188462
 21
7.3766431453
 31
0.0
 11
19.0909503514
 21
7.3405712193
 31
0.0
  0
SPLINE
  5
44B
100
AcDbEntity
  8
ASSI
100
AcDbSpline
 62
7
  6
CONTINUOUS
 70
0
 71
3
 72
15
 73
11
 74
9
 42
0.0000001
 43
0.0000001
 44
0.0000000001
 12
-0.0000021724
 22
-0.4687398473
 32
0.0
 13
-0.4162539982
 23
-0.2155218167
 33
0.0
 40
0.0
 40
0.0
 40
0.0
 40
0.0
 40
0.1027077972
 40
0.2081767552
 40
0.3188663381
 40
0.4367343548
 40
0.5631677775
 40
0.6990102561
 40
0.844627764
 40
1.0
 40
1.0
 40
1.0
 40
1.0
 10
19.3716104449
 20
12.0180251024
 30
0.0
 10
19.3716103705
 20
12.0019773567
 30
0.0
 10
19.3684363122
 20
11.9693686304
 30
0.0
 10
19.3543111188
 20
11.9213180744
 30
0.0
 10
19.3310416965
 20
11.8743351351
 30
0.0
 10
19.2989457975
 20
11.8288636908
 30
0.0
 10
19.2583805472
 20
11.7852655437
 30
0.0
 10
19.20974072
 20
11.743890572
 30
0.0
 10
19.1534781403
 20
11.705078595
 30
0.0
 10
19.1125084562
 20
11.6818602737
 30
0.0
 10
19.0909503514
 20
11.6706982382
 30
0.0
 11
19.3716104449
 21
12.0180251024
 31
0.0
 11
19.3670063056
 21
11.9701025275
 31
0.0
 11
19.353237067
 21
11.9226212176
 31
0.0
 11
19.3304294411
 21
11.8760183656
 31
0.0
 11
19.2987934519
 21
11.8307230637
 31
0.0
 11
19.2586205248
 21
11.7871523963
 31
0.0
 11
19.2102802135
 21
11.7457073453
 31
0.0
 11
19.1542188462
 21
11.7067701642
 31
0.0
 11
19.0909503514
 21
11.6706982382
 31
0.0
  0
SPLINE
  5
44C
100
AcDbEntity
  8
RACCORDO
100
AcDbSpline
 62
253
  6
CONTINUOUS
 70
0
 71
3
 72
22
 73
18
 74
16
 42
0.0000001
 43
0.0000001
 44
0.0000000001
 12
-0.1918313407
 22
0.3308269857
 32
0.0
 13
-0.3424315025
 23
-0.1702539979
 33
0.0
 40
0.0
 40
0.0
 40
0.0
 40
0.0
 40
0.0058783962
 40
0.0124164818
 40
0.0201045026
 40
0.0292470137
 40
0.052511649
 40
0.0829611472
 40
0.1208327051
 40
0.1661775681
 40
0.2189529458
 40
0.2790564
 40
0.3463420954
 40
0.4206307423
 40
0.5893517344
 40
0.7832485364
 40
1.0
 40
1.0
 40
1.0
 40
1.0
 10
19.0296430993
 20
21.5576035609
 30
0.0
 10
19.0292672124
 20
21.5582518049
 30
0.0
 10
19.0282118702
 20
21.5594805467
 30
0.0
 10
19.0259865761
 20
21.5608126473
 30
0.0
 10
19.0231300186
 20
21.561720742
 30
0.0
 10
19.0180563376
 20
21.5624548987
 30
0.0
 10
19.0100006491
 20
21.56216657
 30
0.0
 10
18.9984565713
 20
21.5603732019
 30
0.0
 10
18.9843399717
 20
21.5570525908
 30
0.0
 10
18.9676905316
 20
21.5522090701
 30
0.0
 10
18.9485482789
 20
21.5458421176
 30
0.0
 10
18.9269720724
 20
21.5379667463
 30
0.0
 10
18.9030271698
 20
21.5286036095
 30
0.0
 10
18.8664611789
 20
21.5135163699
 30
0.0
 10
18.8154887723
 20
21.4910558981
 30
0.0
 10
18.7485742915
 20
21.4597912059
 30
0.0
 10
18.7015407188
 20
21.43680612
 30
0.0
 10
18.6767998757
 20
21.4245051856
 30
0.0
 11
19.0296430993
 21
21.5576035609
 31
0.0
 11
19.0281964414
 21
21.5593242533
 31
0.0
 11
19.0260791447
 21
21.5606541248
 31
0.0
 11
19.0232927066
 21
21.5615920561
 31
0.0
 11
19.0198391897
 21
21.5621372598
 31
0.0
 11
19.0109427499
 21
21.5620484402
 31
0.0
 11
18.9994172439
 21
21.5603878152
 31
0.0
 11
18.9852985133
 21
21.5571605658
 31
0.0
 11
18.9686305811
 21
21.5523768208
 31
0.0
 11
18.9494650441
 21
21.5460513328
 31
0.0
 11
18.9278614095
 21
21.5382037322
 31
0.0
 11
18.9038869516
 21
21.5288585055
 31
0.0
 11
18.8776160315
 21
21.5180446121
 31
0.0
 11
18.8185178964
 21
21.4921495306
 31
0.0
 11
18.7513018322
 21
21.4608405572
 31
0.0
 11
18.6767998757
 21
21.4245051856
 31
0.0
  0
SPLINE
  5
44D
100
AcDbEntity
  8
RACCORDO
100
AcDbSpline
 62
253
  6
CONTINUOUS
 70
0
 71
3
 72
15
 73
11
 74
9
 42
0.0000001
 43
0.0000001
 44
0.0000000001
 12
-0.0000002694
 22
-0.468740859
 32
0.0
 13
-0.4162548966
 23
-0.2155222819
 33
0.0
 40
0.0
 40
0.0
 40
0.0
 40
0.0
 40
0.1027078189
 40
0.2081767581
 40
0.318866303
 40
0.436734282
 40
0.5631676818
 40
0.6990101622
 40
0.8446277016
 40
1.0
 40
1.0
 40
1.0
 40
1.0
 10
19.3716104449
 20
20.3401994904
 30
0.0
 10
19.3716104357
 20
20.3241517067
 30
0.0
 10
19.3684364951
 20
20.2915428959
 30
0.0
 10
19.3543114219
 20
20.2434921953
 30
0.0
 10
19.3310420664
 20
20.1965091108
 30
0.0
 10
19.2989461832
 20
20.1510375254
 30
0.0
 10
19.2583809002
 20
20.107439244
 30
0.0
 10
19.2097409949
 20
20.0660641475
 30
0.0
 10
19.1534782948
 20
20.0272520578
 30
0.0
 10
19.1125085114
 20
20.0040336751
 30
0.0
 10
19.0909503514
 20
19.992871611
 30
0.0
 11
19.3716104449
 21
20.3401994904
 31
0.0
 11
19.3670064759
 21
20.2922767845
 31
0.0
 11
19.3532373575
 21
20.2447953378
 31
0.0
 11
19.3304298015
 21
20.1981923468
 31
0.0
 11
19.2987938322
 21
20.1528969071
 31
0.0
 11
19.2586208764
 21
20.1093261068
 31
0.0
 11
19.2102804899
 21
20.067880931
 31
0.0
 11
19.1542190042
 21
20.0289436363
 31
0.0
 11
19.0909503514
 21
19.992871611
 31
0.0
  0
SPLINE
  5
44E
100
AcDbEntity
  8
RACCORDO
100
AcDbSpline
 62
253
  6
CONTINUOUS
 70
0
 71
3
 72
22
 73
18
 74
16
 42
0.0000001
 43
0.0000001
 44
0.0000000001
 12
-0.1918547233
 22
0.3308129102
 32
0.0
 13
-0.3424311029
 23
-0.1702537994
 33
0.0
 40
0.0
 40
0.0
 40
0.0
 40
0.0
 40
0.0058784355
 40
0.0124166693
 40
0.0201048993
 40
0.0292476455
 40
0.0525127569
 40
0.0829626808
 40
0.1208345882
 40
0.1661797142
 40
0.2189552641
 40
0.279058799
 40
0.3463444838
 40
0.4206330306
 40
0.5893535652
 40
0.7832495921
 40
1.0
 40
1.0
 40
1.0
 40
1.0
 10
18.9039427096
 20
21.7744046632
 30
0.0
 10
18.9035667744
 20
21.775052884
 30
0.0
 10
18.9025113313
 20
21.7762815657
 30
0.0
 10
18.9002859288
 20
21.7776135702
 30
0.0
 10
18.8974292722
 20
21.7785215831
 30
0.0
 10
18.8923554648
 20
21.7792556319
 30
0.0
 10
18.8842996494
 20
21.7789671951
 30
0.0
 10
18.8727554405
 20
21.7771737199
 30
0.0
 10
18.8586387443
 20
21.7738530197
 30
0.0
 10
18.8419892416
 20
21.7690094286
 30
0.0
 10
18.8228469615
 20
21.7626424254
 30
0.0
 10
18.8012707619
 20
21.7547670235
 30
0.0
 10
18.7773258999
 20
21.7454038761
 30
0.0
 10
18.740760029
 20
21.7303166567
 30
0.0
 10
18.6897878459
 20
21.7078562606
 30
0.0
 10
18.6228737129
 20
21.6765917168
 30
0.0
 10
18.5758404058
 20
21.6536067584
 30
0.0
 10
18.551099712
 20
21.6413058983
 30
0.0
 11
18.9039427096
 21
21.7744046632
 31
0.0
 11
18.9024959265
 21
21.7761252666
 31
0.0
 11
18.9003785134
 21
21.7774550538
 31
0.0
 11
18.8975919677
 21
21.7783929055
 31
0.0
 11
18.8941383521
 21
21.7789380346
 31
0.0
 11
18.885241742
 21
21.7788490806
 31
0.0
 11
18.8737161017
 21
21.7771883414
 31
0.0
 11
18.8595972727
 21
21.7739609983
 31
0.0
 11
18.8429292779
 21
21.7691771802
 31
0.0
 11
18.8237637136
 21
21.7628516398
 31
0.0
 11
18.8021600863
 21
21.7550040075
 31
0.0
 11
18.7781856694
 21
21.7456587694
 31
0.0
 11
18.7519148229
 21
21.7348448847
 31
0.0
 11
18.6928169279
 21
21.7089498788
 31
0.0
 11
18.6256012169
 21
21.6776410543
 31
0.0
 11
18.551099712
 21
21.6413058983
 31
0.0
  0
SPLINE
  5
44F
100
AcDbEntity
  8
RACCORDO
100
AcDbSpline
 62
253
  6
CONTINUOUS
 70
0
 71
3
 72
13
 73
9
 74
7
 42
0.0000001
 43
0.0000001
 44
0.0000000001
 12
-0.4029948776
 22
0.2015008827
 32
0.0
 13
-0.4064116181
 23
-0.194517541
 33
0.0
 40
0.0
 40
0.0
 40
0.0
 40
0.0
 40
0.1134934583
 40
0.2282840573
 40
0.3455908828
 40
0.4664899684
 40
0.7220461045
 40
1.0
 40
1.0
 40
1.0
 40
1.0
 10
18.4860487298
 20
22.1672454564
 30
0.0
 10
18.470802969
 20
22.1748684671
 30
0.0
 10
18.4390449661
 20
22.18811781
 30
0.0
 10
18.3887442236
 20
22.2014952126
 30
0.0
 10
18.3360241347
 20
22.2083480039
 30
0.0
 10
18.2617034046
 20
22.2087527426
 30
0.0
 10
18.164044837
 20
22.1918763575
 30
0.0
 10
18.0888304286
 20
22.1629044603
 30
0.0
 10
18.0511758645
 20
22.1448821576
 30
0.0
 11
18.4860487298
 21
22.1672454564
 31
0.0
 11
18.4388623966
 21
22.1869518406
 31
0.0
 11
18.3888947113
 21
22.2003023431
 31
0.0
 11
18.3364930986
 21
22.2072041411
 31
0.0
 11
18.2820218885
 21
22.2076092404
 31
0.0
 11
18.1683973723
 21
22.1889632699
 31
0.0
 11
18.0511758645
 21
22.1448821576
 31
0.0
  0
SPLINE
  5
450
100
AcDbEntity
  8
RACCORDO
100
AcDbSpline
 62
253
  6
CONTINUOUS
 70
0
 71
3
 72
13
 73
9
 74
7
 42
0.0000001
 43
0.0000001
 44
0.0000000001
 12
-0.4029948776
 22
0.2015008827
 32
0.0
 13
-0.4064116181
 23
-0.194517541
 33
0.0
 40
0.0
 40
0.0
 40
0.0
 40
0.0
 40
0.1134934583
 40
0.2282840573
 40
0.3455908828
 40
0.4664899684
 40
0.7220461045
 40
1.0
 40
1.0
 40
1.0
 40
1.0
 10
5.3504955451
 20
28.7350220488
 30
0.0
 10
5.3352497844
 20
28.7426450594
 30
0.0
 10
5.3034917814
 20
28.7558944024
 30
0.0
 10
5.2531910389
 20
28.769271805
 30
0.0
 10
5.20047095
 20
28.7761245962
 30
0.0
 10
5.1261502199
 20
28.7765293349
 30
0.0
 10
5.0284916523
 20
28.7596529498
 30
0.0
 10
4.9532772439
 20
28.7306810527
 30
0.0
 10
4.9156226798
 20
28.7126587499
 30
0.0
 11
5.3504955451
 21
28.7350220488
 31
0.0
 11
5.3033092119
 21
28.7547284329
 31
0.0
 11
5.2533415266
 21
28.7680789354
 31
0.0
 11
5.2009399139
 21
28.7749807334
 31
0.0
 11
5.1464687038
 21
28.7753858327
 31
0.0
 11
5.0328441877
 21
28.7567398623
 31
0.0
 11
4.9156226798
 21
28.7126587499
 31
0.0
  0
SPLINE
  5
451
100
AcDbEntity
  8
RACCORDO
100
AcDbSpline
 62
253
  6
CONTINUOUS
 70
0
 71
3
 72
13
 73
9
 74
7
 42
0.0000001
 43
0.0000001
 44
0.0000000001
 12
0.4076682391
 22
0.1792071276
 32
0.0
 13
0.3971666537
 23
-0.2014131004
 33
0.0
 40
0.0
 40
0.0
 40
0.0
 40
0.0
 40
0.1134884496
 40
0.2284345657
 40
0.3459645484
 40
0.4670681869
 40
0.7227161935
 40
1.0
 40
1.0
 40
1.0
 40
1.0
 10
4.485909269
 20
28.749239186
 30
0.0
 10
4.5013311478
 20
28.756018499
 30
0.0
 10
4.5333228
 20
28.7676069273
 30
0.0
 10
4.5836121908
 20
28.7786603728
 30
0.0
 10
4.6360218593
 20
28.7833855326
 30
0.0
 10
4.7095123109
 20
28.7811900216
 30
0.0
 10
4.8053949954
 20
28.7616744922
 30
0.0
 10
4.8789133859
 20
28.731274947
 30
0.0
 10
4.9156226798
 20
28.7126587499
 30
0.0
 11
4.485909269
 21
28.749239186
 31
0.0
 11
4.5334181945
 21
28.7664741181
 31
0.0
 11
4.583399483
 21
28.7775215046
 31
0.0
 11
4.6355185148
 21
28.7823070989
 31
0.0
 11
4.6894271179
 21
28.7807990029
 31
0.0
 11
4.8011622605
 21
28.7589839897
 31
0.0
 11
4.9156226798
 21
28.7126587499
 31
0.0
  0
SPLINE
  5
452
100
AcDbEntity
  8
ASSI
100
AcDbSpline
 62
7
  6
CONTINUOUS
 70
0
 71
3
 72
12
 73
8
 74
6
 42
0.0000001
 43
0.0000001
 44
0.0000000001
 12
0.1183205236
 22
-0.064369217
 32
0.0
 13
-0.0000025642
 23
-0.1346964825
 33
0.0
 40
0.0
 40
0.0
 40
0.0
 40
0.0
 40
0.2994237143
 40
0.5609662115
 40
0.7898593732
 40
0.8962382597
 40
1.0
 40
1.0
 40
1.0
 40
1.0
 10
17.6580545461
 20
-9.7002820839
 30
0.0
 10
17.6698638696
 20
-9.7067066406
 30
0.0
 10
17.6911887548
 20
-9.7203864208
 30
0.0
 10
17.7169115951
 20
-9.7451999708
 30
0.0
 10
17.7308750677
 20
-9.7686180686
 30
0.0
 10
17.7362832464
 20
-9.7876716718
 30
0.0
 10
17.7371737376
 20
-9.797129432
 30
0.0
 10
17.7371736489
 20
-9.8017882125
 30
0.0
 11
17.6580545461
 21
-9.7002820839
 31
0.0
 11
17.691758051
 21
-9.7224335899
 31
0.0
 11
17.7166959051
 21
-9.7473168295
 31
0.0
 11
17.7320103164
 21
-9.7740754873
 31
0.0
 11
17.7358803208
 21
-9.78787184
 31
0.0
 11
17.7371736489
 21
-9.8017882125
 31
0.0
  0
SPLINE
  5
453
100
AcDbEntity
  8
RACCORDO
100
AcDbSpline
 62
253
  6
CONTINUOUS
 70
0
 71
3
 72
15
 73
11
 74
9
 42
0.0000001
 43
0.0000001
 44
0.0000000001
 12
0.0000002949
 22
-0.468741159
 32
0.0
 13
-0.416255163
 23
-0.2155224197
 33
0.0
 40
0.0
 40
0.0
 40
0.0
 40
0.0
 40
0.1027078254
 40
0.208176759
 40
0.3188662926
 40
0.4367342604
 40
0.5631676535
 40
0.6990101344
 40
0.8446276831
 40
1.0
 40
1.0
 40
1.0
 40
1.0
 10
19.3716104449
 20
-9.9873483339
 30
0.0
 10
19.371610455
 20
-10.003396129
 30
0.0
 10
19.3684365493
 20
-10.0360049648
 30
0.0
 10
19.3543115118
 20
-10.0840557082
 30
0.0
 10
19.3310421761
 20
-10.1310388357
 30
0.0
 10
19.2989462976
 20
-10.1765104631
 30
0.0
 10
19.2583810049
 20
-10.2201087843
 30
0.0
 10
19.2097410764
 20
-10.2614839178
 30
0.0
 10
19.1534783406
 20
-10.3002960409
 30
0.0
 10
19.1125085277
 20
-10.3235144418
 30
0.0
 10
19.0909503514
 20
-10.3346765144
 30
0.0
 11
19.3716104449
 21
-9.9873483339
 31
0.0
 11
19.3670065264
 21
-10.0352710787
 31
0.0
 11
19.3532374437
 21
-10.082752566
 31
0.0
 11
19.3304299084
 21
-10.1293555982
 31
0.0
 11
19.2987939449
 21
-10.1746510787
 31
0.0
 11
19.2586209806
 21
-10.2182219185
 31
0.0
 11
19.2102805719
 21
-10.2596671313
 31
0.0
 11
19.1542190511
 21
-10.2986044596
 31
0.0
 11
19.0909503514
 21
-10.3346765144
 31
0.0
  0
SPLINE
  5
454
100
AcDbEntity
  8
ASSI
100
AcDbSpline
 62
7
  6
CONTINUOUS
 70
0
 71
3
 72
12
 73
8
 74
6
 42
0.0000001
 43
0.0000001
 44
0.0000000001
 12
0.1183205236
 22
-0.064369217
 32
0.0
 13
-0.0000025642
 23
-0.1346964825
 33
0.0
 40
0.0
 40
0.0
 40
0.0
 40
0.0
 40
0.2994237143
 40
0.5609662115
 40
0.7898593732
 40
0.8962382597
 40
1.0
 40
1.0
 40
1.0
 40
1.0
 10
17.6580545461
 20
-5.370155065
 30
0.0
 10
17.6698638696
 20
-5.3765796217
 30
0.0
 10
17.6911887548
 20
-5.3902594019
 30
0.0
 10
17.7169115951
 20
-5.4150729519
 30
0.0
 10
17.7308750677
 20
-5.4384910497
 30
0.0
 10
17.7362832464
 20
-5.4575446529
 30
0.0
 10
17.7371737376
 20
-5.4670024131
 30
0.0
 10
17.7371736489
 20
-5.4716611935
 30
0.0
 11
17.6580545461
 21
-5.370155065
 31
0.0
 11
17.691758051
 21
-5.392306571
 31
0.0
 11
17.7166959051
 21
-5.4171898106
 31
0.0
 11
17.7320103164
 21
-5.4439484684
 31
0.0
 11
17.7358803208
 21
-5.4577448211
 31
0.0
 11
17.7371736489
 21
-5.4716611935
 31
0.0
  0
SPLINE
  5
455
100
AcDbEntity
  8
ASSI
100
AcDbSpline
 62
7
  6
CONTINUOUS
 70
0
 71
3
 72
12
 73
8
 74
6
 42
0.0000001
 43
0.0000001
 44
0.0000000001
 12
0.1183205236
 22
-0.064369217
 32
0.0
 13
-0.0000025642
 23
-0.1346964825
 33
0.0
 40
0.0
 40
0.0
 40
0.0
 40
0.0
 40
0.2994237143
 40
0.5609662115
 40
0.7898593732
 40
0.8962382597
 40
1.0
 40
1.0
 40
1.0
 40
1.0
 10
17.6580545461
 20
-1.0400280461
 30
0.0
 10
17.6698638696
 20
-1.0464526027
 30
0.0
 10
17.6911887548
 20
-1.060132383
 30
0.0
 10
17.7169115951
 20
-1.084945933
 30
0.0
 10
17.7308750677
 20
-1.1083640308
 30
0.0
 10
17.7362832464
 20
-1.127417634
 30
0.0
 10
17.7371737376
 20
-1.1368753941
 30
0.0
 10
17.7371736489
 20
-1.1415341746
 30
0.0
 11
17.6580545461
 21
-1.0400280461
 31
0.0
 11
17.691758051
 21
-1.0621795521
 31
0.0
 11
17.7166959051
 21
-1.0870627917
 31
0.0
 11
17.7320103164
 21
-1.1138214495
 31
0.0
 11
17.7358803208
 21
-1.1276178022
 31
0.0
 11
17.7371736489
 21
-1.1415341746
 31
0.0
  0
SPLINE
  5
456
100
AcDbEntity
  8
ASSI
100
AcDbSpline
 62
7
  6
CONTINUOUS
 70
0
 71
3
 72
12
 73
8
 74
6
 42
0.0000001
 43
0.0000001
 44
0.0000000001
 12
0.1183205236
 22
-0.064369217
 32
0.0
 13
-0.0000025642
 23
-0.1346964825
 33
0.0
 40
0.0
 40
0.0
 40
0.0
 40
0.0
 40
0.2994237143
 40
0.5609662115
 40
0.7898593732
 40
0.8962382597
 40
1.0
 40
1.0
 40
1.0
 40
1.0
 10
17.6580545461
 20
3.2900989729
 30
0.0
 10
17.6698638696
 20
3.2836744162
 30
0.0
 10
17.6911887548
 20
3.2699946359
 30
0.0
 10
17.7169115951
 20
3.245181086
 30
0.0
 10
17.7308750677
 20
3.2217629881
 30
0.0
 10
17.7362832464
 20
3.2027093849
 30
0.0
 10
17.7371737376
 20
3.1932516248
 30
0.0
 10
17.7371736489
 20
3.1885928443
 30
0.0
 11
17.6580545461
 21
3.2900989729
 31
0.0
 11
17.691758051
 21
3.2679474668
 31
0.0
 11
17.7166959051
 21
3.2430642272
 31
0.0
 11
17.7320103164
 21
3.2163055694
 31
0.0
 11
17.7358803208
 21
3.2025092168
 31
0.0
 11
17.7371736489
 21
3.1885928443
 31
0.0
  0
SPLINE
  5
457
100
AcDbEntity
  8
ASSI
100
AcDbSpline
 62
7
  6
CONTINUOUS
 70
0
 71
3
 72
12
 73
8
 74
6
 42
0.0000001
 43
0.0000001
 44
0.0000000001
 12
0.1183205236
 22
-0.064369217
 32
0.0
 13
-0.0000025642
 23
-0.1346964825
 33
0.0
 40
0.0
 40
0.0
 40
0.0
 40
0.0
 40
0.2994237143
 40
0.5609662115
 40
0.7898593732
 40
0.8962382597
 40
1.0
 40
1.0
 40
1.0
 40
1.0
 10
17.6580545461
 20
7.6202259918
 30
0.0
 10
17.6698638696
 20
7.6138014351
 30
0.0
 10
17.6911887548
 20
7.6001216549
 30
0.0
 10
17.7169115951
 20
7.5753081049
 30
0.0
 10
17.7308750677
 20
7.5518900071
 30
0.0
 10
17.7362832464
 20
7.5328364038
 30
0.0
 10
17.7371737376
 20
7.5233786437
 30
0.0
 10
17.7371736489
 20
7.5187198632
 30
0.0
 11
17.6580545461
 21
7.6202259918
 31
0.0
 11
17.691758051
 21
7.5980744858
 31
0.0
 11
17.7166959051
 21
7.5731912462
 31
0.0
 11
17.7320103164
 21
7.5464325884
 31
0.0
 11
17.7358803208
 21
7.5326362357
 31
0.0
 11
17.7371736489
 21
7.5187198632
 31
0.0
  0
SPLINE
  5
458
100
AcDbEntity
  8
ASSI
100
AcDbSpline
 62
7
  6
CONTINUOUS
 70
0
 71
3
 72
12
 73
8
 74
6
 42
0.0000001
 43
0.0000001
 44
0.0000000001
 12
0.1183205236
 22
-0.064369217
 32
0.0
 13
-0.0000025642
 23
-0.1346964825
 33
0.0
 40
0.0
 40
0.0
 40
0.0
 40
0.0
 40
0.2994237143
 40
0.5609662115
 40
0.7898593732
 40
0.8962382597
 40
1.0
 40
1.0
 40
1.0
 40
1.0
 10
17.6580545461
 20
11.9503530107
 30
0.0
 10
17.6698638696
 20
11.943928454
 30
0.0
 10
17.6911887548
 20
11.9302486738
 30
0.0
 10
17.7169115951
 20
11.9054351238
 30
0.0
 10
17.7308750677
 20
11.882017026
 30
0.0
 10
17.7362832464
 20
11.8629634228
 30
0.0
 10
17.7371737376
 20
11.8535056626
 30
0.0
 10
17.7371736489
 20
11.8488468821
 30
0.0
 11
17.6580545461
 21
11.9503530107
 31
0.0
 11
17.691758051
 21
11.9282015047
 31
0.0
 11
17.7166959051
 21
11.9033182651
 31
0.0
 11
17.7320103164
 21
11.8765596073
 31
0.0
 11
17.7358803208
 21
11.8627632546
 31
0.0
 11
17.7371736489
 21
11.8488468821
 31
0.0
  0
SPLINE
  5
459
100
AcDbEntity
  8
ASSI
100
AcDbSpline
 62
7
  6
CONTINUOUS
 70
0
 71
3
 72
15
 73
11
 74
9
 42
0.0000001
 43
0.0000001
 44
0.0000000001
 12
-0.0000021724
 22
-0.4687398473
 32
0.0
 13
-0.4162539982
 23
-0.2155218167
 33
0.0
 40
0.0
 40
0.0
 40
0.0
 40
0.0
 40
0.1027077972
 40
0.2081767552
 40
0.3188663381
 40
0.4367343548
 40
0.5631677775
 40
0.6990102561
 40
0.844627764
 40
1.0
 40
1.0
 40
1.0
 40
1.0
 10
19.3716104449
 20
-9.6326099922
 30
0.0
 10
19.3716103705
 20
-9.6486577379
 30
0.0
 10
19.3684363122
 20
-9.6812664642
 30
0.0
 10
19.3543111188
 20
-9.7293170202
 30
0.0
 10
19.3310416965
 20
-9.7762999595
 30
0.0
 10
19.2989457975
 20
-9.8217714038
 30
0.0
 10
19.2583805472
 20
-9.8653695509
 30
0.0
 10
19.20974072
 20
-9.9067445227
 30
0.0
 10
19.1534781403
 20
-9.9455564996
 30
0.0
 10
19.1125084562
 20
-9.9687748209
 30
0.0
 10
19.0909503514
 20
-9.9799368564
 30
0.0
 11
19.3716104449
 21
-9.6326099922
 31
0.0
 11
19.3670063056
 21
-9.6805325671
 31
0.0
 11
19.353237067
 21
-9.728013877
 31
0.0
 11
19.3304294411
 21
-9.774616729
 31
0.0
 11
19.2987934519
 21
-9.8199120309
 31
0.0
 11
19.2586205248
 21
-9.8634826983
 31
0.0
 11
19.2102802135
 21
-9.9049277493
 31
0.0
 11
19.1542188462
 21
-9.9438649304
 31
0.0
 11
19.0909503514
 21
-9.9799368564
 31
0.0
  0
SPLINE
  5
45A
100
AcDbEntity
  8
RACCORDO
100
AcDbSpline
 62
253
  6
CONTINUOUS
 70
0
 71
3
 72
11
 73
7
 74
5
 42
0.0000001
 43
0.0000001
 44
0.0000000001
 12
0.6448435224
 22
-0.3178932542
 32
0.0
 13
0.3570947211
 23
-0.6239893025
 33
0.0
 40
0.0
 40
0.0
 40
0.0
 40
0.0
 40
0.2264202763
 40
0.471277706
 40
0.7308687027
 40
1.0
 40
1.0
 40
1.0
 40
1.0
 10
18.0511758645
 20
22.1448821576
 30
0.0
 10
18.099844414
 20
22.1208896648
 30
0.0
 10
18.1962212339
 20
22.0606467401
 30
0.0
 10
18.3282761257
 20
21.9446629112
 30
0.0
 10
18.4493552843
 20
21.803555291
 30
0.0
 10
18.5190645902
 20
21.6972842484
 30
0.0
 10
18.551099712
 20
21.6413058983
 30
0.0
 11
18.0511758645
 21
22.1448821576
 31
0.0
 11
18.1898597541
 21
22.0596460997
 31
0.0
 11
18.3227420616
 21
21.9441823682
 31
0.0
 11
18.4447173746
 21
21.8029265057
 31
0.0
 11
18.551099712
 21
21.6413058983
 31
0.0
  0
SPLINE
  5
45B
100
AcDbEntity
  8
RACCORDO
100
AcDbSpline
 62
253
  6
CONTINUOUS
 70
0
 71
3
 72
11
 73
7
 74
5
 42
0.0000001
 43
0.0000001
 44
0.0000000001
 12
0.081203427
 22
0.0388657522
 32
0.0
 13
0.080521396
 23
-0.0402597571
 33
0.0
 40
0.0
 40
0.0
 40
0.0
 40
0.0
 40
0.2782291411
 40
0.5340276409
 40
0.7720108744
 40
1.0
 40
1.0
 40
1.0
 40
1.0
 10
-1.4651961951
 20
21.7228101167
 30
0.0
 10
-1.4576651418
 20
21.726414645
 30
0.0
 10
-1.4426171523
 20
21.7322085444
 30
0.0
 10
-1.4196188307
 20
21.7361883752
 30
0.0
 10
-1.3977845754
 20
21.7348723379
 30
0.0
 10
-1.3843409969
 20
21.7303422898
 30
0.0
 10
-1.3782216627
 20
21.7272826941
 30
0.0
 11
-1.4651961951
 21
21.7228101167
 31
0.0
 11
-1.4417514441
 21
21.7316264728
 31
0.0
 11
-1.419027049
 21
21.7353554691
 31
0.0
 11
-1.397652449
 21
21.7338941184
 31
0.0
 11
-1.3782216627
 21
21.7272826941
 31
0.0
  0
SPLINE
  5
45C
100
AcDbEntity
  8
RACCORDO
100
AcDbSpline
 62
253
  6
CONTINUOUS
 70
0
 71
3
 72
13
 73
9
 74
7
 42
0.0000001
 43
0.0000001
 44
0.0000000001
 12
0.003056477
 22
-1.0526021387
 32
0.0
 13
-0.7802356075
 23
-0.7065500699
 33
0.0
 40
0.0
 40
0.0
 40
0.0
 40
0.0
 40
0.2826743123
 40
0.5421661864
 40
0.6635789173
 40
0.7798611582
 40
0.8916960635
 40
1.0
 40
1.0
 40
1.0
 40
1.0
 10
19.090950345
 20
-10.3346744848
 30
0.0
 10
19.0912383409
 20
-10.43385568
 30
0.0
 10
19.0784186594
 20
-10.6245149782
 30
0.0
 10
19.0230082365
 20
-10.8522190236
 30
0.0
 10
18.95555116
 20
-11.0134385055
 30
0.0
 10
18.8956202849
 20
-11.1207721518
 30
0.0
 10
18.8257092982
 20
-11.216255028
 30
0.0
 10
18.7720634046
 20
-11.2722197882
 30
0.0
 10
18.7438958754
 20
-11.2977271728
 30
0.0
 11
19.090950345
 21
-10.3346744848
 31
0.0
 11
19.0690487315
 21
-10.6314121656
 31
0.0
 11
19.0022548178
 21
-10.8962622955
 31
0.0
 11
18.9526358717
 21
-11.0140364822
 31
0.0
 11
18.8927033071
 21
-11.1207590825
 31
0.0
 11
18.8229368542
 21
-11.2155757819
 31
0.0
 11
18.7438958754
 21
-11.2977271728
 31
0.0
  0
SPLINE
  5
45D
100
AcDbEntity
  8
RACCORDO
100
AcDbSpline
 62
253
  6
CONTINUOUS
 70
0
 71
3
 72
19
 73
15
 74
13
 42
0.0000001
 43
0.0000001
 44
0.0000000001
 12
0.7274473035
 22
0.335967824
 32
0.0
 13
0.7166890846
 23
-0.358344407
 33
0.0
 40
0.0
 40
0.0
 40
0.0
 40
0.0
 40
0.0538897774
 40
0.1068606215
 40
0.160922177
 40
0.2171128989
 40
0.3371380706
 40
0.4667883658
 40
0.6033293856
 40
0.7425592206
 40
0.811391222
 40
0.8782745921
 40
0.941729189
 40
1.0
 40
1.0
 40
1.0
 40
1.0
 10
-2.2343320756
 20
21.6314387075
 30
0.0
 10
-2.2212647512
 20
21.6374737846
 30
0.0
 10
-2.1958865798
 20
21.6505733724
 30
0.0
 10
-2.158091725
 20
21.6710301255
 30
0.0
 10
-2.1190984244
 20
21.6905632138
 30
0.0
 10
-2.0627161618
 20
21.7152112463
 30
0.0
 10
-1.9849983846
 20
21.7410629133
 30
0.0
 10
-1.883817372
 20
21.76219945
 30
0.0
 10
-1.7758687002
 20
21.7729041056
 30
0.0
 10
-1.6836017837
 20
21.772101926
 30
0.0
 10
-1.6105061558
 20
21.7645498907
 30
0.0
 10
-1.5580744784
 20
21.755199386
 30
0.0
 10
-1.5094017278
 20
21.7419303636
 30
0.0
 10
-1.4791168798
 20
21.7297704564
 30
0.0
 10
-1.4651961951
 20
21.7228101167
 30
0.0
 11
-2.2343320756
 21
21.6314387075
 31
0.0
 11
-2.1957396645
 21
21.6508093015
 31
0.0
 11
-2.1582422058
 21
21.6706961418
 31
0.0
 11
-2.1194493665
 21
21.68997348
 31
0.0
 11
-2.078180037
 21
21.7079751973
 31
0.0
 11
-1.9869888363
 21
21.7385304111
 31
0.0
 11
-1.8853521452
 21
21.7600338018
 31
0.0
 11
-1.776484205
 21
21.7708907129
 31
0.0
 11
-1.6649292626
 21
21.7695958175
 31
0.0
 11
-1.6100790196
 21
21.763816319
 31
0.0
 11
-1.5573499432
 21
21.7542351303
 31
0.0
 11
-1.5083704788
 21
21.7405884002
 31
0.0
 11
-1.4651961951
 21
21.7228101167
 31
0.0
  0
SPLINE
  5
45E
100
AcDbEntity
  8
RACCORDO
100
AcDbSpline
 62
253
  6
CONTINUOUS
 70
0
 71
3
 72
11
 73
7
 74
5
 42
0.0000001
 43
0.0000001
 44
0.0000000001
 12
0.7591403876
 22
-1.3008517069
 32
0.0
 13
-0.0043603464
 23
-1.5061508154
 33
0.0
 40
0.0
 40
0.0
 40
0.0
 40
0.0
 40
0.2602702548
 40
0.5174814228
 40
0.7657528112
 40
1.0
 40
1.0
 40
1.0
 40
1.0
 10
18.6767984159
 20
21.4245076859
 30
0.0
 10
18.7426589699
 20
21.3116500175
 30
0.0
 10
18.860043543
 20
21.0790401673
 30
0.0
 10
18.9908010464
 20
20.7164999174
 30
0.0
 10
19.0718344161
 20
20.3530308847
 30
0.0
 10
19.0912908113
 20
20.1104734397
 30
0.0
 10
19.090950345
 20
19.9928695749
 30
0.0
 11
18.6767984159
 21
21.4245076859
 31
0.0
 11
18.8533961536
 21
21.0745313551
 31
0.0
 11
18.9843161127
 21
20.7099232635
 31
0.0
 11
19.0645280231
 21
20.3446918671
 31
0.0
 11
19.090950345
 21
19.9928695749
 31
0.0
  0
SPLINE
  5
45F
100
AcDbEntity
  8
RACCORDO
100
AcDbSpline
 62
7
  6
CONTINUOUS
 70
0
 71
3
 72
12
 73
8
 74
6
 42
0.0000001
 43
0.0000001
 44
0.0000000001
 12
-0.1965698602
 22
0.0944142833
 32
0.0
 13
-0.1979749362
 23
-0.0914313485
 33
0.0
 40
0.0
 40
0.0
 40
0.0
 40
0.0
 40
0.2874014982
 40
0.5468370254
 40
0.7816151617
 40
0.8922543533
 40
1.0
 40
1.0
 40
1.0
 40
1.0
 10
-2.3191767514
 20
21.5937769518
 30
0.0
 10
-2.3380082421
 20
21.6028218873
 30
0.0
 10
-2.3751098782
 20
21.6176233414
 30
0.0
 10
-2.4310682167
 20
21.6292156537
 30
0.0
 10
-2.4755188724
 20
21.628548182
 30
0.0
 10
-2.5077719562
 20
21.6214221174
 30
0.0
 10
-2.5226982263
 20
21.6158265896
 30
0.0
 10
-2.5298085388
 20
21.612542813
 30
0.0
 11
-2.3191767514
 21
21.5937769518
 31
0.0
 11
-2.3775730632
 21
21.6165320367
 31
0.0
 11
-2.433091846
 21
21.6274112042
 31
0.0
 11
-2.4842721423
 21
21.6260779088
 31
0.0
 11
-2.5078195629
 21
21.6208218548
 31
0.0
 11
-2.5298085388
 21
21.612542813
 31
0.0
  0
SPLINE
  5
460
100
AcDbEntity
  8
SUPERFICI
100
AcDbSpline
 62
7
  6
CONTINUOUS
 70
0
 71
3
 72
9
 73
5
 74
3
 42
0.0000001
 43
0.0000001
 44
0.0000000001
 12
0.1113537471
 22
-0.0239569354
 32
0.0
 13
0.1018947132
 23
-0.0509024477
 33
0.0
 40
0.0
 40
0.0
 40
0.0
 40
0.0
 40
0.2432717246
 40
1.0
 40
1.0
 40
1.0
 40
1.0
 10
2.1750374669
 20
22.1826359303
 30
0.0
 10
2.1840672063
 20
22.1806932486
 30
0.0
 10
2.220877408
 20
22.1712827697
 30
0.0
 10
2.2562799406
 20
22.1567948223
 30
0.0
 10
2.2819821442
 20
22.1439550485
 30
0.0
 11
2.1750374669
 21
22.1826359303
 31
0.0
 11
2.2018936614
 21
22.1758141514
 31
0.0
 11
2.2819821442
 21
22.1439550485
 31
0.0
  0
SPLINE
  5
461
100
AcDbEntity
  8
SUPERFICI
100
AcDbSpline
 62
7
  6
CONTINUOUS
 70
0
 71
3
 72
9
 73
5
 74
3
 42
0.0000001
 43
0.0000001
 44
0.0000000001
 12
0.0458170812
 22
0.0141494141
 32
0.0
 13
0.0477884635
 23
0.0039589903
 33
0.0
 40
0.0
 40
0.0
 40
0.0
 40
0.0
 40
0.2461926062
 40
1.0
 40
1.0
 40
1.0
 40
1.0
 10
-3.5486974798
 20
24.975339051
 30
0.0
 10
-3.5449375376
 20
24.9765002114
 30
0.0
 10
-3.5295305631
 20
24.9807755017
 30
0.0
 10
-3.5136497591
 20
24.9832895068
 30
0.0
 10
-3.5016419934
 20
24.9842842789
 30
0.0
 11
-3.5486974798
 21
24.975339051
 31
0.0
 11
-3.537322652
 21
24.9784985482
 31
0.0
 11
-3.5016419934
 21
24.9842842789
 31
0.0
  0
SPLINE
  5
462
100
AcDbEntity
  8
SUPERFICI
100
AcDbSpline
 62
7
  6
CONTINUOUS
 70
0
 71
3
 72
9
 73
5
 74
3
 42
0.0000001
 43
0.0000001
 44
0.0000000001
 12
0.1993647764
 22
0.0165161875
 32
0.0
 13
0.1789332301
 23
-0.0894538857
 33
0.0
 40
0.0
 40
0.0
 40
0.0
 40
0.0
 40
0.2360888864
 40
1.0
 40
1.0
 40
1.0
 40
1.0
 10
-3.5016419934
 20
24.9842842789
 30
0.0
 10
-3.485952724
 20
24.9855840417
 30
0.0
 10
-3.4189262961
 20
24.9846038254
 30
0.0
 10
-3.3538751683
 20
24.961880501
 30
0.0
 10
-3.3083121406
 20
24.9391022285
 30
0.0
 11
-3.5016419934
 21
24.9842842789
 31
0.0
 11
-3.4544144338
 21
24.9839092888
 31
0.0
 11
-3.3083121406
 21
24.9391022285
 31
0.0
  0
SPLINE
  5
463
100
AcDbEntity
  8
SUPERFICI
100
AcDbSpline
 62
7
  6
CONTINUOUS
 70
0
 71
3
 72
9
 73
5
 74
3
 42
0.0000001
 43
0.0000001
 44
0.0000000001
 12
-0.0000343723
 22
0.0098768907
 32
0.0
 13
-0.0088445994
 23
0.0043962726
 33
0.0
 40
0.0
 40
0.0
 40
0.0
 40
0.0
 40
0.4907419764
 40
1.0
 40
1.0
 40
1.0
 40
1.0
 10
-2.7880224596
 20
24.6734997039
 30
0.0
 10
-2.7880280822
 20
24.6751153722
 30
0.0
 10
-2.7887937946
 20
24.6785515643
 30
0.0
 10
-2.7915630306
 20
24.6807320537
 30
0.0
 10
-2.793064425
 20
24.6814783327
 30
0.0
 11
-2.7880224596
 21
24.6734997039
 31
0.0
 11
-2.7892621206
 21
24.6781855317
 31
0.0
 11
-2.793064425
 21
24.6814783327
 31
0.0
  0
SPLINE
  5
464
100
AcDbEntity
  8
SUPERFICI
100
AcDbSpline
 62
7
  6
CONTINUOUS
 70
0
 71
3
 72
9
 73
5
 74
3
 42
0.0000001
 43
0.0000001
 44
0.0000000001
 12
-0.0000347716
 22
0.0098521156
 32
0.0
 13
-0.0088137554
 23
0.0044026249
 33
0.0
 40
0.0
 40
0.0
 40
0.0
 40
0.0
 40
0.4909595784
 40
1.0
 40
1.0
 40
1.0
 40
1.0
 10
2.8024239718
 20
21.8782764252
 30
0.0
 10
2.8024182813
 20
21.8798887554
 30
0.0
 10
2.801657592
 20
21.8833158197
 30
0.0
 10
2.798900628
 20
21.885496566
 30
0.0
 10
2.7974051088
 20
21.8862436041
 30
0.0
 11
2.8024239718
 21
21.8782764252
 31
0.0
 11
2.8011901612
 21
21.8829534414
 31
0.0
 11
2.7974051088
 21
21.8862436041
 31
0.0
  0
SPLINE
  5
465
100
AcDbEntity
  8
SUPERFICI
100
AcDbSpline
 62
7
  6
CONTINUOUS
 70
0
 71
3
 72
11
 73
7
 74
5
 42
0.0000001
 43
0.0000001
 44
0.0000000001
 12
0.3339254474
 22
0.4035230111
 32
0.0
 13
-0.2160526374
 23
0.4771354973
 33
0.0
 40
0.0
 40
0.0
 40
0.0
 40
0.0
 40
0.4371488278
 40
0.5695027068
 40
0.7086891809
 40
1.0
 40
1.0
 40
1.0
 40
1.0
 10
2.6367254296
 20
20.8899635966
 30
0.0
 10
2.6853838022
 20
20.948763467
 30
0.0
 10
2.7080548135
 20
21.056927168
 30
0.0
 10
2.6998267746
 20
21.1795562182
 30
0.0
 10
2.682497575
 20
21.2766553084
 30
0.0
 10
2.6577049198
 20
21.3482104056
 30
0.0
 10
2.6367254296
 20
21.3945419831
 30
0.0
 11
2.6367254296
 21
20.8899635966
 31
0.0
 11
2.7029344705
 21
21.1091482694
 31
0.0
 11
2.6986688944
 21
21.1783401563
 31
0.0
 11
2.6859750736
 21
21.2501284819
 31
0.0
 11
2.6367254296
 21
21.3945419831
 31
0.0
  0
SPLINE
  5
466
100
AcDbEntity
  8
SUPERFICI
100
AcDbSpline
 62
253
  6
CONTINUOUS
 70
0
 71
3
 72
11
 73
7
 74
5
 42
0.0000001
 43
0.0000001
 44
0.0000000001
 12
0.0
 22
0.365918508
 32
0.0
 13
0.3263520263
 23
0.1655013879
 33
0.0
 40
0.0
 40
0.0
 40
0.0
 40
0.0
 40
0.2466001016
 40
0.5114084622
 40
0.7699750674
 40
1.0
 40
1.0
 40
1.0
 40
1.0
 10
-2.2375538956
 20
17.4496125468
 30
0.0
 10
-2.2375538956
 20
17.4796910605
 30
0.0
 10
-2.227211589
 20
17.5421762256
 30
0.0
 10
-2.1897270392
 20
17.6291461846
 30
0.0
 10
-2.134588556
 20
17.703645725
 30
0.0
 10
-2.0868286739
 20
17.7412995465
 30
0.0
 10
-2.0618056396
 20
17.7539893617
 30
0.0
 11
-2.2375538956
 21
17.4496125468
 31
0.0
 11
-2.224195682
 21
17.5388538546
 31
0.0
 11
-2.1861401283
 21
17.6279664326
 31
0.0
 11
-2.129138483
 21
17.7034825196
 31
0.0
 11
-2.0618056396
 21
17.7539893617
 31
0.0
  0
SPLINE
  5
467
100
AcDbEntity
  8
SUPERFICI
100
AcDbSpline
 62
253
  6
CONTINUOUS
 70
0
 71
3
 72
11
 73
7
 74
5
 42
0.0000001
 43
0.0000001
 44
0.0000000001
 12
0.0
 22
0.365918508
 32
0.0
 13
0.3263520263
 23
0.1655013879
 33
0.0
 40
0.0
 40
0.0
 40
0.0
 40
0.0
 40
0.2466001016
 40
0.5114084622
 40
0.7699750674
 40
1.0
 40
1.0
 40
1.0
 40
1.0
 10
-0.5590158252
 20
16.6103435116
 30
0.0
 10
-0.5590158252
 20
16.6404220253
 30
0.0
 10
-0.5486735186
 20
16.7029071904
 30
0.0
 10
-0.5111889688
 20
16.7898771494
 30
0.0
 10
-0.4560504856
 20
16.8643766898
 30
0.0
 10
-0.4082906035
 20
16.9020305113
 30
0.0
 10
-0.3832675692
 20
16.9147203265
 30
0.0
 11
-0.5590158252
 21
16.6103435116
 31
0.0
 11
-0.5456576116
 21
16.6995848194
 31
0.0
 11
-0.5076020579
 21
16.7886973974
 31
0.0
 11
-0.4506004126
 21
16.8642134844
 31
0.0
 11
-0.3832675692
 21
16.9147203265
 31
0.0
  0
SPLINE
  5
468
100
AcDbEntity
  8
SUPERFICI
100
AcDbSpline
 62
253
  6
CONTINUOUS
 70
0
 71
3
 72
11
 73
7
 74
5
 42
0.0000001
 43
0.0000001
 44
0.0000000001
 12
0.323933903
 22
-0.1619669515
 32
0.0
 13
0.3246816254
 23
0.1604627963
 33
0.0
 40
0.0
 40
0.0
 40
0.0
 40
0.0
 40
0.235171244
 40
0.4995791052
 40
0.7642134563
 40
1.0
 40
1.0
 40
1.0
 40
1.0
 10
-0.5590158252
 20
-25.0292345619
 30
0.0
 10
-0.5336225122
 20
-25.0419312184
 30
0.0
 10
-0.4752783588
 20
-25.0600755146
 30
0.0
 10
-0.3829432966
 20
-25.0688311645
 30
0.0
 10
-0.2905089659
 20
-25.0603290845
 30
0.0
 10
-0.232012385
 20
-25.0423589418
 30
0.0
 10
-0.2064938656
 20
-25.0297472858
 30
0.0
 11
-0.5590158252
 21
-25.0292345619
 31
0.0
 11
-0.4782458873
 21
-25.0562613266
 31
0.0
 11
-0.3829663553
 21
-25.065845556
 31
0.0
 11
-0.2875769175
 21
-25.0565386465
 31
0.0
 11
-0.2064938656
 21
-25.0297472858
 31
0.0
  0
SPLINE
  5
469
100
AcDbEntity
  8
SUPERFICI
100
AcDbSpline
 62
253
  6
CONTINUOUS
 70
0
 71
3
 72
11
 73
7
 74
5
 42
0.0000001
 43
0.0000001
 44
0.0000000001
 12
0.3239339031
 22
-0.1619669516
 32
0.0
 13
0.3246816256
 23
0.1604627963
 33
0.0
 40
0.0
 40
0.0
 40
0.0
 40
0.0
 40
0.2351713294
 40
0.4995792494
 40
0.7642136314
 40
1.0
 40
1.0
 40
1.0
 40
1.0
 10
-0.5590158252
 20
-25.3692084961
 30
0.0
 10
-0.533622503
 20
-25.3819051572
 30
0.0
 10
-0.475278331
 20
-25.400049455
 30
0.0
 10
-0.3829432472
 20
-25.4088050992
 30
0.0
 10
-0.2905089267
 20
-25.4003030117
 30
0.0
 10
-0.232012366
 20
-25.3823328666
 30
0.0
 10
-0.2064938656
 20
-25.3697212199
 30
0.0
 11
-0.5590158252
 21
-25.3692084961
 31
0.0
 11
-0.4782458567
 21
-25.3962352667
 31
0.0
 11
-0.3829663026
 21
-25.4058194901
 31
0.0
 11
-0.2875768546
 21
-25.3965125687
 31
0.0
 11
-0.2064938656
 21
-25.3697212199
 31
0.0
  0
SPLINE
  5
46A
100
AcDbEntity
  8
SUPERFICI
100
AcDbSpline
 62
253
  6
CONTINUOUS
 70
0
 71
3
 72
11
 73
7
 74
5
 42
0.0000001
 43
0.0000001
 44
0.0000000001
 12
0.3293173435
 22
-0.1627674777
 32
0.0
 13
-0.0017306173
 23
-0.3673420334
 33
0.0
 40
0.0
 40
0.0
 40
0.0
 40
0.0
 40
0.2299225475
 40
0.4883138243
 40
0.7531101442
 40
1.0
 40
1.0
 40
1.0
 40
1.0
 10
1.7462803933
 20
17.9808811501
 30
0.0
 10
1.7715195542
 20
17.9684065124
 30
0.0
 10
1.8197559368
 20
17.9309748914
 30
0.0
 10
1.8753574391
 20
17.856380847
 30
0.0
 10
1.9130065445
 20
17.7690401722
 30
0.0
 10
1.923196521
 20
17.7062226185
 30
0.0
 10
1.923054097
 20
17.6759916113
 30
0.0
 11
1.7462803933
 21
17.9808811501
 31
0.0
 11
1.814242436
 21
17.9307328978
 31
0.0
 11
1.8717019754
 21
17.8551814342
 31
0.0
 11
1.9099114348
 21
17.7657283215
 31
0.0
 11
1.923054097
 21
17.6759916113
 31
0.0
  0
SPLINE
  5
46B
100
AcDbEntity
  8
SUPERFICI
100
AcDbSpline
 62
7
  6
CONTINUOUS
 70
0
 71
3
 72
11
 73
7
 74
5
 42
0.0000001
 43
0.0000001
 44
0.0000000001
 12
0.328298287
 22
-0.1641491435
 32
0.0
 13
-0.0
 23
-0.3670486434
 33
0.0
 40
0.0
 40
0.0
 40
0.0
 40
0.0
 40
0.2296752475
 40
0.4882147097
 40
0.7532072079
 40
1.0
 40
1.0
 40
1.0
 40
1.0
 10
1.2180132216
 20
17.71744233
 30
0.0
 10
1.2431472184
 20
17.7048753316
 30
0.0
 10
1.2911745424
 20
17.6673020347
 30
0.0
 10
1.3466331481
 20
17.5927059255
 30
0.0
 10
1.3843669219
 20
17.5054721163
 30
0.0
 10
1.3947869253
 20
17.4427477777
 30
0.0
 10
1.3947869253
 20
17.4125527912
 30
0.0
 11
1.2180132216
 21
17.71744233
 31
0.0
 11
1.2856615906
 21
17.6671380225
 31
0.0
 11
1.3430113377
 21
17.5915313867
 31
0.0
 11
1.3813309611
 21
17.5021327662
 31
0.0
 11
1.3947869253
 21
17.4125527912
 31
0.0
  0
SPLINE
  5
46C
100
AcDbEntity
  8
SUPERFICI
100
AcDbSpline
 62
253
  6
CONTINUOUS
 70
0
 71
3
 72
11
 73
7
 74
5
 42
0.0000001
 43
0.0000001
 44
0.0000000001
 12
0.327256154
 22
-0.1655567189
 32
0.0
 13
0.0017563535
 23
-0.3667458694
 33
0.0
 40
0.0
 40
0.0
 40
0.0
 40
0.0
 40
0.2294297766
 40
0.4881166035
 40
0.7533036098
 40
1.0
 40
1.0
 40
1.0
 40
1.0
 10
-0.3832675692
 20
16.9147203265
 30
0.0
 10
-0.3582401338
 20
16.9020591129
 30
0.0
 10
-0.3104247735
 20
16.864342523
 30
0.0
 10
-0.2551102148
 20
16.7897441356
 30
0.0
 10
-0.2172908457
 20
16.7026183558
 30
0.0
 10
-0.2066382942
 20
16.6399890817
 30
0.0
 10
-0.2064938656
 20
16.6098307877
 30
0.0
 11
-0.3832675692
 21
16.9147203265
 31
0.0
 11
-0.3159360086
 21
16.864256769
 31
0.0
 11
-0.2586978986
 21
16.7885946034
 31
0.0
 11
-0.2202670448
 21
16.6992522145
 31
0.0
 11
-0.2064938656
 21
16.6098307877
 31
0.0
  0
SPLINE
  5
46D
100
AcDbEntity
  8
SUPERFICI
100
AcDbSpline
 62
253
  6
CONTINUOUS
 70
0
 71
3
 72
11
 73
7
 74
5
 42
0.0000001
 43
0.0000001
 44
0.0000000001
 12
0.0036995752
 22
-0.2407923717
 32
0.0
 13
0.215362211
 23
-0.1077672084
 33
0.0
 40
0.0
 40
0.0
 40
0.0
 40
0.0
 40
0.2089534255
 40
0.4379515861
 40
0.7000302263
 40
1.0
 40
1.0
 40
1.0
 40
1.0
 10
-19.3083893151
 20
-7.3067417442
 30
0.0
 10
-19.3081316355
 20
-7.3235132079
 30
0.0
 10
-19.3004798187
 20
-7.3588190892
 30
0.0
 10
-19.2698640838
 20
-7.406959519
 30
0.0
 10
-19.2224682672
 20
-7.4500385479
 30
0.0
 10
-19.1834719585
 20
-7.4732556916
 30
0.0
 10
-19.1619379073
 20
-7.4840313267
 30
0.0
 11
-19.3083893151
 21
-7.3067417442
 31
0.0
 11
-19.2982117458
 21
-7.3560220913
 31
0.0
 11
-19.2695830074
 21
-7.4031564109
 31
0.0
 11
-19.2235815933
 21
-7.4463680418
 31
0.0
 11
-19.1619379073
 21
-7.4840313267
 31
0.0
  0
SPLINE
  5
46E
100
AcDbEntity
  8
RACCORDO
100
AcDbSpline
 62
253
  6
CONTINUOUS
 70
0
 71
3
 72
12
 73
8
 74
6
 42
0.0000001
 43
0.0000001
 44
0.0000000001
 12
-2.4992614377
 22
-1.3089805994
 32
0.0
 13
-2.5234497135
 23
1.2617208436
 33
0.0
 40
0.0
 40
0.0
 40
0.0
 40
0.0
 40
0.1059145317
 40
0.2146687163
 40
0.4469557757
 40
0.7074033846
 40
1.0
 40
1.0
 40
1.0
 40
1.0
 10
-7.9851688563
 20
-20.4715490105
 30
0.0
 10
-8.0734048913
 20
-20.5177623662
 30
0.0
 10
-8.2601954563
 20
-20.5970039146
 30
0.0
 10
-8.6693551298
 20
-20.6993620982
 30
0.0
 10
-9.2423432059
 20
-20.7118571786
 30
0.0
 10
-9.9688115328
 20
-20.5546386497
 30
0.0
 10
-10.451413498
 20
-20.3536205594
 30
0.0
 10
-10.6975311131
 20
-20.2305621432
 30
0.0
 11
-7.9851688563
 21
-20.4715490105
 31
0.0
 11
-8.2600919397
 21
-20.5886333698
 31
0.0
 11
-8.5575580247
 21
-20.6638497987
 31
0.0
 11
-9.21249801
 21
-20.6870749739
 31
0.0
 11
-9.9326428271
 21
-20.5410475666
 31
0.0
 11
-10.6975311131
 21
-20.2305621432
 31
0.0
  0
SPLINE
  5
46F
100
AcDbEntity
  8
SUPERFICI
100
AcDbSpline
 62
253
  6
CONTINUOUS
 70
0
 71
3
 72
11
 73
7
 74
5
 42
0.0000001
 43
0.0000001
 44
0.0000000001
 12
-0.0036416034
 22
-0.2402884359
 32
0.0
 13
0.2149806427
 23
-0.1074016618
 33
0.0
 40
0.0
 40
0.0
 40
0.0
 40
0.0
 40
0.2040789256
 40
0.4309439341
 40
0.6947279939
 40
1.0
 40
1.0
 40
1.0
 40
1.0
 10
-19.3083910804
 20
9.1465308867
 30
0.0
 10
-19.3086388052
 20
9.1301849514
 30
0.0
 10
-19.3016302663
 20
9.0952840004
 30
0.0
 10
-19.2711191789
 20
9.0476657253
 30
0.0
 10
-19.2232758948
 20
9.0047089422
 30
0.0
 10
-19.1838137631
 20
8.9813802529
 30
0.0
 10
-19.1619379057
 20
8.970451346
 30
0.0
 11
-19.3083910804
 21
9.1465308867
 31
0.0
 11
-19.2993281664
 21
9.0983321077
 31
0.0
 11
-19.2710420368
 21
9.0517247186
 31
0.0
 11
-19.2246404089
 21
9.0085347199
 31
0.0
 11
-19.1619379057
 21
8.970451346
 31
0.0
  0
SPLINE
  5
470
100
AcDbEntity
  8
SUPERFICI
100
AcDbSpline
 62
253
  6
CONTINUOUS
 70
0
 71
3
 72
11
 73
7
 74
5
 42
0.0000001
 43
0.0000001
 44
0.0000000001
 12
-0.0260873567
 22
-0.2327949798
 32
0.0
 13
0.2098176358
 23
-0.1041662735
 33
0.0
 40
0.0
 40
0.0
 40
0.0
 40
0.0
 40
0.1838820108
 40
0.4026909496
 40
0.6738593977
 40
1.0
 40
1.0
 40
1.0
 40
1.0
 10
-18.6212443585
 20
19.6349790592
 30
0.0
 10
-18.622843357
 20
19.6207101229
 30
0.0
 10
-18.6172297589
 20
19.588241882
 30
0.0
 10
-18.5865804044
 20
19.5442739295
 30
0.0
 10
-18.5374943546
 20
19.5029601724
 30
0.0
 10
-18.4968483848
 20
19.4796557586
 30
0.0
 10
-18.4740383681
 20
19.4683314749
 30
0.0
 11
-18.6212443585
 21
19.6349790592
 31
0.0
 11
-18.6150680811
 21
19.5923494021
 31
0.0
 11
-18.5875291686
 21
19.5491194053
 31
0.0
 11
-18.5398278279
 21
19.5071718321
 31
0.0
 11
-18.4740383681
 21
19.4683314749
 31
0.0
  0
SPLINE
  5
471
100
AcDbEntity
  8
SUPERFICI
100
AcDbSpline
 62
253
  6
CONTINUOUS
 70
0
 71
3
 72
11
 73
7
 74
5
 42
0.0000001
 43
0.0000001
 44
0.0000000001
 12
0.2095183765
 22
0.1218605019
 32
0.0
 13
0.2183579963
 23
-0.1052032199
 33
0.0
 40
0.0
 40
0.0
 40
0.0
 40
0.0
 40
0.2233893357
 40
0.459163078
 40
0.7164677069
 40
1.0
 40
1.0
 40
1.0
 40
1.0
 10
-18.0508104035
 20
20.5468806752
 30
0.0
 10
-18.0352090132
 20
20.5559547873
 30
0.0
 10
-18.0000264446
 20
20.5696710915
 30
0.0
 10
-17.9416535621
 20
20.5743473935
 30
0.0
 10
-17.8792707699
 20
20.5638437282
 30
0.0
 10
-17.8382613568
 20
20.5479583887
 30
0.0
 10
-17.8176241756
 20
20.538015552
 30
0.0
 11
-18.0508104035
 21
20.5468806752
 31
0.0
 11
-18.000448281
 21
20.5667639003
 31
0.0
 11
-17.9435369694
 21
20.5719462297
 31
0.0
 11
-17.8819285594
 21
20.5622586016
 31
0.0
 11
-17.8176241756
 21
20.538015552
 31
0.0
  0
SPLINE
  5
472
100
AcDbEntity
  8
SUPERFICI
100
AcDbSpline
 62
253
  6
CONTINUOUS
 70
0
 71
3
 72
11
 73
7
 74
5
 42
0.0000001
 43
0.0000001
 44
0.0000000001
 12
-0.4206262014
 22
0.2386642562
 32
0.0
 13
-0.0624149096
 23
0.479574194
 33
0.0
 40
0.0
 40
0.0
 40
0.0
 40
0.0
 40
0.2236666212
 40
0.4604274053
 40
0.7179485606
 40
1.0
 40
1.0
 40
1.0
 40
1.0
 10
-18.2413296204
 20
-17.6751875828
 30
0.0
 10
-18.2726896342
 20
-17.6573938402
 30
0.0
 10
-18.3320578132
 20
-17.6108886637
 30
0.0
 10
-18.4011599277
 20
-17.5165720362
 30
0.0
 10
-18.4502353309
 20
-17.4004411525
 30
0.0
 10
-18.4681704709
 20
-17.314797137
 30
0.0
 10
-18.4740385426
 20
-17.2697089398
 30
0.0
 11
-18.2413296204
 21
-17.6751875828
 31
0.0
 11
-18.3268173469
 21
-17.6089119593
 31
0.0
 11
-18.3954153056
 21
-17.5172330965
 31
0.0
 11
-18.4450005569
 21
-17.4029876461
 31
0.0
 11
-18.4740385426
 21
-17.2697089398
 31
0.0
  0
SPLINE
  5
473
100
AcDbEntity
  8
SUPERFICI
100
AcDbSpline
 62
253
  6
CONTINUOUS
 70
0
 71
3
 72
11
 73
7
 74
5
 42
0.0000001
 43
0.0000001
 44
0.0000000001
 12
0.0
 22
-0.1572540296
 32
0.0
 13
0.1405206828
 23
-0.070588721
 33
0.0
 40
0.0
 40
0.0
 40
0.0
 40
0.0
 40
0.2897115833
 40
0.5495586431
 40
0.7828480962
 40
1.0
 40
1.0
 40
1.0
 40
1.0
 10
-0.5590158252
 20
-25.3692084961
 30
0.0
 10
-0.5590158252
 20
-25.3843946007
 30
0.0
 10
-0.5565678685
 20
-25.4133105289
 30
0.0
 10
-0.5442262657
 20
-25.4528648558
 30
0.0
 10
-0.5236142636
 20
-25.4845481473
 30
0.0
 10
-0.5043737715
 20
-25.4992372152
 30
0.0
 10
-0.4942023269
 20
-25.5043467069
 30
0.0
 11
-0.5590158252
 21
-25.3692084961
 31
0.0
 11
-0.5547073986
 21
-25.4145626296
 31
0.0
 11
-0.5419928137
 21
-25.4533961479
 31
0.0
 11
-0.521491218
 21
-25.4838186008
 31
0.0
 11
-0.4942023269
 21
-25.5043467069
 31
0.0
  0
SPLINE
  5
474
100
AcDbEntity
  8
RACCORDO
100
AcDbSpline
 62
253
  6
CONTINUOUS
 70
0
 71
3
 72
13
 73
9
 74
7
 42
0.0000001
 43
0.0000001
 44
0.0000000001
 12
-2.635813968
 22
-1.3848370883
 32
0.0
 13
-2.6631292096
 23
1.3315524203
 33
0.0
 40
0.0
 40
0.0
 40
0.0
 40
0.0
 40
0.112634458
 40
0.2265730034
 40
0.343200473
 40
0.4637268047
 40
0.7197591981
 40
1.0
 40
1.0
 40
1.0
 40
1.0
 10
-8.5477604926
 20
-8.4709922251
 30
0.0
 10
-8.6467216518
 20
-8.5229856834
 30
0.0
 10
-8.8536457058
 20
-8.6133327225
 30
0.0
 10
-9.1830721153
 20
-8.7040477611
 30
0.0
 10
-9.5296035933
 20
-8.7497106755
 30
0.0
 10
-10.0202798811
 20
-8.750297836
 30
0.0
 10
-10.6670234789
 20
-8.6307302693
 30
0.0
 10
-11.1634816971
 20
-8.4300274024
 30
0.0
 10
-11.4122541856
 20
-8.3056422964
 30
0.0
 11
-8.5477604926
 21
-8.4709922251
 31
0.0
 11
-8.8550633297
 21
-8.6052853481
 31
0.0
 11
-9.1820194289
 21
-8.6957774565
 31
0.0
 11
-9.5262085613
 21
-8.7418123035
 31
0.0
 11
-9.8850691216
 21
-8.7430677589
 31
0.0
 11
-10.6359818619
 21
-8.6116421819
 31
0.0
 11
-11.4122541856
 21
-8.3056422964
 31
0.0
  0
SPLINE
  5
475
100
AcDbEntity
  8
RACCORDO
100
AcDbSpline
 62
253
  6
CONTINUOUS
 70
0
 71
3
 72
13
 73
9
 74
7
 42
0.0000001
 43
0.0000001
 44
0.0000000001
 12
-2.6658818747
 22
-1.407327777
 32
0.0
 13
-2.6963097628
 23
1.3481139806
 33
0.0
 40
0.0
 40
0.0
 40
0.0
 40
0.0
 40
0.1141153568
 40
0.2291481231
 40
0.3464278645
 40
0.4671437655
 40
0.7222104227
 40
1.0
 40
1.0
 40
1.0
 40
1.0
 10
-8.506725899
 20
3.8482249534
 30
0.0
 10
-8.6081319194
 20
3.794692383
 30
0.0
 10
-8.819629906
 20
3.7014016659
 30
0.0
 10
-9.1556788981
 20
3.6065880787
 30
0.0
 10
-9.5080877782
 20
3.5574294258
 30
0.0
 10
-10.0047312012
 20
3.5529636593
 30
0.0
 10
-10.6572506465
 20
3.6690559698
 30
0.0
 10
-11.1573573952
 20
3.8698134649
 30
0.0
 10
-11.4070263115
 20
3.9946441358
 30
0.0
 11
-8.506725899
 21
3.8482249534
 31
0.0
 11
-8.8214578463
 21
3.7093579127
 31
0.0
 11
-9.1551057889
 21
3.6148608111
 31
0.0
 11
-9.5051788236
 21
3.5654320777
 31
0.0
 11
-9.8690605424
 21
3.5614198724
 31
0.0
 11
-10.6272569987
 21
3.6893324972
 31
0.0
 11
-11.4070263115
 21
3.9946441358
 31
0.0
  0
SPLINE
  5
476
100
AcDbEntity
  8
SUPERFICI
100
AcDbSpline
 62
253
  6
CONTINUOUS
 70
0
 71
3
 72
11
 73
7
 74
5
 42
0.0000001
 43
0.0000001
 44
0.0000000001
 12
-0.0000524119
 22
-0.1191548241
 32
0.0
 13
-0.1063252816
 23
-0.0537848431
 33
0.0
 40
0.0
 40
0.0
 40
0.0
 40
0.0
 40
0.2069627273
 40
0.4350712425
 40
0.6978189589
 40
1.0
 40
1.0
 40
1.0
 40
1.0
 10
1.9952516898
 20
-23.8832992232
 30
0.0
 10
1.9952480741
 20
-23.8915194257
 30
0.0
 10
1.9916433436
 20
-23.9089298555
 30
0.0
 10
1.9765925717
 20
-23.9327167239
 30
0.0
 10
1.9531188536
 20
-23.9541209468
 30
0.0
 10
1.9337639251
 20
-23.9657264582
 30
0.0
 10
1.923054097
 20
-23.9711440449
 30
0.0
 11
1.9952516898
 21
-23.8832992232
 31
0.0
 11
1.9905108159
 21
-23.9074998387
 31
0.0
 11
1.9764883009
 21
-23.9307836124
 31
0.0
 11
1.9537164717
 21
-23.9522688034
 31
0.0
 11
1.923054097
 21
-23.9711440449
 31
0.0
  0
SPLINE
  5
477
100
AcDbEntity
  8
SUPERFICI
100
AcDbSpline
 62
253
  6
CONTINUOUS
 70
0
 71
3
 72
8
 73
4
 74
2
 42
0.0000001
 43
0.0000001
 44
0.0000000001
 12
-0.0220607581
 22
0.0109938084
 32
0.0
 13
-0.0241361407
 23
0.0049987584
 33
0.0
 40
0.0
 40
0.0
 40
0.0
 40
0.0
 40
1.0
 40
1.0
 40
1.0
 40
1.0
 10
1.8569434459
 20
-23.6596086984
 30
0.0
 10
1.8495898598
 20
-23.6559440956
 30
0.0
 10
1.8416856819
 20
-23.6532434917
 30
0.0
 10
1.8336403017
 20
-23.6515772389
 30
0.0
 11
1.8569434459
 21
-23.6596086984
 31
0.0
 11
1.8336403017
 21
-23.6515772389
 31
0.0
  0
SPLINE
  5
478
100
AcDbEntity
  8
SUPERFICI
100
AcDbSpline
 62
7
  6
CONTINUOUS
 70
0
 71
3
 72
10
 73
6
 74
4
 42
0.0000001
 43
0.0000001
 44
0.0000000001
 12
0.3473086931
 22
-0.0725863021
 32
0.0
 13
0.2274530278
 23
0.2723182324
 33
0.0
 40
0.0
 40
0.0
 40
0.0
 40
0.0
 40
0.4823936024
 40
0.7434680481
 40
1.0
 40
1.0
 40
1.0
 40
1.0
 10
0.1908882645
 20
15.9836987524
 30
0.0
 10
0.2467347617
 20
15.9720270298
 30
0.0
 10
0.3401259073
 20
15.9932558714
 30
0.0
 10
0.4404332509
 20
16.0553037593
 30
0.0
 10
0.4852770862
 20
16.0980672215
 30
0.0
 10
0.5047267425
 20
16.1213533307
 30
0.0
 11
0.1908882645
 21
15.9836987524
 31
0.0
 11
0.3600056316
 21
16.0100589373
 31
0.0
 11
0.4390887394
 21
16.0582943053
 31
0.0
 11
0.5047267425
 21
16.1213533307
 31
0.0
  0
SPLINE
  5
479
100
AcDbEntity
  8
SUPERFICI
100
AcDbSpline
 62
7
  6
CONTINUOUS
 70
0
 71
3
 72
9
 73
5
 74
3
 42
0.0000001
 43
0.0000001
 44
0.0000000001
 12
0.4623602933
 22
-0.0640355429
 32
0.0
 13
0.4174949979
 23
-0.2087474989
 33
0.0
 40
0.0
 40
0.0
 40
0.0
 40
0.0
 40
0.5259293972
 40
1.0
 40
1.0
 40
1.0
 40
1.0
 10
-2.2587527583
 20
22.6758686784
 30
0.0
 10
-2.1776964681
 20
22.6646426203
 30
0.0
 10
-2.0247527221
 20
22.6333014746
 30
0.0
 10
-1.8780325577
 20
22.5786494232
 30
0.0
 10
-1.8120585226
 20
22.5456624057
 30
0.0
 11
-2.2587527583
 21
22.6758686784
 31
0.0
 11
-2.0185426973
 21
22.6252283237
 31
0.0
 11
-1.8120585226
 21
22.5456624057
 31
0.0
  0
SPLINE
  5
47A
100
AcDbEntity
  8
RACCORDO
100
AcDbSpline
 62
253
  6
CONTINUOUS
 70
0
 71
3
 72
13
 73
9
 74
7
 42
0.0000001
 43
0.0000001
 44
0.0000000001
 12
-2.9340674113
 22
-2.3058894986
 32
0.0
 13
-3.3378111722
 23
1.6688003273
 33
0.0
 40
0.0
 40
0.0
 40
0.0
 40
0.0
 40
0.1161914237
 40
0.2316123103
 40
0.3481720532
 40
0.4676725957
 40
0.7208074869
 40
1.0
 40
1.0
 40
1.0
 40
1.0
 10
-8.2221567081
 20
3.5004550739
 30
0.0
 10
-8.3357945314
 20
3.4111468794
 30
0.0
 10
-8.5768223083
 20
3.250632562
 30
0.0
 10
-8.9733739118
 20
3.0719216108
 30
0.0
 10
-9.3977699709
 20
2.9590516855
 30
0.0
 10
-10.0053125332
 20
2.8965483341
 30
0.0
 10
-10.8208058944
 20
2.9976790311
 30
0.0
 10
-11.4437403313
 20
3.2390999575
 30
0.0
 10
-11.7543709611
 20
3.3944054766
 30
0.0
 11
-8.2221567081
 21
3.5004550739
 31
0.0
 11
-8.5833540441
 21
3.2605758106
 31
0.0
 11
-8.9760104134
 21
3.0835411871
 31
0.0
 11
-9.3962031142
 21
2.971124594
 31
0.0
 11
-9.8397002074
 21
2.9244646243
 31
0.0
 11
-10.7784701531
 21
3.0295516087
 31
0.0
 11
-11.7543709611
 21
3.3944054766
 31
0.0
  0
SPLINE
  5
47B
100
AcDbEntity
  8
SUPERFICI
100
AcDbSpline
 62
253
  6
CONTINUOUS
 70
0
 71
3
 72
11
 73
7
 74
5
 42
0.0000001
 43
0.0000001
 44
0.0000000001
 12
-0.0084030436
 22
-0.1143381241
 32
0.0
 13
-0.1023023558
 23
-0.0517498385
 33
0.0
 40
0.0
 40
0.0
 40
0.0
 40
0.0
 40
0.2071906807
 40
0.4367008659
 40
0.6996980656
 40
1.0
 40
1.0
 40
1.0
 40
1.0
 10
-10.308574984
 20
23.5635686945
 30
0.0
 10
-10.3091553281
 20
23.5556720966
 30
0.0
 10
-10.3136712766
 20
23.5391704174
 30
0.0
 10
-10.3289226868
 20
23.5167829505
 30
0.0
 10
-10.3517717354
 20
23.496541413
 30
0.0
 10
-10.3703633639
 20
23.485469283
 30
0.0
 10
-10.3806038956
 20
23.4802890908
 30
0.0
 11
-10.308574984
 21
23.5635686945
 31
0.0
 11
-10.3145666088
 21
23.5405830913
 31
0.0
 11
-10.3289439181
 21
23.5185457913
 31
0.0
 11
-10.351210419
 21
23.4982153139
 31
0.0
 11
-10.3806038956
 21
23.4802890908
 31
0.0
  0
SPLINE
  5
47C
100
AcDbEntity
  8
RACCORDO
100
AcDbSpline
 62
253
  6
CONTINUOUS
 70
0
 71
3
 72
11
 73
7
 74
5
 42
0.0000001
 43
0.0000001
 44
0.0000000001
 12
4.5607479456
 22
-2.2805227755
 32
0.0
 13
2.5335807719
 23
-4.4251750728
 33
0.0
 40
0.0
 40
0.0
 40
0.0
 40
0.0
 40
0.2254981969
 40
0.4705422042
 40
0.7307198456
 40
1.0
 40
1.0
 40
1.0
 40
1.0
 10
-11.7543709611
 20
-9.3664295339
 30
0.0
 10
-11.4115574816
 20
-9.5378474586
 30
0.0
 10
-10.7319490208
 20
-9.9690702577
 30
0.0
 10
-9.8002724576
 20
-10.7966934676
 30
0.0
 10
-8.9439849789
 20
-11.8015118776
 30
0.0
 10
-8.4495711479
 20
-12.556615407
 30
0.0
 10
-8.2221568074
 20
-12.9538193493
 30
0.0
 11
-11.7543709611
 21
-9.3664295339
 31
0.0
 11
-10.7784744304
 21
-9.9745188702
 31
0.0
 11
-9.8397032265
 21
-10.799134989
 31
0.0
 11
-8.9760119589
 21
-11.806171016
 31
0.0
 11
-8.2221568074
 21
-12.9538193493
 31
0.0
  0
SPLINE
  5
47D
100
AcDbEntity
  8
RACCORDO
100
AcDbSpline
 62
253
  6
CONTINUOUS
 70
0
 71
3
 72
14
 73
10
 74
8
 42
0.0000001
 43
0.0000001
 44
0.0000000001
 12
2.8773647785
 22
2.294973793
 32
0.0
 13
3.2919826433
 23
-1.6458988595
 33
0.0
 40
0.0
 40
0.0
 40
0.0
 40
0.0
 40
0.1140320256
 40
0.2278450334
 40
0.3434269462
 40
0.4626056223
 40
0.5869174285
 40
0.7175315485
 40
1.0
 40
1.0
 40
1.0
 40
1.0
 10
-15.2357135024
 20
-9.4470436834
 30
0.0
 10
-15.1263429244
 20
-9.3598101799
 30
0.0
 10
-14.8929909485
 20
-9.2031297415
 30
0.0
 10
-14.5068415293
 20
-9.0298521169
 30
0.0
 10
-14.091142196
 20
-8.9215408513
 30
0.0
 10
-13.6509274505
 20
-8.879285612
 30
0.0
 10
-13.1910090723
 20
-8.9031669665
 30
0.0
 10
-12.5416367316
 20
-9.0254557315
 30
0.0
 10
-12.0643313743
 20
-9.2114580332
 30
0.0
 10
-11.7543709611
 20
-9.3664295339
 30
0.0
 11
-15.2357135024
 21
-9.4470436834
 31
0.0
 11
-14.887046384
 21
-9.2134292408
 31
0.0
 11
-14.5049809624
 21
-9.0416896129
 31
0.0
 11
-14.0935306648
 21
-8.9336439769
 31
0.0
 11
-13.6570218269
 21
-8.8904780026
 31
0.0
 11
-13.2000307954
 21
-8.9126894011
 31
0.0
 11
-12.727317997
 21
-9.0000981542
 31
0.0
 11
-11.7543709611
 21
-9.3664295339
 31
0.0
  0
SPLINE
  5
47E
100
AcDbEntity
  8
SUPERFICI
100
AcDbSpline
 62
253
  6
CONTINUOUS
 70
0
 71
3
 72
11
 73
7
 74
5
 42
0.0000001
 43
0.0000001
 44
0.0000000001
 12
0.0000005196
 22
-0.1191822341
 32
0.0
 13
-0.1063497301
 23
-0.0537972104
 33
0.0
 40
0.0
 40
0.0
 40
0.0
 40
0.0
 40
0.2069626469
 40
0.435062601
 40
0.697808331
 40
1.0
 40
1.0
 40
1.0
 40
1.0
 10
-10.3084062969
 20
23.9156932212
 30
0.0
 10
-10.308406261
 20
23.907471131
 30
0.0
 10
-10.3120050478
 20
23.8900552485
 30
0.0
 10
-10.3270542994
 20
23.8662597236
 30
0.0
 10
-10.3505316962
 20
23.8448483816
 30
0.0
 10
-10.3698912281
 20
23.8332396305
 30
0.0
 10
-10.3806038956
 20
23.8278206076
 30
0.0
 11
-10.3084062969
 21
23.9156932212
 31
0.0
 11
-10.3131391027
 21
23.8914852585
 31
0.0
 11
-10.3271591344
 21
23.8681938854
 31
0.0
 11
-10.3499338698
 21
23.8467016298
 31
0.0
 11
-10.3806038956
 21
23.8278206076
 31
0.0
  0
SPLINE
  5
47F
100
AcDbEntity
  8
RACCORDO
100
AcDbSpline
 62
253
  6
CONTINUOUS
 70
0
 71
3
 72
11
 73
7
 74
5
 42
0.0000001
 43
0.0000001
 44
0.0000000001
 12
-4.5495924707
 22
2.2749633751
 32
0.0
 13
-2.4304902033
 23
4.4684412696
 33
0.0
 40
0.0
 40
0.0
 40
0.0
 40
0.0
 40
0.2257118095
 40
0.4706119657
 40
0.7306088935
 40
1.0
 40
1.0
 40
1.0
 40
1.0
 10
-11.7543709611
 20
3.3944054766
 30
0.0
 10
-12.0966698774
 20
3.5655675099
 30
0.0
 10
-12.7739171253
 20
3.9975844801
 30
0.0
 10
-13.6971458744
 20
4.8302631034
 30
0.0
 10
-14.5383405121
 20
5.8434959312
 30
0.0
 10
-15.0174580919
 20
6.6059754799
 30
0.0
 10
-15.235708907
 20
7.0072282593
 30
0.0
 11
-11.7543709611
 21
3.3944054766
 31
0.0
 11
-12.7273119968
 21
4.0039714277
 31
0.0
 11
-13.6570157038
 21
4.8331199511
 31
0.0
 11
-14.5049751779
 21
5.8480202891
 31
0.0
 11
-15.235708907
 21
7.0072282593
 31
0.0
  0
SPLINE
  5
480
100
AcDbEntity
  8
RACCORDO
100
AcDbSpline
 62
253
  6
CONTINUOUS
 70
0
 71
3
 72
26
 73
22
 74
20
 42
0.0000001
 43
0.0000001
 44
0.0000000001
 12
15.679362835
 22
-7.8398232536
 32
0.0
 13
-15.6794813256
 23
7.8395862723
 33
0.0
 40
0.0
 40
0.0
 40
0.0
 40
0.0
 40
0.0633415498
 40
0.131956072
 40
0.2047842559
 40
0.280335886
 40
0.3568697776
 40
0.4325479118
 40
0.5055903272
 40
0.5744369632
 40
0.6379306827
 40
0.6955371538
 40
0.7476047185
 40
0.7720382607
 40
0.7957347902
 40
0.8190441986
 40
0.8423493289
 40
0.866033578
 40
0.8904479899
 40
0.9424608042
 40
1.0
 40
1.0
 40
1.0
 40
1.0
 10
-11.7596040682
 20
2.9409363903
 30
0.0
 10
-11.428552354
 20
2.7754075384
 30
0.0
 10
-10.7729406392
 20
2.3603645763
 30
0.0
 10
-9.8747626384
 20
1.5635659217
 30
0.0
 10
-9.0500608752
 20
0.5954220804
 30
0.0
 10
-8.3290613406
 20
-0.507300644
 30
0.0
 10
-7.7375925347
 20
-1.7030600661
 30
0.0
 10
-7.2969661938
 20
-2.9467539891
 30
0.0
 10
-7.0229507224
 20
-4.1918070933
 30
0.0
 10
-6.9253794738
 20
-5.3921172415
 30
0.0
 10
-7.0086279268
 20
-6.5043312406
 30
0.0
 10
-7.2715244107
 20
-7.4885065419
 30
0.0
 10
-7.6466520604
 20
-8.1875929179
 30
0.0
 10
-8.0289117494
 20
-8.6336748241
 30
0.0
 10
-8.346711255
 20
-8.9070106135
 30
0.0
 10
-8.6984483635
 20
-9.1227926989
 30
0.0
 10
-9.0804584376
 20
-9.2786531334
 30
0.0
 10
-9.4886676835
 20
-9.3729990676
 30
0.0
 10
-10.0740193374
 20
-9.416837116
 30
0.0
 10
-10.8584569351
 20
-9.3047976
 30
0.0
 10
-11.4588758197
 20
-9.0685547178
 30
0.0
 10
-11.7596040682
 20
-8.9181935547
 30
0.0
 11
-11.7596040682
 21
2.9409363903
 31
0.0
 11
-10.816848037
 21
2.3542794122
 31
0.0
 11
-9.9127289388
 21
1.5609653436
 31
0.0
 11
-9.0816765193
 21
0.5917998197
 31
0.0
 11
-8.3550602253
 21
-0.5155131969
 31
0.0
 11
-7.760026737
 21
-1.71799236
 31
0.0
 11
-7.3186391203
 21
-2.9690596799
 31
0.0
 11
-7.0471600178
 21
-4.2203919083
 31
0.0
 11
-6.9555484477
 21
-5.4237999656
 31
0.0
 11
-7.0471578687
 21
-6.5330763957
 31
0.0
 11
-7.3186348336
 21
-7.5057502436
 31
0.0
 11
-7.7600204516
 21
-8.3046825814
 31
0.0
 11
-8.0395807944
 21
-8.6291924086
 31
0.0
 11
-8.3550522194
 21
-8.8994469487
 31
0.0
 11
-8.7034993095
 21
-9.112876867
 31
0.0
 11
-9.0816672699
 21
-9.2674582883
 31
0.0
 11
-9.4860105137
 21
-9.3617316717
 31
0.0
 11
-9.9127176592
 21
-9.3948142368
 31
0.0
 11
-10.8168417008
 21
-9.2768197501
 31
0.0
 11
-11.7596040682
 21
-8.9181935547
 31
0.0
  0
SPLINE
  5
481
100
AcDbEntity
  8
SUPERFICI
100
AcDbSpline
 62
253
  6
CONTINUOUS
 70
0
 71
3
 72
11
 73
7
 74
5
 42
0.0000001
 43
0.0000001
 44
0.0000000001
 12
-0.0061300084
 22
-0.1157522471
 32
0.0
 13
-0.1034337924
 23
-0.0523221778
 33
0.0
 40
0.0
 40
0.0
 40
0.0
 40
0.0
 40
0.2070854803
 40
0.436204666
 40
0.699150392
 40
1.0
 40
1.0
 40
1.0
 40
1.0
 10
1.9951640473
 20
17.4130214842
 30
0.0
 10
1.9947409021
 20
17.405031281
 30
0.0
 10
1.9904677185
 20
17.3882719425
 30
0.0
 10
1.9752627718
 20
17.3654957308
 30
0.0
 10
1.9522340462
 20
17.3449292457
 30
0.0
 10
1.933426769
 20
17.3337071301
 30
0.0
 10
1.923054097
 20
17.3284600945
 30
0.0
 11
1.9951640473
 21
17.4130214842
 31
0.0
 11
1.9895085876
 21
17.3896930173
 31
0.0
 11
1.9752201194
 21
17.3673059907
 31
0.0
 11
1.9528057033
 21
17.3466522707
 31
0.0
 11
1.923054097
 21
17.3284600945
 31
0.0
  0
SPLINE
  5
482
100
AcDbEntity
  8
RACCORDO
100
AcDbSpline
 62
253
  6
CONTINUOUS
 70
0
 71
3
 72
26
 73
22
 74
20
 42
0.0000001
 43
0.0000001
 44
0.0000000001
 12
-15.7412642439
 22
7.8707851553
 32
0.0
 13
15.7413834648
 23
-7.8705467136
 33
0.0
 40
0.0
 40
0.0
 40
0.0
 40
0.0
 40
0.0631765319
 40
0.1316949108
 40
0.2044056255
 40
0.2797585349
 40
0.3559923631
 40
0.4312911421
 40
0.5039347782
 40
0.5724502905
 40
0.6357776493
 40
0.6934647475
 40
0.7458916525
 40
0.7705939644
 40
0.7945960846
 40
0.8182232211
 40
0.8418307543
 40
0.865776281
 40
0.8903907578
 40
0.9425783724
 40
1.0
 40
1.0
 40
1.0
 40
1.0
 10
-11.7596040682
 20
-8.9181935547
 30
0.0
 10
-12.0910968955
 20
-8.7524439183
 30
0.0
 10
-12.7487136807
 20
-8.3381677613
 30
0.0
 10
-13.653718005
 20
-7.54562012
 30
0.0
 10
-14.4890999333
 20
-6.5834083731
 30
0.0
 10
-15.2229522265
 20
-5.487343016
 30
0.0
 10
-15.8274291462
 20
-4.2979402472
 30
0.0
 10
-16.2792010337
 20
-3.0593237609
 30
0.0
 10
-16.5607542558
 20
-1.8172825472
 30
0.0
 10
-16.6610195983
 20
-0.617458002
 30
0.0
 10
-16.5750832512
 20
0.4967873741
 30
0.0
 10
-16.3043864486
 20
1.4849600964
 30
0.0
 10
-15.9199744505
 20
2.1873342014
 30
0.0
 10
-15.5297739671
 20
2.636812987
 30
0.0
 10
-15.2055840802
 20
2.9132285129
 30
0.0
 10
-14.8475320802
 20
3.1321364992
 30
0.0
 10
-14.4594826751
 20
3.2910916467
 30
0.0
 10
-14.0456807631
 20
3.388371629
 30
0.0
 10
-13.4545548739
 20
3.4357241665
 30
0.0
 10
-12.6647895516
 20
3.3275473584
 30
0.0
 10
-12.0609026881
 20
3.0915829245
 30
0.0
 10
-11.7596040682
 20
2.9409363903
 30
0.0
 11
-11.7596040682
 21
-8.9181935547
 31
0.0
 11
-12.7048856597
 21
-8.3327991224
 31
0.0
 11
-13.6161959024
 21
-7.5430805167
 31
0.0
 11
-14.4580083819
 21
-6.5792950664
 31
0.0
 11
-15.1973129667
 21
-5.4783262384
 31
0.0
 11
-15.8050304128
 21
-4.2821891182
 31
0.0
 11
-16.2571676376
 21
-3.0364966573
 31
0.0
 11
-16.535827731
 21
-1.7887550119
 31
0.0
 11
-16.6299606401
 21
-0.5866072861
 31
0.0
 11
-16.5358298168
 21
0.5239300408
 31
0.0
 11
-16.2571717965
 21
1.5001942283
 31
0.0
 11
-15.8050365011
 21
2.3045012435
 31
0.0
 11
-15.5192589267
 21
2.6321196066
 31
0.0
 11
-15.1973206959
 21
2.9056074742
 31
0.0
 11
-14.8424056729
 21
3.1222712885
 31
0.0
 11
-14.4580172685
 21
3.2799628669
 31
0.0
 11
-14.047940273
 21
3.3771030665
 31
0.0
 11
-13.6162067215
 21
3.4126987814
 31
0.0
 11
-12.7048915947
 21
3.2982998214
 31
0.0
 11
-11.7596040682
 21
2.9409363903
 31
0.0
  0
SPLINE
  5
483
100
AcDbEntity
  8
SUPERFICI
100
AcDbSpline
 62
253
  6
CONTINUOUS
 70
0
 71
3
 72
11
 73
7
 74
5
 42
0.0000001
 43
0.0000001
 44
0.0000000001
 12
0.0007051373
 22
-0.1489595351
 32
0.0
 13
-0.1268794109
 23
-0.0780452138
 33
0.0
 40
0.0
 40
0.0
 40
0.0
 40
0.0
 40
0.287804285
 40
0.54773553
 40
0.7823377374
 40
1.0
 40
1.0
 40
1.0
 40
1.0
 10
1.923054097
 20
-24.3186755616
 30
0.0
 10
1.9231217442
 20
-24.3329659591
 30
0.0
 10
1.9210553237
 20
-24.3602633242
 30
0.0
 10
1.9102442141
 20
-24.3979148448
 30
0.0
 10
1.892070974
 20
-24.4287711991
 30
0.0
 10
1.8749192139
 20
-24.4440032623
 30
0.0
 10
1.8657135941
 20
-24.4496657616
 30
0.0
 11
1.923054097
 21
-24.3186755616
 31
0.0
 11
1.9194309136
 21
-24.3613938583
 31
0.0
 11
1.9082959561
 21
-24.3984778934
 31
0.0
 11
1.8901288499
 21
-24.4283312519
 31
0.0
 11
1.8657135941
 21
-24.4496657616
 31
0.0
  0
SPLINE
  5
484
100
AcDbEntity
  8
SUPERFICI
100
AcDbSpline
 62
7
  6
CONTINUOUS
 70
0
 71
3
 72
11
 73
7
 74
5
 42
0.0000001
 43
0.0000001
 44
0.0000000001
 12
-0.0
 22
-0.156469187
 32
0.0
 13
-0.1392205295
 23
-0.0714160392
 33
0.0
 40
0.0
 40
0.0
 40
0.0
 40
0.0
 40
0.2895498204
 40
0.5494320339
 40
0.7828527029
 40
1.0
 40
1.0
 40
1.0
 40
1.0
 10
1.3947869253
 20
-24.5896866203
 30
0.0
 10
1.3947869253
 20
-24.6047884953
 30
0.0
 10
1.3923649928
 20
-24.6335519446
 30
0.0
 10
1.3801644246
 20
-24.6729274613
 30
0.0
 10
1.3597927649
 20
-24.7045391813
 30
0.0
 10
1.3407589063
 20
-24.7192950493
 30
0.0
 10
1.3306817858
 20
-24.7244643159
 30
0.0
 11
1.3947869253
 21
-24.5896866203
 31
0.0
 11
1.3905287392
 21
-24.6347916921
 31
0.0
 11
1.3779599211
 21
-24.6734640313
 31
0.0
 11
1.3576851952
 21
-24.7038428959
 31
0.0
 11
1.3306817858
 21
-24.7244643159
 31
0.0
  0
SPLINE
  5
485
100
AcDbEntity
  8
SUPERFICI
100
AcDbSpline
 62
253
  6
CONTINUOUS
 70
0
 71
3
 72
11
 73
7
 74
5
 42
0.0000001
 43
0.0000001
 44
0.0000000001
 12
-0.0007563656
 22
-0.1586850504
 32
0.0
 13
-0.1426632749
 23
-0.0694889007
 33
0.0
 40
0.0
 40
0.0
 40
0.0
 40
0.0
 40
0.2901390019
 40
0.5501335806
 40
0.7832367603
 40
1.0
 40
1.0
 40
1.0
 40
1.0
 10
-0.2064938656
 20
-25.3697212199
 30
0.0
 10
-0.2065670159
 20
-25.3850681273
 30
0.0
 10
-0.2091843685
 20
-25.4142666315
 30
0.0
 10
-0.2218717763
 20
-25.4541330905
 30
0.0
 10
-0.2428945607
 20
-25.4859419158
 30
0.0
 10
-0.2624474779
 20
-25.5005508207
 30
0.0
 10
-0.2727555291
 20
-25.5055717004
 30
0.0
 11
-0.2064938656
 21
-25.3697212199
 31
0.0
 11
-0.211078474
 21
-25.4155336377
 31
0.0
 11
-0.2241466291
 21
-25.4546670365
 31
0.0
 11
-0.2450511612
 21
-25.4851840968
 31
0.0
 11
-0.2727555291
 21
-25.5055717004
 31
0.0
  0
SPLINE
  5
486
100
AcDbEntity
  8
SUPERFICI
100
AcDbSpline
 62
253
  6
CONTINUOUS
 70
0
 71
3
 72
9
 73
5
 74
3
 42
0.0000001
 43
0.0000001
 44
0.0000000001
 12
0.0
 22
0.2514083247
 32
0.0
 13
0.1603864367
 23
0.1936035553
 33
0.0
 40
0.0
 40
0.0
 40
0.0
 40
0.0
 40
0.4868891312
 40
1.0
 40
1.0
 40
1.0
 40
1.0
 10
-0.5590158252
 20
-25.0292345619
 30
0.0
 10
-0.5590158252
 20
-24.9884319017
 30
0.0
 10
-0.5405366915
 20
-24.9045957415
 30
0.0
 10
-0.4980594855
 20
-24.8306537509
 30
0.0
 10
-0.4706274776
 20
-24.7975403881
 30
0.0
 11
-0.5590158252
 21
-25.0292345619
 31
0.0
 11
-0.5353322388
 21
-24.9091395933
 31
0.0
 11
-0.4706274776
 21
-24.7975403881
 31
0.0
  0
SPLINE
  5
487
100
AcDbEntity
  8
SUPERFICI
100
AcDbSpline
 62
253
  6
CONTINUOUS
 70
0
 71
3
 72
11
 73
7
 74
5
 42
0.0000001
 43
0.0000001
 44
0.0000000001
 12
-0.1867733391
 22
0.3016213508
 32
0.0
 13
-0.3163609943
 23
0.1605473161
 33
0.0
 40
0.0
 40
0.0
 40
0.0
 40
0.0
 40
0.2188690821
 40
0.4829783205
 40
0.7560361716
 40
1.0
 40
1.0
 40
1.0
 40
1.0
 10
-0.2064938656
 20
-25.0297472858
 30
0.0
 10
-0.2201201686
 20
-25.0077420897
 30
0.0
 10
-0.2561460938
 20
-24.9629697514
 30
0.0
 10
-0.3202541847
 20
-24.9004911013
 30
0.0
 10
-0.3928833146
 20
-24.8431661345
 30
0.0
 10
-0.4449005978
 20
-24.8105963007
 30
0.0
 10
-0.4706274776
 20
-24.7975403881
 30
0.0
 11
-0.2064938656
 21
-25.0297472858
 31
0.0
 11
-0.2537836316
 21
-24.9681614016
 31
0.0
 11
-0.3205581771
 21
-24.902432109
 31
0.0
 11
-0.3966887999
 21
-24.8425296615
 31
0.0
 11
-0.4706274776
 21
-24.7975403881
 31
0.0
  0
SPLINE
  5
488
100
AcDbEntity
  8
SUPERFICI
100
AcDbSpline
 62
7
  6
CONTINUOUS
 70
0
 71
3
 72
11
 73
7
 74
5
 42
0.0000001
 43
0.0000001
 44
0.0000000001
 12
-0.3675736804
 22
0.0767562853
 32
0.0
 13
-0.3358594204
 23
0.1679297102
 33
0.0
 40
0.0
 40
0.0
 40
0.0
 40
0.0
 40
0.2082633068
 40
0.4660652564
 40
0.7455438989
 40
1.0
 40
1.0
 40
1.0
 40
1.0
 10
0.5047267425
 20
-24.1782508087
 30
0.0
 10
0.4792093725
 20
-24.1729223027
 30
0.0
 10
0.4227574217
 20
-24.1579442753
 30
0.0
 10
0.3339793109
 20
-24.1291105681
 30
0.0
 10
0.2412801564
 20
-24.0939600122
 30
0.0
 10
0.1801777141
 20
-24.0667245504
 30
0.0
 10
0.1516905545
 20
-24.0524809706
 30
0.0
 11
0.5047267425
 21
-24.1782508087
 31
0.0
 11
0.4289481991
 21
-24.1589279027
 31
0.0
 11
0.3368073176
 21
-24.1292410885
 31
0.0
 11
0.2387374072
 21
-24.0918818063
 31
0.0
 11
0.1516905545
 21
-24.0524809706
 31
0.0
  0
SPLINE
  5
489
100
AcDbEntity
  8
SUPERFICI
100
AcDbSpline
 62
253
  6
CONTINUOUS
 70
0
 71
3
 72
9
 73
5
 74
3
 42
0.0000001
 43
0.0000001
 44
0.0000000001
 12
0.0776389026
 22
0.2049401612
 32
0.0
 13
-0.0814576975
 23
0.2034524818
 33
0.0
 40
0.0
 40
0.0
 40
0.0
 40
0.0
 40
0.5104799603
 40
1.0
 40
1.0
 40
1.0
 40
1.0
 10
1.923054097
 20
-23.9711440449
 30
0.0
 10
1.9362651317
 20
-23.9362714298
 30
0.0
 10
1.9501631405
 20
-23.8628835151
 30
0.0
 10
1.9376680374
 20
-23.7888191908
 30
0.0
 10
1.9243763123
 20
-23.7556211685
 30
0.0
 11
1.923054097
 21
-23.9711440449
 31
0.0
 11
1.9435766662
 21
-23.8611690448
 31
0.0
 11
1.9243763123
 21
-23.7556211685
 31
0.0
  0
SPLINE
  5
48A
100
AcDbEntity
  8
SUPERFICI
100
AcDbSpline
 62
253
  6
CONTINUOUS
 70
0
 71
3
 72
9
 73
5
 74
3
 42
0.0000001
 43
0.0000001
 44
0.0000000001
 12
-0.0487203953
 22
0.1216862942
 32
0.0
 13
-0.11365913
 23
0.0652903765
 33
0.0
 40
0.0
 40
0.0
 40
0.0
 40
0.0
 40
0.5182045723
 40
1.0
 40
1.0
 40
1.0
 40
1.0
 10
1.9243763123
 20
-23.7556211685
 30
0.0
 10
1.9159606018
 20
-23.7346017038
 30
0.0
 10
1.893992999
 20
-23.6959524542
 30
0.0
 10
1.8602262017
 20
-23.6665300843
 30
0.0
 10
1.8419727186
 20
-23.6560445494
 30
0.0
 11
1.9243763123
 21
-23.7556211685
 31
0.0
 11
1.8900246691
 21
-23.6970230173
 31
0.0
 11
1.8419727186
 21
-23.6560445494
 31
0.0
  0
SPLINE
  5
48B
100
AcDbEntity
  8
DRAFT
100
AcDbSpline
 62
7
  6
CONTINUOUS
 70
0
 71
3
 72
9
 73
5
 74
3
 42
0.0000001
 43
0.0000001
 44
0.0000000001
 12
-0.4184042235
 22
-1.329412825
 32
0.0
 13
-0.0482342041
 23
-1.3928653973
 33
0.0
 40
0.0
 40
0.0
 40
0.0
 40
0.0
 40
0.2375960357
 40
1.0
 40
1.0
 40
1.0
 40
1.0
 10
-11.9552339327
 20
-9.4807413523
 30
0.0
 10
-11.9883709943
 20
-9.5860290913
 30
0.0
 10
-12.1104043059
 20
-10.0346226898
 30
0.0
 10
-12.1655582407
 20
-10.5000969038
 30
0.0
 10
-12.1778162235
 20
-10.8540722707
 30
0.0
 11
-11.9552339327
 21
-9.4807413523
 31
0.0
 11
-12.0425847901
 21
-9.800150155
 31
0.0
 11
-12.1778162235
 21
-10.8540722707
 31
0.0
  0
SPLINE
  5
48C
100
AcDbEntity
  8
DRAFT
100
AcDbSpline
 62
7
  6
CONTINUOUS
 70
0
 71
3
 72
9
 73
5
 74
3
 42
0.0000001
 43
0.0000001
 44
0.0000000001
 12
0.6724386666
 22
-0.4689027206
 32
0.0
 13
0.7332358538
 23
-0.3666179269
 33
0.0
 40
0.0
 40
0.0
 40
0.0
 40
0.0
 40
0.2570668852
 40
1.0
 40
1.0
 40
1.0
 40
1.0
 10
-8.4654625738
 20
-18.2795977918
 30
0.0
 10
-8.4078420026
 20
-18.3197775791
 30
0.0
 10
-8.1811007639
 20
-18.4722955339
 30
0.0
 10
-7.9438276233
 20
-18.6093781349
 30
0.0
 10
-7.7622458911
 20
-18.7001690011
 30
0.0
 11
-8.4654625738
 21
-18.2795977918
 31
0.0
 11
-8.2905706909
 21
-18.3971721898
 31
0.0
 11
-7.7622458911
 21
-18.7001690011
 31
0.0
  0
SPLINE
  5
48D
100
AcDbEntity
  8
SUPERFICI
100
AcDbSpline
 62
253
  6
CONTINUOUS
 70
0
 71
3
 72
11
 73
7
 74
5
 42
0.0000001
 43
0.0000001
 44
0.0000000001
 12
-0.0000878089
 22
-0.1191364598
 32
0.0
 13
-0.1063089132
 23
-0.0537765631
 33
0.0
 40
0.0
 40
0.0
 40
0.0
 40
0.0
 40
0.2069627567
 40
0.4350769791
 40
0.6978259828
 40
1.0
 40
1.0
 40
1.0
 40
1.0
 10
1.9952516789
 20
-24.2308493467
 30
0.0
 10
1.9952456212
 20
-24.2390682835
 30
0.0
 10
1.9916369137
 20
-24.2564750602
 30
0.0
 10
1.9765851281
 20
-24.2802561301
 30
0.0
 10
1.9531138764
 20
-24.3016555918
 30
0.0
 10
1.9337620275
 20
-24.3132589349
 30
0.0
 10
1.923054097
 20
-24.3186755616
 30
0.0
 11
1.9952516789
 21
-24.2308493467
 31
0.0
 11
1.9905054085
 21
-24.2550450392
 31
0.0
 11
1.9764812348
 21
-24.2783237229
 31
0.0
 11
1.9537113583
 21
-24.2998041836
 31
0.0
 11
1.923054097
 21
-24.3186755616
 31
0.0
  0
SPLINE
  5
48E
100
AcDbEntity
  8
SUPERFICI
100
AcDbSpline
 62
253
  6
CONTINUOUS
 70
0
 71
3
 72
11
 73
7
 74
5
 42
0.0000001
 43
0.0000001
 44
0.0000000001
 12
-0.0001314892
 22
-0.1191137968
 32
0.0
 13
-0.1062887262
 23
-0.0537663515
 33
0.0
 40
0.0
 40
0.0
 40
0.0
 40
0.0
 40
0.2069628753
 40
0.4350842023
 40
0.6978349259
 40
1.0
 40
1.0
 40
1.0
 40
1.0
 10
1.9952516578
 20
17.763794879
 30
0.0
 10
1.9952425867
 20
17.755577501
 30
0.0
 10
1.9916289771
 20
17.7381752253
 30
0.0
 10
1.9765759371
 20
17.7144012954
 30
0.0
 10
1.9531077215
 20
17.6930077163
 30
0.0
 10
1.9337596773
 20
17.6814070491
 30
0.0
 10
1.923054097
 20
17.6759916113
 30
0.0
 11
1.9952516578
 21
17.763794879
 31
0.0
 11
1.9904987314
 21
17.7396052503
 31
0.0
 11
1.9764725093
 21
17.716332838
 31
0.0
 11
1.9537050246
 21
17.6948582057
 31
0.0
 11
1.923054097
 21
17.6759916113
 31
0.0
  0
SPLINE
  5
48F
100
AcDbEntity
  8
DRAFT
100
AcDbSpline
 62
7
  6
CONTINUOUS
 70
0
 71
3
 72
9
 73
5
 74
3
 42
0.0000001
 43
0.0000001
 44
0.0000000001
 12
-0.4154873392
 22
-1.3253648917
 32
0.0
 13
-0.0480702968
 23
-1.3881322241
 33
0.0
 40
0.0
 40
0.0
 40
0.0
 40
0.0
 40
0.2376432439
 40
1.0
 40
1.0
 40
1.0
 40
1.0
 10
-11.9566592722
 20
2.812281652
 30
0.0
 10
-11.9895718586
 20
2.7072936479
 30
0.0
 10
-12.1107678876
 20
2.2601132965
 30
0.0
 10
-12.1656006517
 20
1.7962391228
 30
0.0
 10
-12.1778162235
 20
1.4434884631
 30
0.0
 11
-11.9566592722
 21
2.812281652
 31
0.0
 11
-12.0434268739
 21
2.4938120971
 31
0.0
 11
-12.1778162235
 21
1.4434884631
 31
0.0
  0
SPLINE
  5
490
100
AcDbEntity
  8
DRAFT
100
AcDbSpline
 62
7
  6
CONTINUOUS
 70
0
 71
3
 72
9
 73
5
 74
3
 42
0.0000001
 43
0.0000001
 44
0.0000000001
 12
0.6724386666
 22
-0.4689027206
 32
0.0
 13
0.7332358538
 23
-0.3666179269
 33
0.0
 40
0.0
 40
0.0
 40
0.0
 40
0.0
 40
0.2570668852
 40
1.0
 40
1.0
 40
1.0
 40
1.0
 10
-8.4654625738
 20
-5.9820370581
 30
0.0
 10
-8.4078420026
 20
-6.0222168454
 30
0.0
 10
-8.1811007639
 20
-6.1747348001
 30
0.0
 10
-7.9438276233
 20
-6.3118174012
 30
0.0
 10
-7.7622458911
 20
-6.4026082673
 30
0.0
 11
-8.4654625738
 21
-5.9820370581
 31
0.0
 11
-8.2905706909
 21
-6.0996114561
 31
0.0
 11
-7.7622458911
 21
-6.4026082673
 31
0.0
  0
SPLINE
  5
491
100
AcDbEntity
  8
SUPERFICI
100
AcDbSpline
 62
253
  6
CONTINUOUS
 70
0
 71
3
 72
9
 73
5
 74
3
 42
0.0000001
 43
0.0000001
 44
0.0000000001
 12
-0.1019711656
 22
0.0508457373
 32
0.0
 13
-0.1022049222
 23
-0.0503742145
 33
0.0
 40
0.0
 40
0.0
 40
0.0
 40
0.0
 40
0.4641793291
 40
1.0
 40
1.0
 40
1.0
 40
1.0
 10
-10.4466914796
 20
24.1393442369
 30
0.0
 10
-10.4624691154
 20
24.147211417
 30
0.0
 10
-10.501962161
 20
24.1538621474
 30
0.0
 10
-10.539123096
 20
24.1417073282
 30
0.0
 10
-10.5573775993
 20
24.1327101464
 30
0.0
 11
-10.4466914796
 21
24.1393442369
 31
0.0
 11
-10.498630344
 21
24.1493337904
 31
0.0
 11
-10.5573775993
 21
24.1327101464
 31
0.0
  0
SPLINE
  5
492
100
AcDbEntity
  8
SUPERFICI
100
AcDbSpline
 62
253
  6
CONTINUOUS
 70
0
 71
3
 72
9
 73
5
 74
3
 42
0.0000001
 43
0.0000001
 44
0.0000000001
 12
0.1036130423
 22
0.0530247146
 32
0.0
 13
0.1043468821
 23
-0.0515655999
 33
0.0
 40
0.0
 40
0.0
 40
0.0
 40
0.0
 40
0.4633278693
 40
1.0
 40
1.0
 40
1.0
 40
1.0
 10
-14.4784689144
 20
23.9123074241
 30
0.0
 10
-14.4624666444
 20
23.9204967001
 30
0.0
 10
-14.4220960523
 20
23.9275003959
 30
0.0
 10
-14.3841303201
 20
23.9150429649
 30
0.0
 10
-14.3654636323
 20
23.9058183581
 30
0.0
 11
-14.4784689144
 21
23.9123074241
 31
0.0
 11
-14.4255732614
 21
23.9228089421
 31
0.0
 11
-14.3654636323
 21
23.9058183581
 31
0.0
  0
SPLINE
  5
493
100
AcDbEntity
  8
DRAFT
100
AcDbSpline
 62
7
  6
CONTINUOUS
 70
0
 71
3
 72
10
 73
6
 74
4
 42
0.0000001
 43
0.0000001
 44
0.0000000001
 12
-0.8326337626
 22
-1.7444139601
 32
0.0
 13
-0.0668966253
 23
-1.9317825675
 33
0.0
 40
0.0
 40
0.0
 40
0.0
 40
0.0
 40
0.2317339165
 40
0.6019105647
 40
1.0
 40
1.0
 40
1.0
 40
1.0
 10
-11.7589771101
 20
15.6159657544
 30
0.0
 10
-11.8232936044
 20
15.4812191281
 30
0.0
 10
-11.9680704928
 20
15.1203206796
 30
0.0
 10
-12.1216412128
 20
14.4918322815
 30
0.0
 10
-12.1689392769
 20
13.9973899406
 30
0.0
 10
-12.1778162235
 20
13.7410491968
 30
0.0
 11
-11.7589771101
 21
15.6159657544
 31
0.0
 11
-11.9270128728
 21
15.2007509122
 31
0.0
 11
-12.1009440939
 21
14.5066829668
 31
0.0
 11
-12.1778162235
 21
13.7410491968
 31
0.0
  0
SPLINE
  5
494
100
AcDbEntity
  8
DRAFT
100
AcDbSpline
 62
7
  6
CONTINUOUS
 70
0
 71
3
 72
9
 73
5
 74
3
 42
0.0000001
 43
0.0000001
 44
0.0000000001
 12
0.6724386666
 22
-0.4689027206
 32
0.0
 13
0.7332358538
 23
-0.3666179269
 33
0.0
 40
0.0
 40
0.0
 40
0.0
 40
0.0
 40
0.2570668852
 40
1.0
 40
1.0
 40
1.0
 40
1.0
 10
-8.4654625738
 20
6.3155236757
 30
0.0
 10
-8.4078420026
 20
6.2753438884
 30
0.0
 10
-8.1811007639
 20
6.1228259336
 30
0.0
 10
-7.9438276233
 20
5.9857433325
 30
0.0
 10
-7.7622458911
 20
5.8949524664
 30
0.0
 11
-8.4654625738
 21
6.3155236757
 31
0.0
 11
-8.2905706909
 21
6.1979492776
 31
0.0
 11
-7.7622458911
 21
5.8949524664
 31
0.0
  0
SPLINE
  5
495
100
AcDbEntity
  8
SUPERFICI
100
AcDbSpline
 62
253
  6
CONTINUOUS
 70
0
 71
3
 72
10
 73
6
 74
4
 42
0.0000001
 43
0.0000001
 44
0.0000000001
 12
0.0394099586
 22
-0.0641576152
 32
0.0
 13
-0.0476287483
 23
-0.0583167794
 33
0.0
 40
0.0
 40
0.0
 40
0.0
 40
0.0
 40
0.3488607362
 40
0.6280151031
 40
1.0
 40
1.0
 40
1.0
 40
1.0
 10
1.923054097
 20
17.3284600945
 30
0.0
 10
1.9276369594
 20
17.3209994036
 30
0.0
 10
1.9352445846
 20
17.3069682745
 30
0.0
 10
1.944091889
 20
17.2840780687
 30
0.0
 10
1.9443565757
 20
17.2649002391
 30
0.0
 10
1.9384508507
 20
17.2576692521
 30
0.0
 11
1.923054097
 21
17.3284600945
 31
0.0
 11
1.9354559802
 21
17.3053046604
 31
0.0
 11
1.9422604087
 21
17.2854175876
 31
0.0
 11
1.9384508507
 21
17.2576692521
 31
0.0
  0
SPLINE
  5
496
100
AcDbEntity
  8
SUPERFICI
100
AcDbSpline
 62
253
  6
CONTINUOUS
 70
0
 71
3
 72
9
 73
5
 74
3
 42
0.0000001
 43
0.0000001
 44
0.0000000001
 12
0.1036396474
 22
0.053164101
 32
0.0
 13
0.1044250911
 23
-0.0516042488
 33
0.0
 40
0.0
 40
0.0
 40
0.0
 40
0.0
 40
0.4633167549
 40
1.0
 40
1.0
 40
1.0
 40
1.0
 10
-2.1748912669
 20
17.760437261
 30
0.0
 10
-2.1588852718
 20
17.7686478673
 30
0.0
 10
-2.1184846573
 20
17.7756853906
 30
0.0
 10
-2.0804867052
 20
17.7632210736
 30
0.0
 10
-2.0618056396
 20
17.7539893617
 30
0.0
 11
-2.1748912669
 21
17.760437261
 31
0.0
 11
-2.1219644699
 21
17.7709827601
 31
0.0
 11
-2.0618056396
 21
17.7539893617
 31
0.0
  0
SPLINE
  5
497
100
AcDbEntity
  8
SUPERFICI
100
AcDbSpline
 62
253
  6
CONTINUOUS
 70
0
 71
3
 72
11
 73
7
 74
5
 42
0.0000001
 43
0.0000001
 44
0.0000000001
 12
0.0
 22
0.2927347425
 32
0.0
 13
0.2610815641
 23
0.1324010815
 33
0.0
 40
0.0
 40
0.0
 40
0.0
 40
0.0
 40
0.2465991961
 40
0.5114081749
 40
0.7699752441
 40
1.0
 40
1.0
 40
1.0
 40
1.0
 10
-5.2855155236
 20
20.0079210817
 30
0.0
 10
-5.2855155236
 20
20.0319837991
 30
0.0
 10
-5.2772413287
 20
20.0819717852
 30
0.0
 10
-5.2472544471
 20
20.1515481116
 30
0.0
 10
-5.2031429663
 20
20.2111473306
 30
0.0
 10
-5.1649353265
 20
20.2412706915
 30
0.0
 10
-5.1449169188
 20
20.2514225336
 30
0.0
 11
-5.2855155236
 21
20.0079210817
 31
0.0
 11
-5.2748288592
 21
20.07931383
 31
0.0
 11
-5.2443846646
 21
20.1506041768
 31
0.0
 11
-5.1987830352
 21
20.2110169596
 31
0.0
 11
-5.1449169188
 21
20.2514225336
 31
0.0
  0
SPLINE
  5
498
100
AcDbEntity
  8
SUPERFICI
100
AcDbSpline
 62
253
  6
CONTINUOUS
 70
0
 71
3
 72
9
 73
5
 74
3
 42
0.0000001
 43
0.0000001
 44
0.0000000001
 12
0.0975881115
 22
0.0345244798
 32
0.0
 13
0.0923710692
 23
-0.0467222087
 33
0.0
 40
0.0
 40
0.0
 40
0.0
 40
0.0
 40
0.4657827872
 40
1.0
 40
1.0
 40
1.0
 40
1.0
 10
-0.0453008218
 20
18.8381633075
 30
0.0
 10
-0.0301492009
 20
18.8435236103
 30
0.0
 10
0.0056789317
 20
18.8463196223
 30
0.0
 10
0.0389521038
 20
18.8346408617
 30
0.0
 10
0.0554008422
 20
18.8263209256
 30
0.0
 11
-0.0453008218
 21
18.8381633075
 31
0.0
 11
0.0026727461
 21
18.8429879247
 31
0.0
 11
0.0554008422
 21
18.8263209256
 31
0.0
  0
SPLINE
  5
499
100
AcDbEntity
  8
SUPERFICI
100
AcDbSpline
 62
7
  6
CONTINUOUS
 70
0
 71
3
 72
9
 73
5
 74
3
 42
0.0000001
 43
0.0000001
 44
0.0000000001
 12
0.1026923057
 22
0.0500197096
 32
0.0
 13
0.1021672394
 23
-0.0510836197
 33
0.0
 40
0.0
 40
0.0
 40
0.0
 40
0.0
 40
0.4638305674
 40
1.0
 40
1.0
 40
1.0
 40
1.0
 10
-0.5899811526
 20
18.5735034721
 30
0.0
 10
-0.5741038758
 20
18.5812370288
 30
0.0
 10
-0.5344638481
 20
18.5875280051
 30
0.0
 10
-0.4973086867
 20
18.5751032842
 30
0.0
 10
-0.4790490365
 20
18.5659734591
 30
0.0
 11
-0.5899811526
 21
18.5735034721
 31
0.0
 11
-0.5378659539
 21
18.5830464505
 31
0.0
 11
-0.4790490365
 21
18.5659734591
 31
0.0
  0
SPLINE
  5
49A
100
AcDbEntity
  8
SUPERFICI
100
AcDbSpline
 62
253
  6
CONTINUOUS
 70
0
 71
3
 72
9
 73
5
 74
3
 42
0.0000001
 43
0.0000001
 44
0.0000000001
 12
-0.10200315
 22
0.0509965498
 32
0.0
 13
-0.1022910174
 23
-0.0504166487
 33
0.0
 40
0.0
 40
0.0
 40
0.0
 40
0.0
 40
0.4641675224
 40
1.0
 40
1.0
 40
1.0
 40
1.0
 10
1.8570552896
 20
17.9874709145
 30
0.0
 10
1.8412731064
 20
17.9953612286
 30
0.0
 10
1.8017469878
 20
18.002048388
 30
0.0
 10
1.7645506764
 20
17.9898861093
 30
0.0
 10
1.7462803933
 20
17.9808811501
 30
0.0
 11
1.8570552896
 21
17.9874709145
 31
0.0
 11
1.8050815858
 21
17.9975080135
 31
0.0
 11
1.7462803933
 21
17.9808811501
 31
0.0
  0
SPLINE
  5
49B
100
AcDbEntity
  8
SUPERFICI
100
AcDbSpline
 62
253
  6
CONTINUOUS
 70
0
 71
3
 72
9
 73
5
 74
3
 42
0.0000001
 43
0.0000001
 44
0.0000000001
 12
-0.102003147
 22
0.050996529
 32
0.0
 13
-0.1022910066
 23
-0.0504166433
 33
0.0
 40
0.0
 40
0.0
 40
0.0
 40
0.0
 40
0.464167748
 40
1.0
 40
1.0
 40
1.0
 40
1.0
 10
0.1661757275
 20
18.8329106964
 30
0.0
 10
0.1503935372
 20
18.8408010111
 30
0.0
 10
0.1108674199
 20
18.8474881602
 30
0.0
 10
0.0736711157
 20
18.8353258802
 30
0.0
 10
0.0554008422
 20
18.8263209256
 30
0.0
 11
0.1661757275
 21
18.8329106964
 31
0.0
 11
0.1142020017
 21
18.8429477874
 31
0.0
 11
0.0554008422
 21
18.8263209256
 31
0.0
  0
SPLINE
  5
49C
100
AcDbEntity
  8
SUPERFICI
100
AcDbSpline
 62
253
  6
CONTINUOUS
 70
0
 71
3
 72
9
 73
5
 74
3
 42
0.0000001
 43
0.0000001
 44
0.0000000001
 12
-0.0972978999
 22
0.0353697585
 32
0.0
 13
-0.0928607827
 23
-0.0457687251
 33
0.0
 40
0.0
 40
0.0
 40
0.0
 40
0.0
 40
0.4658745477
 40
1.0
 40
1.0
 40
1.0
 40
1.0
 10
-12.1474239245
 20
24.989013649
 30
0.0
 10
-12.1625334628
 20
24.9945062724
 30
0.0
 10
-12.1983312882
 20
24.9976349639
 30
0.0
 10
-12.2317240479
 20
24.986298669
 30
0.0
 10
-12.2482571505
 20
24.978149922
 30
0.0
 11
-12.1474239245
 21
24.989013649
 31
0.0
 11
-12.195366061
 21
24.9942819603
 31
0.0
 11
-12.2482571505
 21
24.978149922
 31
0.0
  0
SPLINE
  5
49D
100
AcDbEntity
  8
SUPERFICI
100
AcDbSpline
 62
253
  6
CONTINUOUS
 70
0
 71
3
 72
11
 73
7
 74
5
 42
0.0000001
 43
0.0000001
 44
0.0000000001
 12
0.0
 22
0.2927347425
 32
0.0
 13
0.2610815641
 23
0.1324010815
 33
0.0
 40
0.0
 40
0.0
 40
0.0
 40
0.0
 40
0.2465991961
 40
0.5114081749
 40
0.7699752441
 40
1.0
 40
1.0
 40
1.0
 40
1.0
 10
-6.9862850651
 20
20.8583058524
 30
0.0
 10
-6.9862850651
 20
20.8823685698
 30
0.0
 10
-6.9780108701
 20
20.9323565559
 30
0.0
 10
-6.9480239886
 20
21.0019328824
 30
0.0
 10
-6.9039125077
 20
21.0615321014
 30
0.0
 10
-6.865704868
 20
21.0916554622
 30
0.0
 10
-6.8456864603
 20
21.1018073044
 30
0.0
 11
-6.9862850651
 21
20.8583058524
 31
0.0
 11
-6.9755984007
 21
20.9296986008
 31
0.0
 11
-6.9451542061
 21
21.0009889475
 31
0.0
 11
-6.8995525767
 21
21.0614017303
 31
0.0
 11
-6.8456864603
 21
21.1018073044
 31
0.0
  0
SPLINE
  5
49E
100
AcDbEntity
  8
SUPERFICI
100
AcDbSpline
 62
253
  6
CONTINUOUS
 70
0
 71
3
 72
9
 73
5
 74
3
 42
0.0000001
 43
0.0000001
 44
0.0000000001
 12
0.1023513264
 22
0.0498536012
 32
0.0
 13
0.1015908034
 23
-0.0513856423
 33
0.0
 40
0.0
 40
0.0
 40
0.0
 40
0.0
 40
0.4641049814
 40
1.0
 40
1.0
 40
1.0
 40
1.0
 10
-12.3587691797
 20
24.9858845734
 30
0.0
 10
-12.3429352596
 20
24.9935970083
 30
0.0
 10
-12.303407592
 20
24.9998591678
 30
0.0
 10
-12.2664044856
 20
24.9873290252
 30
0.0
 10
-12.2482571505
 20
24.978149922
 30
0.0
 11
-12.3587691797
 21
24.9858845734
 31
0.0
 11
-12.3067890586
 21
24.9953618687
 31
0.0
 11
-12.2482571505
 21
24.978149922
 31
0.0
  0
SPLINE
  5
49F
100
AcDbEntity
  8
SUPERFICI
100
AcDbSpline
 62
7
  6
CONTINUOUS
 70
0
 71
3
 72
9
 73
5
 74
3
 42
0.0000001
 43
0.0000001
 44
0.0000000001
 12
0.1026923057
 22
0.0500197096
 32
0.0
 13
0.1021672394
 23
-0.0510836197
 33
0.0
 40
0.0
 40
0.0
 40
0.0
 40
0.0
 40
0.4638305674
 40
1.0
 40
1.0
 40
1.0
 40
1.0
 10
-12.8936391452
 20
24.7253324684
 30
0.0
 10
-12.8777618684
 20
24.7330660252
 30
0.0
 10
-12.8381218408
 20
24.7393570015
 30
0.0
 10
-12.8009666794
 20
24.7269322805
 30
0.0
 10
-12.7827070291
 20
24.7178024554
 30
0.0
 11
-12.8936391452
 21
24.7253324684
 31
0.0
 11
-12.8415239465
 21
24.7348754468
 31
0.0
 11
-12.7827070291
 21
24.7178024554
 31
0.0
  0
SPLINE
  5
4A0
100
AcDbEntity
  8
SUPERFICI
100
AcDbSpline
 62
253
  6
CONTINUOUS
 70
0
 71
3
 72
10
 73
6
 74
4
 42
0.0000001
 43
0.0000001
 44
0.0000000001
 12
0.039436758
 22
-0.0642012433
 32
0.0
 13
-0.0478272468
 23
-0.0582203744
 33
0.0
 40
0.0
 40
0.0
 40
0.0
 40
0.0
 40
0.3489918875
 40
0.6281610578
 40
1.0
 40
1.0
 40
1.0
 40
1.0
 10
-10.3806038956
 20
23.4802890908
 30
0.0
 10
-10.3760161928
 20
23.4728205198
 30
0.0
 10
-10.3684031871
 20
23.4587752467
 30
0.0
 10
-10.3595520461
 20
23.4358702171
 30
0.0
 10
-10.359315384
 20
23.416670189
 30
0.0
 10
-10.3652433949
 20
23.4094539882
 30
0.0
 11
-10.3806038956
 21
23.4802890908
 31
0.0
 11
-10.3681906805
 21
23.4571082533
 31
0.0
 11
-10.3613883733
 21
23.4372041705
 31
0.0
 11
-10.3652433949
 21
23.4094539882
 31
0.0
  0
SPLINE
  5
4A1
100
AcDbEntity
  8
SUPERFICI
100
AcDbSpline
 62
253
  6
CONTINUOUS
 70
0
 71
3
 72
10
 73
6
 74
4
 42
0.0000001
 43
0.0000001
 44
0.0000000001
 12
-0.1013101571
 22
0.0506550786
 32
0.0
 13
-0.0117594147
 23
0.1126561187
 33
0.0
 40
0.0
 40
0.0
 40
0.0
 40
0.0
 40
0.3014435647
 40
0.5660645182
 40
1.0
 40
1.0
 40
1.0
 40
1.0
 10
-14.5412118883
 20
23.261467609
 30
0.0
 10
-14.5513916532
 20
23.2665574915
 30
0.0
 10
-14.5699279502
 20
23.277517194
 30
0.0
 10
-14.598566434
 20
23.3020524559
 30
0.0
 10
-14.6123941076
 20
23.3270430884
 30
0.0
 10
-14.61409505
 20
23.3433382508
 30
0.0
 11
-14.5412118883
 21
23.261467609
 31
0.0
 11
-14.5704743905
 21
23.2790606936
 31
0.0
 11
-14.5928310038
 21
23.2990249341
 31
0.0
 11
-14.61409505
 21
23.3433382508
 31
0.0
  0
SPLINE
  5
4A2
100
AcDbEntity
  8
SUPERFICI
100
AcDbSpline
 62
253
  6
CONTINUOUS
 70
0
 71
3
 72
11
 73
7
 74
5
 42
0.0000001
 43
0.0000001
 44
0.0000000001
 12
-0.1076203556
 22
0.0538101778
 32
0.0
 13
-0.0000006378
 23
0.1203232155
 33
0.0
 40
0.0
 40
0.0
 40
0.0
 40
0.0
 40
0.3025799362
 40
0.5654849533
 40
0.7934323367
 40
1.0
 40
1.0
 40
1.0
 40
1.0
 10
-14.5412118883
 20
23.6014415431
 30
0.0
 10
-14.552066475
 20
23.6068688365
 30
0.0
 10
-14.5716848933
 20
23.6185087948
 30
0.0
 10
-14.5954967167
 20
23.6400289189
 30
0.0
 10
-14.6107758476
 20
23.6639835512
 30
0.0
 10
-14.614434891
 20
23.6815449113
 30
0.0
 10
-14.6144349349
 20
23.6898298731
 30
0.0
 11
-14.5412118883
 21
23.6014415431
 31
0.0
 11
-14.572303313
 21
23.6203841253
 31
0.0
 11
-14.5954048056
 21
23.6419944061
 31
0.0
 11
-14.6096314278
 21
23.6654435726
 31
0.0
 11
-14.6144349349
 21
23.6898298731
 31
0.0
  0
SPLINE
  5
4A3
100
AcDbEntity
  8
SUPERFICI
100
AcDbSpline
 62
7
  6
CONTINUOUS
 70
0
 71
3
 72
9
 73
5
 74
3
 42
0.0000001
 43
0.0000001
 44
0.0000000001
 12
-0.0349501026
 22
0.017458187
 32
0.0
 13
-0.0380939127
 23
-0.0086690125
 33
0.0
 40
0.0
 40
0.0
 40
0.0
 40
0.0
 40
0.3662779768
 40
1.0
 40
1.0
 40
1.0
 40
1.0
 10
2.7974051088
 20
21.8862436041
 30
0.0
 10
2.7931379578
 20
21.8883751205
 30
0.0
 10
2.7794304273
 20
21.8887604213
 30
0.0
 10
2.7668115362
 20
21.8864065722
 30
0.0
 10
2.7587645524
 20
21.8845753241
 30
0.0
 11
2.7974051088
 21
21.8862436041
 31
0.0
 11
2.7832424761
 21
21.8882898918
 31
0.0
 11
2.7587645524
 21
21.8845753241
 31
0.0
  0
SPLINE
  5
4A4
100
AcDbEntity
  8
SUPERFICI
100
AcDbSpline
 62
7
  6
CONTINUOUS
 70
0
 71
3
 72
9
 73
5
 74
3
 42
0.0000001
 43
0.0000001
 44
0.0000000001
 12
-0.0894768801
 22
-0.0203622085
 32
0.0
 13
-0.0856926695
 23
-0.0328252647
 33
0.0
 40
0.0
 40
0.0
 40
0.0
 40
0.0
 40
0.4252126193
 40
1.0
 40
1.0
 40
1.0
 40
1.0
 10
2.7587645524
 20
21.8845753241
 30
0.0
 10
2.7460823195
 20
21.8816892348
 30
0.0
 10
2.7167398616
 20
21.8728633571
 30
0.0
 10
2.6880072937
 20
21.8623688743
 30
0.0
 10
2.6715889387
 20
21.8560796916
 30
0.0
 11
2.7587645524
 21
21.8845753241
 31
0.0
 11
2.7212390244
 21
21.8738817922
 31
0.0
 11
2.6715889387
 21
21.8560796916
 31
0.0
  0
SPLINE
  5
4A5
100
AcDbEntity
  8
SUPERFICI
100
AcDbSpline
 62
7
  6
CONTINUOUS
 70
0
 71
3
 72
9
 73
5
 74
3
 42
0.0000001
 43
0.0000001
 44
0.0000000001
 12
-0.0215386085
 22
0.0107059222
 32
0.0
 13
-0.0238155436
 23
-0.0033687251
 33
0.0
 40
0.0
 40
0.0
 40
0.0
 40
0.0
 40
0.3947589851
 40
1.0
 40
1.0
 40
1.0
 40
1.0
 10
-2.793064425
 20
24.6814783327
 30
0.0
 10
-2.7958986114
 20
24.6828870857
 30
0.0
 10
-2.8041111328
 20
24.6840330533
 30
0.0
 10
-2.812067867
 20
24.6832768992
 30
0.0
 10
-2.8168725816
 20
24.682597269
 30
0.0
 11
-2.793064425
 21
24.6814783327
 31
0.0
 11
-2.8023426842
 21
24.6834954312
 31
0.0
 11
-2.8168725816
 21
24.682597269
 31
0.0
  0
SPLINE
  5
4A6
100
AcDbEntity
  8
SUPERFICI
100
AcDbSpline
 62
253
  6
CONTINUOUS
 70
0
 71
3
 72
11
 73
7
 74
5
 42
0.0000001
 43
0.0000001
 44
0.0000000001
 12
0.0
 22
-0.1574306117
 32
0.0
 13
0.1408096926
 23
-0.0704061643
 33
0.0
 40
0.0
 40
0.0
 40
0.0
 40
0.0
 40
0.2897460728
 40
0.5495880269
 40
0.7828491409
 40
1.0
 40
1.0
 40
1.0
 40
1.0
 10
-12.8626738179
 20
22.4221985738
 30
0.0
 10
-12.8626738179
 20
22.4069936066
 30
0.0
 10
-12.86022011
 20
22.3780432511
 30
0.0
 10
-12.8478462546
 20
22.3384488661
 30
0.0
 10
-12.8271803915
 20
22.3067490671
 30
0.0
 10
-12.80789285
 20
22.2920763268
 30
0.0
 10
-12.7977005348
 20
22.2869800738
 30
0.0
 11
-12.8626738179
 21
22.4221985738
 31
0.0
 11
-12.858354111
 21
22.3767886699
 31
0.0
 11
-12.8456063519
 21
22.3379185831
 31
0.0
 11
-12.8250535633
 21
22.3074863556
 31
0.0
 11
-12.7977005348
 21
22.2869800738
 31
0.0
  0
SPLINE
  5
4A7
100
AcDbEntity
  8
SUPERFICI
100
AcDbSpline
 62
253
  6
CONTINUOUS
 70
0
 71
3
 72
10
 73
6
 74
4
 42
0.0000001
 43
0.0000001
 44
0.0000000001
 12
0.0
 22
-0.1483686233
 32
0.0
 13
0.1259714252
 23
-0.0783865321
 33
0.0
 40
0.0
 40
0.0
 40
0.0
 40
0.0
 40
0.5466520531
 40
0.782020449
 40
1.0
 40
1.0
 40
1.0
 40
1.0
 10
-14.5412118883
 20
23.261467609
 30
0.0
 10
-14.5412118883
 20
23.2344322715
 30
0.0
 10
-14.5353871043
 20
23.1946322213
 30
0.0
 10
-14.5100704497
 20
23.151499029
 30
0.0
 10
-14.4930163634
 20
23.1362116718
 30
0.0
 10
-14.4838632985
 20
23.1305161182
 30
0.0
 11
-14.5412118883
 21
23.261467609
 31
0.0
 11
-14.5262406558
 21
23.1817553297
 31
0.0
 11
-14.508127009
 21
23.1518991422
 31
0.0
 11
-14.4838632985
 21
23.1305161182
 31
0.0
  0
SPLINE
  5
4A8
100
AcDbEntity
  8
SUPERFICI
100
AcDbSpline
 62
253
  6
CONTINUOUS
 70
0
 71
3
 72
11
 73
7
 74
5
 42
0.0000001
 43
0.0000001
 44
0.0000000001
 12
0.3239339031
 22
-0.1619669516
 32
0.0
 13
0.3246816256
 23
0.1604627963
 33
0.0
 40
0.0
 40
0.0
 40
0.0
 40
0.0
 40
0.2351711086
 40
0.4995790016
 40
0.7642134063
 40
1.0
 40
1.0
 40
1.0
 40
1.0
 10
-12.8626738179
 20
22.7621725079
 30
0.0
 10
-12.8372805195
 20
22.7494758587
 30
0.0
 10
-12.7789363808
 20
22.7313315604
 30
0.0
 10
-12.6866013245
 20
22.7225759049
 30
0.0
 10
-12.594166977
 20
22.731077981
 30
0.0
 10
-12.535670383
 20
22.7490481253
 30
0.0
 10
-12.5101518582
 20
22.761659784
 30
0.0
 11
-12.8626738179
 21
22.7621725079
 31
0.0
 11
-12.7819039286
 21
22.7351457526
 31
0.0
 11
-12.6866243858
 21
22.725561514
 31
0.0
 11
-12.5912349281
 21
22.7348684199
 31
0.0
 11
-12.5101518582
 21
22.761659784
 31
0.0
  0
SPLINE
  5
4A9
100
AcDbEntity
  8
SUPERFICI
100
AcDbSpline
 62
253
  6
CONTINUOUS
 70
0
 71
3
 72
11
 73
7
 74
5
 42
0.0000001
 43
0.0000001
 44
0.0000000001
 12
0.323933903
 22
-0.1619669515
 32
0.0
 13
0.3246816254
 23
0.1604627962
 33
0.0
 40
0.0
 40
0.0
 40
0.0
 40
0.0
 40
0.2351712695
 40
0.4995791233
 40
0.7642134642
 40
1.0
 40
1.0
 40
1.0
 40
1.0
 10
-12.8626738179
 20
22.4221985738
 30
0.0
 10
-12.8372805021
 20
22.4095019159
 30
0.0
 10
-12.7789363461
 20
22.3913576202
 30
0.0
 10
-12.686601283
 20
22.3826019714
 30
0.0
 10
-12.5941669554
 20
22.391104052
 30
0.0
 10
-12.5356703768
 20
22.4090741943
 30
0.0
 10
-12.5101518582
 20
22.4216858499
 30
0.0
 11
-12.8626738179
 21
22.4221985738
 31
0.0
 11
-12.7819038709
 21
22.3951718073
 31
0.0
 11
-12.6866243413
 21
22.3855875797
 31
0.0
 11
-12.5912349072
 21
22.3948944898
 31
0.0
 11
-12.5101518582
 21
22.4216858499
 31
0.0
  0
SPLINE
  5
4AA
100
AcDbEntity
  8
SUPERFICI
100
AcDbSpline
 62
7
  6
CONTINUOUS
 70
0
 71
3
 72
10
 73
6
 74
4
 42
0.0000001
 43
0.0000001
 44
0.0000000001
 12
-0.2274471789
 22
-0.2723112298
 32
0.0
 13
-0.3473290773
 23
0.0724440274
 33
0.0
 40
0.0
 40
0.0
 40
0.0
 40
0.0
 40
0.2565291183
 40
0.5176013489
 40
1.0
 40
1.0
 40
1.0
 40
1.0
 10
-11.7989312501
 20
22.2731823271
 30
0.0
 10
-11.8183801915
 20
22.2498970738
 30
0.0
 10
-11.8632219818
 20
22.2071358752
 30
0.0
 10
-11.9635274686
 20
22.1450831897
 30
0.0
 10
-12.0569097367
 20
22.1238748637
 30
0.0
 10
-12.1127600962
 20
22.1355238307
 30
0.0
 11
-11.7989312501
 21
22.2731823271
 31
0.0
 11
-11.8645665912
 21
22.2101253603
 31
0.0
 11
-11.9436464101
 21
22.1618906838
 31
0.0
 11
-12.1127600962
 21
22.1355238307
 31
0.0
  0
SPLINE
  5
4AB
100
AcDbEntity
  8
SUPERFICI
100
AcDbSpline
 62
253
  6
CONTINUOUS
 70
0
 71
3
 72
11
 73
7
 74
5
 42
0.0000001
 43
0.0000001
 44
0.0000000001
 12
-0.106663243
 22
-0.2776804157
 32
0.0
 13
-0.2911827437
 23
0.060795316
 33
0.0
 40
0.0
 40
0.0
 40
0.0
 40
0.0
 40
0.2776557023
 40
0.5374732172
 40
0.7760958782
 40
1.0
 40
1.0
 40
1.0
 40
1.0
 10
-12.5101518582
 20
22.4216858499
 30
0.0
 10
-12.5200237441
 20
22.3959859996
 30
0.0
 10
-12.5457995494
 20
22.3484287063
 30
0.0
 10
-12.6013085904
 20
22.2933472158
 30
0.0
 10
-12.6676995016
 20
22.2622730094
 30
0.0
 10
-12.7152624587
 20
22.2613271165
 30
0.0
 10
-12.7369947976
 20
22.2658645571
 30
0.0
 11
-12.5101518582
 21
22.4216858499
 31
0.0
 11
-12.5500352289
 21
22.3493619627
 31
0.0
 11
-12.605585575
 21
22.2956288487
 31
0.0
 11
-12.670396939
 21
22.2666840069
 31
0.0
 11
-12.7369947976
 21
22.2658645571
 31
0.0
  0
SPLINE
  5
4AC
100
AcDbEntity
  8
SUPERFICI
100
AcDbSpline
 62
253
  6
CONTINUOUS
 70
0
 71
3
 72
10
 73
6
 74
4
 42
0.0000001
 43
0.0000001
 44
0.0000000001
 12
-0.1013101571
 22
0.0506550786
 32
0.0
 13
-0.0117594147
 23
0.1126561187
 33
0.0
 40
0.0
 40
0.0
 40
0.0
 40
0.0
 40
0.3014435647
 40
0.5660645182
 40
1.0
 40
1.0
 40
1.0
 40
1.0
 10
-2.2375538956
 20
17.1096386126
 30
0.0
 10
-2.2477336606
 20
17.1147284951
 30
0.0
 10
-2.2662699576
 20
17.1256881976
 30
0.0
 10
-2.2949084414
 20
17.1502234595
 30
0.0
 10
-2.308736115
 20
17.1752140921
 30
0.0
 10
-2.3104370574
 20
17.1915092545
 30
0.0
 11
-2.2375538956
 21
17.1096386126
 31
0.0
 11
-2.2668163979
 21
17.1272316973
 31
0.0
 11
-2.2891730111
 21
17.1471959378
 31
0.0
 11
-2.3104370574
 21
17.1915092545
 31
0.0
  0
SPLINE
  5
4AD
100
AcDbEntity
  8
SUPERFICI
100
AcDbSpline
 62
253
  6
CONTINUOUS
 70
0
 71
3
 72
11
 73
7
 74
5
 42
0.0000001
 43
0.0000001
 44
0.0000000001
 12
-0.1075580124
 22
0.0537790062
 32
0.0
 13
-0.0001365403
 23
0.1202534362
 33
0.0
 40
0.0
 40
0.0
 40
0.0
 40
0.0
 40
0.3025526128
 40
0.5654626445
 40
0.793431951
 40
1.0
 40
1.0
 40
1.0
 40
1.0
 10
-2.2375538956
 20
17.4496125468
 30
0.0
 10
-2.2484012148
 20
17.4550362064
 30
0.0
 10
-2.2680078549
 20
17.4666679576
 30
0.0
 10
-2.2918102382
 20
17.4881699844
 30
0.0
 10
-2.3070932172
 20
17.5121025479
 30
0.0
 10
-2.3107675002
 20
17.5296499894
 30
0.0
 10
-2.3107769018
 20
17.537930162
 30
0.0
 11
-2.2375538956
 21
17.4496125468
 31
0.0
 11
-2.2686257149
 21
17.4685404577
 31
0.0
 11
-2.2917197529
 21
17.4901327642
 31
0.0
 11
-2.3059527271
 21
17.5135625717
 31
0.0
 11
-2.3107769018
 21
17.537930162
 31
0.0
  0
SPLINE
  5
4AE
100
AcDbEntity
  8
DRAFT
100
AcDbSpline
 62
7
  6
CONTINUOUS
 70
0
 71
3
 72
9
 73
5
 74
3
 42
0.0000001
 43
0.0000001
 44
0.0000000001
 12
-0.326732422
 22
-0.3652160582
 32
0.0
 13
-0.2348819373
 23
-0.4300782722
 33
0.0
 40
0.0
 40
0.0
 40
0.0
 40
0.0
 40
0.2438539449
 40
1.0
 40
1.0
 40
1.0
 40
1.0
 10
-10.3061083836
 20
14.9381917368
 30
0.0
 10
-10.3326667136
 20
14.908505278
 30
0.0
 10
-10.437797756
 20
14.7834080662
 30
0.0
 10
-10.5276038445
 20
14.6456680845
 30
0.0
 10
-10.5868055279
 20
14.5372674215
 30
0.0
 11
-10.3061083836
 21
14.9381917368
 31
0.0
 11
-10.3830286579
 21
14.8467425817
 31
0.0
 11
-10.5868055279
 21
14.5372674215
 31
0.0
  0
SPLINE
  5
4AF
100
AcDbEntity
  8
SUPERFICI
100
AcDbSpline
 62
253
  6
CONTINUOUS
 70
0
 71
3
 72
11
 73
7
 74
5
 42
0.0000001
 43
0.0000001
 44
0.0000000001
 12
0.0
 22
-0.1574219848
 32
0.0
 13
0.140795394
 23
-0.0704154693
 33
0.0
 40
0.0
 40
0.0
 40
0.0
 40
0.0
 40
0.2897445166
 40
0.5495867806
 40
0.7828492776
 40
1.0
 40
1.0
 40
1.0
 40
1.0
 10
-0.5590158252
 20
16.2703695774
 30
0.0
 10
-0.5590158252
 20
16.2551655251
 30
0.0
 10
-0.5565624028
 20
16.226216838
 30
0.0
 10
-0.5441900955
 20
16.1866244153
 30
0.0
 10
-0.523526895
 20
16.1549253975
 30
0.0
 10
-0.5042416328
 20
16.1402519111
 30
0.0
 10
-0.494050359
 20
16.1351549877
 30
0.0
 11
-0.5590158252
 21
16.2703695774
 31
0.0
 11
-0.5546966667
 21
16.2249623784
 31
0.0
 11
-0.5419505152
 21
16.1860940721
 31
0.0
 11
-0.521400234
 21
16.1556623168
 31
0.0
 11
-0.494050359
 21
16.1351549877
 31
0.0
  0
SPLINE
  5
4B0
100
AcDbEntity
  8
SUPERFICI
100
AcDbSpline
 62
253
  6
CONTINUOUS
 70
0
 71
3
 72
10
 73
6
 74
4
 42
0.0000001
 43
0.0000001
 44
0.0000000001
 12
0.0
 22
-0.1483686233
 32
0.0
 13
0.1259714252
 23
-0.0783865321
 33
0.0
 40
0.0
 40
0.0
 40
0.0
 40
0.0
 40
0.5466520531
 40
0.782020449
 40
1.0
 40
1.0
 40
1.0
 40
1.0
 10
-2.2375538956
 20
17.1096386126
 30
0.0
 10
-2.2375538956
 20
17.0826032751
 30
0.0
 10
-2.2317291117
 20
17.042803225
 30
0.0
 10
-2.206412457
 20
16.9996700327
 30
0.0
 10
-2.1893583708
 20
16.9843826755
 30
0.0
 10
-2.1802053059
 20
16.9786871218
 30
0.0
 11
-2.2375538956
 21
17.1096386126
 31
0.0
 11
-2.2225826632
 21
17.0299263334
 31
0.0
 11
-2.2044690163
 21
17.0000701458
 31
0.0
 11
-2.1802053059
 21
16.9786871218
 31
0.0
  0
SPLINE
  5
4B1
100
AcDbEntity
  8
SUPERFICI
100
AcDbSpline
 62
253
  6
CONTINUOUS
 70
0
 71
3
 72
11
 73
7
 74
5
 42
0.0000001
 43
0.0000001
 44
0.0000000001
 12
-0.1066634432
 22
-0.2776809368
 32
0.0
 13
-0.2911830606
 23
0.0607965295
 33
0.0
 40
0.0
 40
0.0
 40
0.0
 40
0.0
 40
0.2776558679
 40
0.5374733441
 40
0.7760959182
 40
1.0
 40
1.0
 40
1.0
 40
1.0
 10
-0.2064938656
 20
16.2698568536
 30
0.0
 10
-0.2163657759
 20
16.2441569398
 30
0.0
 10
-0.2421416528
 20
16.1965995502
 30
0.0
 10
-0.2976508645
 20
16.1415180089
 30
0.0
 10
-0.3640419581
 20
16.1104438821
 30
0.0
 10
-0.4116050037
 20
16.1094981469
 30
0.0
 10
-0.4333373623
 20
16.1140356772
 30
0.0
 11
-0.2064938656
 21
16.2698568536
 31
0.0
 11
-0.246377361
 21
16.1975328019
 31
0.0
 11
-0.3019278648
 21
16.1437996588
 31
0.0
 11
-0.366739388
 21
16.1148549103
 31
0.0
 11
-0.4333373623
 21
16.1140356772
 31
0.0
  0
SPLINE
  5
4B2
100
AcDbEntity
  8
SUPERFICI
100
AcDbSpline
 62
253
  6
CONTINUOUS
 70
0
 71
3
 72
11
 73
7
 74
5
 42
0.0000001
 43
0.0000001
 44
0.0000000001
 12
0.3239339031
 22
-0.1619669516
 32
0.0
 13
0.3246816256
 23
0.1604627963
 33
0.0
 40
0.0
 40
0.0
 40
0.0
 40
0.0
 40
0.2351713294
 40
0.4995792494
 40
0.7642136314
 40
1.0
 40
1.0
 40
1.0
 40
1.0
 10
-0.5590158252
 20
16.6103435116
 30
0.0
 10
-0.533622503
 20
16.5976468505
 30
0.0
 10
-0.475278331
 20
16.5795025527
 30
0.0
 10
-0.3829432472
 20
16.5707469084
 30
0.0
 10
-0.2905089267
 20
16.5792489959
 30
0.0
 10
-0.232012366
 20
16.597219141
 30
0.0
 10
-0.2064938656
 20
16.6098307877
 30
0.0
 11
-0.5590158252
 21
16.6103435116
 31
0.0
 11
-0.4782458567
 21
16.583316741
 31
0.0
 11
-0.3829663026
 21
16.5737325175
 31
0.0
 11
-0.2875768546
 21
16.5830394389
 31
0.0
 11
-0.2064938656
 21
16.6098307877
 31
0.0
  0
SPLINE
  5
4B3
100
AcDbEntity
  8
SUPERFICI
100
AcDbSpline
 62
253
  6
CONTINUOUS
 70
0
 71
3
 72
11
 73
7
 74
5
 42
0.0000001
 43
0.0000001
 44
0.0000000001
 12
0.323933903
 22
-0.1619669515
 32
0.0
 13
0.3246816255
 23
0.1604627963
 33
0.0
 40
0.0
 40
0.0
 40
0.0
 40
0.0
 40
0.2351713009
 40
0.4995791941
 40
0.7642135602
 40
1.0
 40
1.0
 40
1.0
 40
1.0
 10
-0.5590158252
 20
16.2703695774
 30
0.0
 10
-0.5336225061
 20
16.2576729179
 30
0.0
 10
-0.4752783412
 20
16.2395286209
 30
0.0
 10
-0.3829432661
 20
16.2307729746
 30
0.0
 10
-0.2905089422
 20
16.2392750591
 30
0.0
 10
-0.2320123737
 20
16.2572452031
 30
0.0
 10
-0.2064938656
 20
16.2698568536
 30
0.0
 11
-0.5590158252
 21
16.2703695774
 31
0.0
 11
-0.4782458669
 21
16.2433428088
 31
0.0
 11
-0.3829663228
 21
16.2337585834
 31
0.0
 11
-0.2875768802
 21
16.2430655
 31
0.0
 11
-0.2064938656
 21
16.2698568536
 31
0.0
  0
SPLINE
  5
4B4
100
AcDbEntity
  8
RACCORDO
100
AcDbSpline
 62
253
  6
CONTINUOUS
 70
0
 71
3
 72
22
 73
18
 74
16
 42
0.0000001
 43
0.0000001
 44
0.0000000001
 12
12.549805516
 22
-6.2749786161
 32
0.0
 13
-11.0006142351
 23
-8.7097337257
 33
0.0
 40
0.0
 40
0.0
 40
0.0
 40
0.0
 40
0.1190629321
 40
0.183616209
 40
0.2509032753
 40
0.3202977004
 40
0.3910423245
 40
0.4622888272
 40
0.5331396504
 40
0.6026905899
 40
0.6700665348
 40
0.7344915584
 40
0.7953317443
 40
0.8521832274
 40
0.9049553882
 40
0.9539630979
 40
1.0
 40
1.0
 40
1.0
 40
1.0
 10
-11.0410286366
 20
15.6405959179
 30
0.0
 10
-10.5429564224
 20
15.3915568002
 30
0.0
 10
-9.8376641444
 20
14.8750395078
 30
0.0
 10
-9.0336304339
 20
14.0189886302
 30
0.0
 10
-8.4697701573
 20
13.2626025528
 30
0.0
 10
-7.9729416939
 20
12.4275904296
 30
0.0
 10
-7.5507412086
 20
11.5319848205
 30
0.0
 10
-7.2098592357
 20
10.5952705491
 30
0.0
 10
-6.9552931585
 20
9.6373130127
 30
0.0
 10
-6.7906862678
 20
8.6782051865
 30
0.0
 10
-6.7183335015
 20
7.7378017573
 30
0.0
 10
-6.7392479301
 20
6.8354061469
 30
0.0
 10
-6.8532543681
 20
5.9893117336
 30
0.0
 10
-7.0590326688
 20
5.2165389808
 30
0.0
 10
-7.3544947947
 20
4.5324733257
 30
0.0
 10
-7.7362215702
 20
3.9514916573
 30
0.0
 10
-8.0533301568
 20
3.6341038852
 30
0.0
 10
-8.222141557
 20
3.5004474989
 30
0.0
 11
-11.0410286366
 21
15.6405959179
 31
0.0
 11
-9.6774315806
 21
14.6754685779
 31
0.0
 11
-9.0551146925
 21
14.0173530123
 31
0.0
 11
-8.4891500032
 21
13.2616837272
 31
0.0
 11
-7.989848921
 21
12.4257667345
 31
0.0
 11
-7.5656919253
 21
11.5283253318
 31
0.0
 11
-7.2234714343
 21
10.5890570081
 31
0.0
 11
-6.9684083477
 21
9.6282170162
 31
0.0
 11
-6.8042562932
 21
8.6662428592
 31
0.0
 11
-6.7333887046
 21
7.7235413206
 31
0.0
 11
-6.7567822004
 21
6.8198873499
 31
0.0
 11
-6.8740294055
 21
5.9743201045
 31
0.0
 11
-7.0832807057
 21
5.2045634609
 31
0.0
 11
-7.3812031968
 21
4.5266888965
 31
0.0
 11
-7.7629465397
 21
3.9547511439
 31
0.0
 11
-8.222141557
 21
3.5004474989
 31
0.0
  0
SPLINE
  5
4B5
100
AcDbEntity
  8
RACCORDO
100
AcDbSpline
 62
253
  6
CONTINUOUS
 70
0
 71
3
 72
22
 73
18
 74
16
 42
0.0000001
 43
0.0000001
 44
0.0000000001
 12
-6.209384038
 22
11.4553002657
 32
0.0
 13
11.6543974335
 23
-5.8271240567
 33
0.0
 40
0.0
 40
0.0
 40
0.0
 40
0.0
 40
0.1528880071
 40
0.2280043523
 40
0.3011232281
 40
0.4387416791
 40
0.502764447
 40
0.5335127203
 40
0.5634221074
 40
0.6208229542
 40
0.6755009123
 40
0.7282213945
 40
0.7799946515
 40
0.8319820711
 40
0.8853480746
 40
0.941105682
 40
1.0
 40
1.0
 40
1.0
 40
1.0
 10
-15.2357244026
 20
7.0072360075
 30
0.0
 10
-15.5521711863
 20
7.5910286838
 30
0.0
 10
-15.9431161199
 20
8.5098287208
 30
0.0
 10
-16.2694972313
 20
9.7783485178
 30
0.0
 10
-16.4504997511
 20
11.0081463052
 30
0.0
 10
-16.4269543198
 20
12.2158234174
 30
0.0
 10
-16.2000480723
 20
13.202762527
 30
0.0
 10
-16.0192239676
 20
13.7137942634
 30
0.0
 10
-15.8103354865
 20
14.1825448186
 30
0.0
 10
-15.4901677865
 20
14.7135792708
 30
0.0
 10
-15.0113871274
 20
15.2515603741
 30
0.0
 10
-14.4536557592
 20
15.6685371686
 30
0.0
 10
-13.83034675
 20
15.952689277
 30
0.0
 10
-13.1574794587
 20
16.0953602149
 30
0.0
 10
-12.4526695997
 20
16.092131999
 30
0.0
 10
-11.7338934059
 20
15.9432623781
 30
0.0
 10
-11.2698212328
 20
15.7549907504
 30
0.0
 10
-11.0410286366
 20
15.6405959179
 30
0.0
 11
-15.2357244026
 21
7.0072360075
 31
0.0
 11
-16.0118016714
 21
8.8419774539
 31
0.0
 11
-16.2545074802
 21
9.7901723967
 31
0.0
 11
-16.3914203971
 21
10.7330209776
 31
0.0
 11
-16.3369889815
 21
12.5253601903
 31
0.0
 11
-16.1470623658
 21
13.3376674542
 31
0.0
 11
-16.0130341657
 21
13.7152338042
 31
0.0
 11
-15.8540032442
 21
14.0710284379
 31
0.0
 11
-15.4649093247
 21
14.7097834364
 31
0.0
 11
-14.9890333138
 21
15.2400011257
 31
0.0
 11
-14.4375870861
 21
15.6496386919
 31
0.0
 11
-13.8234746897
 21
15.9288467416
 31
0.0
 11
-13.1610136254
 21
16.0703010048
 31
0.0
 11
-12.4656560914
 21
16.069578955
 31
0.0
 11
-11.7535573226
 21
15.9255396662
 31
0.0
 11
-11.0410286366
 21
15.6405959179
 31
0.0
  0
LINE
  5
4B6
100
AcDbEntity
  8
RACCORDO
100
AcDbLine
 62
253
  6
CONTINUOUS
 10
-8.2221417137
 20
-12.9538268965
 11
-8.2139378552
 21
-12.9682254479
  0
SPLINE
  5
4B7
100
AcDbEntity
  8
RACCORDO
100
AcDbSpline
 62
253
  6
CONTINUOUS
 70
0
 71
3
 72
22
 73
18
 74
16
 42
0.0000001
 43
0.0000001
 44
0.0000000001
 12
5.9107594591
 22
-10.3906680875
 32
0.0
 13
-10.6921897965
 23
5.3460394728
 33
0.0
 40
0.0
 40
0.0
 40
0.0
 40
0.0
 40
0.166178275
 40
0.24700052
 40
0.3247123147
 40
0.3982893989
 40
0.4669104216
 40
0.5300396908
 40
0.5875474265
 40
0.639826656
 40
0.6879427946
 40
0.7336773657
 40
0.7793387906
 40
0.8272830855
 40
0.879393099
 40
0.9368207187
 40
1.0
 40
1.0
 40
1.0
 40
1.0
 10
-8.2139378552
 20
-12.9682254479
 30
0.0
 10
-7.886524585
 20
-13.543793214
 30
0.0
 10
-7.4687813951
 20
-14.4414134485
 30
0.0
 10
-7.0701894164
 20
-15.673436434
 30
0.0
 10
-6.8612644627
 20
-16.575761518
 30
0.0
 10
-6.742960613
 20
-17.445393392
 30
0.0
 10
-6.7171164968
 20
-18.2648505952
 30
0.0
 10
-6.7844567436
 20
-19.0181562441
 30
0.0
 10
-6.9449362741
 20
-19.6912349141
 30
0.0
 10
-7.1982515714
 20
-20.2715898563
 30
0.0
 10
-7.5438917076
 20
-20.7469549122
 30
0.0
 10
-7.9788471708
 20
-21.1037371418
 30
0.0
 10
-8.4934905204
 20
-21.329547234
 30
0.0
 10
-9.0729406895
 20
-21.4192718684
 30
0.0
 10
-9.7032266896
 20
-21.3750109596
 30
0.0
 10
-10.3723532799
 20
-21.2014447593
 30
0.0
 10
-10.815853681
 20
-21.0118639613
 30
0.0
 10
-11.0410286366
 20
-20.8992776507
 30
0.0
 11
-8.2139378552
 21
-12.9682254479
 31
0.0
 11
-7.3762690728
 21
-14.7695056419
 31
0.0
 11
-7.0798621114
 21
-15.6890812663
 31
0.0
 11
-6.8719987147
 21
-16.5945104325
 31
0.0
 11
-6.7559832721
 21
-17.4663811875
 31
0.0
 11
-6.7336408204
 21
-18.2863867623
 31
0.0
 11
-6.8053620121
 21
-19.0376312638
 31
0.0
 11
-6.9701571183
 21
-19.7050463921
 31
0.0
 11
-7.2256486115
 21
-20.2753927783
 31
0.0
 11
-7.5680853465
 21
-20.7375409492
 31
0.0
 11
-7.9922513431
 21
-21.0824852006
 31
0.0
 11
-8.4913657894
 21
-21.3034665421
 31
0.0
 11
-9.0569657161
 21
-21.3961035533
 31
0.0
 11
-9.6787672604
 21
-21.3585608189
 31
0.0
 11
-10.3446869439
 21
-21.1917211302
 31
0.0
 11
-11.0410286366
 21
-20.8992776507
 31
0.0
  0
SPLINE
  5
4B8
100
AcDbEntity
  8
RACCORDO
100
AcDbSpline
 62
253
  6
CONTINUOUS
 70
0
 71
3
 72
23
 73
19
 74
17
 42
0.0000001
 43
0.0000001
 44
0.0000000001
 12
-12.3258393094
 22
6.1629802652
 32
0.0
 13
10.7413130448
 23
8.6332400929
 33
0.0
 40
0.0
 40
0.0
 40
0.0
 40
0.0
 40
0.0597297404
 40
0.1238213905
 40
0.1915018932
 40
0.2618302192
 40
0.3337837273
 40
0.4063237952
 40
0.478437966
 40
0.5491774426
 40
0.6176900604
 40
0.683242645
 40
0.74527418
 40
0.8034190398
 40
0.8575708945
 40
0.9079369385
 40
0.9550916575
 40
1.0
 40
1.0
 40
1.0
 40
1.0
 10
-11.0410286366
 20
-20.8992776507
 30
0.0
 10
-11.2864350304
 20
-20.776573247
 30
0.0
 10
-11.7788544948
 20
-20.4888249419
 30
0.0
 10
-12.4875749037
 20
-19.9654321636
 30
0.0
 10
-13.1794901654
 20
-19.3444926239
 30
0.0
 10
-13.8387692701
 20
-18.6389262558
 30
0.0
 10
-14.4503333769
 20
-17.8630268119
 30
0.0
 10
-15.0000393852
 20
-17.0322710275
 30
0.0
 10
-15.4751209766
 20
-16.1629706569
 30
0.0
 10
-15.8644516167
 20
-15.2720590265
 30
0.0
 10
-16.1588061436
 20
-14.3769117745
 30
0.0
 10
-16.3510788726
 20
-13.4950796342
 30
0.0
 10
-16.4364666249
 20
-12.6440881704
 30
0.0
 10
-16.412515386
 20
-11.8410841221
 30
0.0
 10
-16.2791536313
 20
-11.102666959
 30
0.0
 10
-16.0383561487
 20
-10.4445922911
 30
0.0
 10
-15.6947814268
 20
-9.8824203226
 30
0.0
 10
-15.3965197956
 20
-9.5762711321
 30
0.0
 10
-15.2357282741
 20
-9.4470362979
 30
0.0
 11
-11.0410286366
 21
-20.8992776507
 31
0.0
 11
-11.753555495
 21
-20.4871714805
 31
0.0
 11
-12.4656508838
 21
-19.9646627217
 31
0.0
 11
-13.1610109746
 21
-19.3430684465
 31
0.0
 11
-13.8234757624
 21
-18.6356488489
 31
0.0
 11
-14.4375901368
 21
-17.8571381355
 31
0.0
 11
-14.9890375901
 21
-17.0233416131
 31
0.0
 11
-15.4649139487
 21
-16.150900915
 31
0.0
 11
-15.8540094403
 21
-15.2570768263
 31
0.0
 11
-16.1470685552
 21
-14.3595560818
 31
0.0
 11
-16.336991771
 21
-13.4763837073
 31
0.0
 11
-16.419133903
 21
-12.6254992959
 31
0.0
 11
-16.3914200695
 21
-11.8246998393
 31
0.0
 11
-16.2545093575
 21
-11.0911141316
 31
0.0
 11
-16.0118070996
 21
-10.4408494529
 31
0.0
 11
-15.6693762125
 21
-9.8885671206
 31
0.0
 11
-15.2357282741
 21
-9.4470362979
 31
0.0
  0
SPLINE
  5
4B9
100
AcDbEntity
  8
SUPERFICI
100
AcDbSpline
 62
7
  6
CONTINUOUS
 70
0
 71
3
 72
9
 73
5
 74
3
 42
0.0000001
 43
0.0000001
 44
0.0000000001
 12
0.1698226182
 22
0.3445330186
 32
0.0
 13
-0.1204268443
 23
0.3647466213
 33
0.0
 40
0.0
 40
0.0
 40
0.0
 40
0.0
 40
0.4547712433
 40
1.0
 40
1.0
 40
1.0
 40
1.0
 10
-2.6357217275
 20
18.2864296486
 30
0.0
 10
-2.6099782464
 20
18.3386575517
 30
0.0
 10
-2.5889874882
 20
18.4702949912
 30
0.0
 10
-2.6138350013
 20
18.5976312547
 30
0.0
 10
-2.6357217275
 20
18.6639213704
 30
0.0
 11
-2.6357217275
 21
18.2864296486
 31
0.0
 11
-2.6003663884
 21
18.4574978399
 31
0.0
 11
-2.6357217275
 21
18.6639213704
 31
0.0
  0
SPLINE
  5
4BA
100
AcDbEntity
  8
RACCORDO
100
AcDbSpline
 62
253
  6
CONTINUOUS
 70
0
 71
3
 72
13
 73
9
 74
7
 42
0.0000001
 43
0.0000001
 44
0.0000000001
 12
-0.0861644366
 22
-0.0573004465
 32
0.0
 13
0.0520743282
 23
-0.0894198839
 33
0.0
 40
0.0
 40
0.0
 40
0.0
 40
0.0
 40
0.4205506784
 40
0.7313794759
 40
0.8424728393
 40
0.9234535686
 40
0.9747470021
 40
1.0
 40
1.0
 40
1.0
 40
1.0
 10
-8.222067179
 20
-12.9539665185
 30
0.0
 10
-8.2341460164
 20
-12.9619990991
 30
0.0
 10
-8.2550063716
 20
-12.976150056
 30
0.0
 10
-8.2785545706
 20
-12.9933038605
 30
0.0
 10
-8.291974335
 20
-13.0041730856
 30
0.0
 10
-8.2981733715
 20
-13.010065959
 30
0.0
 10
-8.3016646961
 20
-13.0138420109
 30
0.0
 10
-8.3028532374
 20
-13.0167999484
 30
0.0
 10
-8.3024148931
 20
-13.0175526551
 30
0.0
 11
-8.222067179
 21
-12.9539665185
 31
0.0
 11
-8.2579978575
 21
-12.9785179403
 31
0.0
 11
-8.2838473796
 21
-12.9976573507
 31
0.0
 11
-8.2926999572
 21
-13.0049910311
 31
0.0
 11
-8.2987655305
 21
-13.010772752
 31
0.0
 11
-8.3020137405
 21
-13.0149705059
 31
0.0
 11
-8.3024148931
 21
-13.0175526551
 31
0.0
  0
SPLINE
  5
4BB
100
AcDbEntity
  8
RACCORDO
100
AcDbSpline
 62
253
  6
CONTINUOUS
 70
0
 71
3
 72
11
 73
7
 74
5
 42
0.0000001
 43
0.0000001
 44
0.0000000001
 12
0.3700294529
 22
-0.6008357408
 32
0.0
 13
0.6371632284
 23
0.3032299521
 33
0.0
 40
0.0
 40
0.0
 40
0.0
 40
0.0
 40
0.2711126102
 40
0.5334900603
 40
0.7766956457
 40
1.0
 40
1.0
 40
1.0
 40
1.0
 10
-15.2357973699
 20
-9.4471015184
 30
0.0
 10
-15.2023574863
 20
-9.5013995671
 30
0.0
 10
-15.1197268327
 20
-9.5988422145
 30
0.0
 10
-14.9625417385
 20
-9.6977043569
 30
0.0
 10
-14.7915430764
 20
-9.7363951918
 30
0.0
 10
-14.6795667729
 20
-9.7140812049
 30
0.0
 10
-14.6321396652
 20
-9.6915103487
 30
0.0
 11
-15.2357973699
 21
-9.4471015184
 31
0.0
 11
-15.1118309323
 21
-9.5928096426
 31
0.0
 11
-14.9542738493
 21
-9.6900408524
 31
0.0
 11
-14.7861860435
 21
-9.7246566946
 31
0.0
 11
-14.6321396652
 21
-9.6915103487
 31
0.0
  0
SPLINE
  5
4BC
100
AcDbEntity
  8
RACCORDO
100
AcDbSpline
 62
253
  6
CONTINUOUS
 70
0
 71
3
 72
11
 73
7
 74
5
 42
0.0000001
 43
0.0000001
 44
0.0000000001
 12
0.5768713041
 22
0.3802555675
 32
0.0
 13
0.6227006622
 23
0.2993637978
 33
0.0
 40
0.0
 40
0.0
 40
0.0
 40
0.0
 40
0.2112092745
 40
0.4741023602
 40
0.7504355234
 40
1.0
 40
1.0
 40
1.0
 40
1.0
 10
-15.2357972969
 20
7.0073811848
 30
0.0
 10
-15.1951837737
 20
7.0341523523
 30
0.0
 10
-15.1019872861
 20
7.091135493
 30
0.0
 10
-14.9519495642
 20
7.1769395552
 30
0.0
 10
-14.7920099587
 20
7.2631259273
 30
0.0
 10
-14.6839408005
 20
7.3178671272
 30
0.0
 10
-14.6321394789
 20
7.3427706504
 30
0.0
 11
-15.2357972969
 21
7.0073811848
 31
0.0
 11
-15.1118309006
 21
7.0843728446
 31
0.0
 11
-14.9542737964
 21
7.1747523539
 31
0.0
 11
-14.7861859287
 21
7.2652996702
 31
0.0
 11
-14.6321394789
 21
7.3427706504
 31
0.0
  0
SPLINE
  5
4BD
100
AcDbEntity
  8
RACCORDO
100
AcDbSpline
 62
253
  6
CONTINUOUS
 70
0
 71
3
 72
12
 73
8
 74
6
 42
0.0000001
 43
0.0000001
 44
0.0000000001
 12
-0.3099065574
 22
0.527377306
 32
0.0
 13
0.4810809086
 23
0.3777963162
 33
0.0
 40
0.0
 40
0.0
 40
0.0
 40
0.0
 40
0.2777035911
 40
0.537624008
 40
0.775754755
 40
0.8889052433
 40
1.0
 40
1.0
 40
1.0
 40
1.0
 10
-8.2220672616
 20
3.5005161062
 30
0.0
 10
-8.2507546495
 20
3.5493342967
 30
0.0
 10
-8.2939673677
 20
3.6519377108
 30
0.0
 10
-8.3106317167
 20
3.8117510755
 30
0.0
 10
-8.2791271817
 20
3.9359478246
 30
0.0
 10
-8.2279619306
 20
4.0159257312
 30
0.0
 10
-8.1950729257
 20
4.0483515481
 30
0.0
 10
-8.1772577369
 20
4.0623419447
 30
0.0
 11
-8.2220672616
 21
3.5005161062
 31
0.0
 11
-8.2869484504
 21
3.6575067714
 31
0.0
 11
-8.3011940141
 21
3.8158589088
 31
0.0
 11
-8.2631427753
 21
3.9564640981
 31
0.0
 11
-8.2256786066
 21
4.0146614589
 31
0.0
 11
-8.1772577369
 21
4.0623419447
 31
0.0
  0
SPLINE
  5
4BE
100
AcDbEntity
  8
SUPERFICI
100
AcDbSpline
 62
7
  6
CONTINUOUS
 70
0
 71
3
 72
11
 73
7
 74
5
 42
0.0000001
 43
0.0000001
 44
0.0000000001
 12
-0.0
 22
0.7308594011
 32
0.0
 13
-0.6537005211
 23
0.3268502606
 33
0.0
 40
0.0
 40
0.0
 40
0.0
 40
0.0
 40
0.5095240915
 40
0.7692759824
 40
0.8894805775
 40
1.0
 40
1.0
 40
1.0
 40
1.0
 10
2.1018937065
 20
15.0236378461
 30
0.0
 10
2.1018937065
 20
15.1477680035
 30
0.0
 10
2.0401969625
 20
15.336465447
 30
0.0
 10
1.9097736473
 20
15.5109906124
 30
0.0
 10
1.8200100871
 20
15.590441307
 30
0.0
 10
1.7726916419
 20
15.6214497719
 30
0.0
 10
1.7486094405
 20
15.6334908726
 30
0.0
 11
2.1018937065
 21
15.0236378461
 31
0.0
 11
1.9977470312
 21
15.3811684516
 31
0.0
 11
1.8828510042
 21
15.5322939964
 31
0.0
 11
1.8168552092
 21
15.5902823109
 31
0.0
 11
1.7486094405
 21
15.6334908726
 31
0.0
  0
SPLINE
  5
4BF
100
AcDbEntity
  8
SUPERFICI
100
AcDbSpline
 62
253
  6
CONTINUOUS
 70
0
 71
3
 72
11
 73
7
 74
5
 42
0.0000001
 43
0.0000001
 44
0.0000000001
 12
-0.5692072355
 22
-0.3107586558
 32
0.0
 13
-0.0760911916
 23
-0.6440325688
 33
0.0
 40
0.0
 40
0.0
 40
0.0
 40
0.0
 40
0.2309298734
 40
0.4858202465
 40
0.7483088577
 40
1.0
 40
1.0
 40
1.0
 40
1.0
 10
-2.549918683
 20
12.4840767299
 30
0.0
 10
-2.5937343346
 20
12.4601555776
 30
0.0
 10
-2.6776490347
 20
12.3943873042
 30
0.0
 10
-2.7786132262
 20
12.2665138267
 30
0.0
 10
-2.8528990089
 20
12.1165101692
 30
0.0
 10
-2.8804110155
 20
12.0076015825
 30
0.0
 10
-2.8867948418
 20
11.9535691515
 30
0.0
 11
-2.549918683
 21
12.4840767299
 31
0.0
 11
-2.6693605548
 21
12.3937333019
 31
0.0
 11
-2.7727746308
 21
12.264778106
 31
0.0
 11
-2.8481685363
 21
12.1121576758
 31
0.0
 11
-2.8867948418
 21
11.9535691515
 31
0.0
  0
SPLINE
  5
4C0
100
AcDbEntity
  8
SUPERFICI
100
AcDbSpline
 62
253
  6
CONTINUOUS
 70
0
 71
3
 72
11
 73
7
 74
5
 42
0.0000001
 43
0.0000001
 44
0.0000000001
 12
-1.1329865746
 22
-0.6287953203
 32
0.0
 13
-0.1506659082
 23
-1.2869894783
 33
0.0
 40
0.0
 40
0.0
 40
0.0
 40
0.0
 40
0.2303844051
 40
0.4852076103
 40
0.7479515775
 40
1.0
 40
1.0
 40
1.0
 40
1.0
 10
-2.915751423
 20
13.0870791757
 30
0.0
 10
-3.0027589024
 20
13.0387909637
 30
0.0
 10
-3.1692584364
 20
12.9063497365
 30
0.0
 10
-3.3693343678
 20
12.6497934932
 30
0.0
 10
-3.516540593
 20
12.3492506777
 30
0.0
 10
-3.5710660556
 20
12.1313022496
 30
0.0
 10
-3.5837244238
 20
12.0231743604
 30
0.0
 11
-2.915751423
 21
13.0870791757
 31
0.0
 11
-3.1525965781
 21
12.9053572773
 31
0.0
 11
-3.3576521179
 21
12.6465511696
 31
0.0
 11
-3.5071401257
 21
12.340667223
 31
0.0
 11
-3.5837244238
 21
12.0231743604
 31
0.0
  0
SPLINE
  5
4C1
100
AcDbEntity
  8
SUPERFICI
100
AcDbSpline
 62
253
  6
CONTINUOUS
 70
0
 71
3
 72
11
 73
7
 74
5
 42
0.0000001
 43
0.0000001
 44
0.0000000001
 12
-0.0324678924
 22
0.7302924718
 32
0.0
 13
-0.6488722199
 23
0.3366691262
 33
0.0
 40
0.0
 40
0.0
 40
0.0
 40
0.0
 40
0.2445556234
 40
0.510059094
 40
0.7700878926
 40
1.0
 40
1.0
 40
1.0
 40
1.0
 10
-2.549918683
 20
12.4840767299
 30
0.0
 10
-2.5525654182
 20
12.5436091068
 30
0.0
 10
-2.5783567891
 20
12.6670114803
 30
0.0
 10
-2.6582007726
 20
12.8383479272
 30
0.0
 10
-2.7707176288
 20
12.9857522658
 30
0.0
 10
-2.8660235632
 20
13.0612777396
 30
0.0
 10
-2.915751423
 20
13.0870791757
 30
0.0
 11
-2.549918683
 21
12.4840767299
 31
0.0
 11
-2.5835257403
 21
12.6596630268
 31
0.0
 11
-2.6648392814
 21
12.8358951503
 31
0.0
 11
-2.7814941421
 21
12.9859745276
 31
0.0
 11
-2.915751423
 21
13.0870791757
 31
0.0
  0
SPLINE
  5
4C2
100
AcDbEntity
  8
SUPERFICI
100
AcDbSpline
 62
253
  6
CONTINUOUS
 70
0
 71
3
 72
9
 73
5
 74
3
 42
0.0000001
 43
0.0000001
 44
0.0000000001
 12
-1.2264523702
 22
-10.3817890752
 32
0.0
 13
-0.1637701787
 23
-10.4526986538
 33
0.0
 40
0.0
 40
0.0
 40
0.0
 40
0.0
 40
0.2543851972
 40
1.0
 40
1.0
 40
1.0
 40
1.0
 10
-2.8867948418
 20
11.9535691515
 30
0.0
 10
-2.9907919512
 20
11.0732446645
 30
0.0
 10
-3.3576995182
 20
7.6078877587
 30
0.0
 10
-3.5544049752
 20
4.1240240421
 30
0.0
 10
-3.5951081317
 20
1.5261284269
 30
0.0
 11
-2.8867948418
 21
11.9535691515
 31
0.0
 11
-3.166449569
 21
9.3089760553
 31
0.0
 11
-3.5951081317
 21
1.5261284269
 31
0.0
  0
SPLINE
  5
4C3
100
AcDbEntity
  8
SUPERFICI
100
AcDbSpline
 62
253
  6
CONTINUOUS
 70
0
 71
3
 72
9
 73
5
 74
3
 42
0.0000001
 43
0.0000001
 44
0.0000000001
 12
-1.2331850971
 22
-10.4398309094
 32
0.0
 13
-0.164669221
 23
-10.5111226303
 33
0.0
 40
0.0
 40
0.0
 40
0.0
 40
0.0
 40
0.2543855046
 40
1.0
 40
1.0
 40
1.0
 40
1.0
 10
-3.5837244238
 20
12.0231743604
 30
0.0
 10
-3.6882925615
 20
11.1379271423
 30
0.0
 10
-4.0572141704
 20
7.6531972989
 30
0.0
 10
-4.2550002993
 20
4.149860966
 30
0.0
 10
-4.2959268853
 20
1.5374458341
 30
0.0
 11
-3.5837244238
 21
12.0231743604
 31
0.0
 11
-3.8649146642
 21
9.3637935599
 31
0.0
 11
-4.2959268853
 21
1.5374458341
 31
0.0
  0
SPLINE
  5
4C4
100
AcDbEntity
  8
SUPERFICI
100
AcDbSpline
 62
253
  6
CONTINUOUS
 70
0
 71
3
 72
11
 73
7
 74
5
 42
0.0000001
 43
0.0000001
 44
0.0000000001
 12
-0.6825879843
 22
-0.2056363113
 32
0.0
 13
-0.6367239155
 23
0.320617068
 33
0.0
 40
0.0
 40
0.0
 40
0.0
 40
0.0
 40
0.2284142287
 40
0.4927005503
 40
0.7608662696
 40
1.0
 40
1.0
 40
1.0
 40
1.0
 10
-2.8867948418
 20
11.9535691515
 30
0.0
 10
-2.9387657778
 20
11.9379123984
 30
0.0
 10
-3.0557759609
 20
11.9208414979
 30
0.0
 10
-3.2371033479
 20
11.9254078266
 30
0.0
 10
-3.418265091
 20
11.9574483323
 30
0.0
 10
-3.5329703676
 20
11.9976175756
 30
0.0
 10
-3.5837244226
 20
12.0231743607
 30
0.0
 11
-2.8867948418
 21
11.9535691515
 31
0.0
 11
-3.0473446386
 21
11.9263887966
 31
0.0
 11
-3.2357163351
 21
11.9300446015
 31
0.0
 11
-3.4238508476
 21
11.9639920124
 31
0.0
 11
-3.5837244226
 21
12.0231743607
 31
0.0
  0
SPLINE
  5
4C5
100
AcDbEntity
  8
SUPERFICI
100
AcDbSpline
 62
253
  6
CONTINUOUS
 70
0
 71
3
 72
11
 73
7
 74
5
 42
0.0000001
 43
0.0000001
 44
0.0000000001
 12
-0.6531473612
 22
-0.3004231948
 32
0.0
 13
-0.6429214765
 23
0.3217258872
 33
0.0
 40
0.0
 40
0.0
 40
0.0
 40
0.0
 40
0.2355498366
 40
0.5001440414
 40
0.7646609401
 40
1.0
 40
1.0
 40
1.0
 40
1.0
 10
-3.5951081317
 20
1.5261284269
 30
0.0
 10
-3.6463910497
 20
1.5025402155
 30
0.0
 10
-3.7631757583
 20
1.4696701519
 30
0.0
 10
-3.9468301317
 20
1.456013419
 30
0.0
 10
-4.1298974578
 20
1.4755823339
 30
0.0
 10
-4.24549204
 20
1.5122076116
 30
0.0
 10
-4.2959268853
 20
1.5374458342
 30
0.0
 11
-3.5951081317
 21
1.5261284269
 31
0.0
 11
-3.7571343722
 21
1.4768885038
 31
0.0
 11
-3.946755851
 21
1.4617623165
 31
0.0
 11
-4.1357342154
 21
1.4830024506
 31
0.0
 11
-4.2959268853
 21
1.5374458342
 31
0.0
  0
SPLINE
  5
4C6
100
AcDbEntity
  8
SUPERFICI
100
AcDbSpline
 62
253
  6
CONTINUOUS
 70
0
 71
3
 72
9
 73
5
 74
3
 42
0.0000001
 43
0.0000001
 44
0.0000000001
 12
0.1554408835
 22
-9.7709735605
 32
0.0
 13
1.2916660774
 23
-9.6864691675
 33
0.0
 40
0.0
 40
0.0
 40
0.0
 40
0.0
 40
0.2553865594
 40
1.0
 40
1.0
 40
1.0
 40
1.0
 10
-3.5951081317
 20
-14.9118997623
 30
0.0
 10
-3.5818756275
 20
-15.7436915355
 30
0.0
 10
-3.4854964316
 20
-18.9997296805
 30
0.0
 10
-3.2073921492
 20
-22.2511052491
 30
0.0
 10
-2.8867948418
 20
-24.6553302938
 30
0.0
 11
-3.5951081317
 21
-14.9118997623
 31
0.0
 11
-3.5207951979
 21
-17.4064841898
 31
0.0
 11
-2.8867948418
 21
-24.6553302938
 31
0.0
  0
SPLINE
  5
4C7
100
AcDbEntity
  8
SUPERFICI
100
AcDbSpline
 62
253
  6
CONTINUOUS
 70
0
 71
3
 72
9
 73
5
 74
3
 42
0.0000001
 43
0.0000001
 44
0.0000000001
 12
0.1562933995
 22
-9.8255209202
 32
0.0
 13
1.2987639151
 23
-9.7405595976
 33
0.0
 40
0.0
 40
0.0
 40
0.0
 40
0.0
 40
0.2553871945
 40
1.0
 40
1.0
 40
1.0
 40
1.0
 10
-4.2959268853
 20
-14.9170368378
 30
0.0
 10
-4.2826217744
 20
-15.7534742451
 30
0.0
 10
-4.18571354
 20
-19.027689682
 30
0.0
 10
-3.9060831713
 20
-22.2972175295
 30
0.0
 10
-3.5837244238
 20
-24.7148659992
 30
0.0
 11
-4.2959268853
 21
-14.9170368378
 31
0.0
 11
-4.221205914
 21
-17.4255538973
 31
0.0
 11
-3.5837244238
 21
-24.7148659992
 31
0.0
  0
SPLINE
  5
4C8
100
AcDbEntity
  8
SUPERFICI
100
AcDbSpline
 62
253
  6
CONTINUOUS
 70
0
 71
3
 72
11
 73
7
 74
5
 42
0.0000001
 43
0.0000001
 44
0.0000000001
 12
-0.6429962505
 22
-0.3251801931
 32
0.0
 13
-0.64457886
 23
0.322031721
 33
0.0
 40
0.0
 40
0.0
 40
0.0
 40
0.0
 40
0.2376792375
 40
0.5023658428
 40
0.7657789404
 40
1.0
 40
1.0
 40
1.0
 40
1.0
 10
-3.5951081317
 20
-14.9118997623
 30
0.0
 10
-3.6460504179
 20
-14.9376626224
 30
0.0
 10
-3.7624228619
 20
-14.9749508839
 30
0.0
 10
-3.9464048138
 20
-14.9938248889
 30
0.0
 10
-4.129814913
 20
-14.9778166494
 30
0.0
 10
-4.2456022363
 20
-14.9421790408
 30
0.0
 10
-4.2959268842
 20
-14.9170368372
 30
0.0
 11
-3.5951081317
 21
-14.9118997623
 31
0.0
 11
-3.7571343722
 21
-14.967371113
 31
0.0
 11
-3.9467558506
 21
-14.9878007462
 31
0.0
 11
-4.1357342147
 21
-14.9701462895
 31
0.0
 11
-4.2959268842
 21
-14.9170368372
 31
0.0
  0
SPLINE
  5
4C9
100
AcDbEntity
  8
SUPERFICI
100
AcDbSpline
 62
253
  6
CONTINUOUS
 70
0
 71
3
 72
13
 73
9
 74
7
 42
0.0000001
 43
0.0000001
 44
0.0000000001
 12
0.0619204245
 22
-0.4642959475
 32
0.0
 13
0.4319028848
 23
0.1812864139
 33
0.0
 40
0.0
 40
0.0
 40
0.0
 40
0.0
 40
0.2717502792
 40
0.3929613945
 40
0.5080748357
 40
0.6218813089
 40
0.7394780953
 40
1.0
 40
1.0
 40
1.0
 40
1.0
 10
-2.8867948418
 20
-24.6553302938
 30
0.0
 10
-2.8811858776
 20
-24.6973878116
 30
0.0
 10
-2.8638153739
 20
-24.7584017321
 30
0.0
 10
-2.8170448317
 20
-24.8233448684
 30
0.0
 10
-2.7742678521
 20
-24.8584750032
 30
0.0
 10
-2.7239495101
 20
-24.8802228191
 30
0.0
 10
-2.6470831906
 20
-24.8907742517
 30
0.0
 10
-2.5874254038
 20
-24.8762633745
 30
0.0
 10
-2.549918683
 20
-24.8605203472
 30
0.0
 11
-2.8867948418
 21
-24.6553302938
 31
0.0
 11
-2.8481685363
 21
-24.7766178285
 31
0.0
 11
-2.8146109886
 21
-24.8224153915
 31
0.0
 11
-2.7727746308
 21
-24.8564312104
 31
0.0
 11
-2.7238817493
 21
-24.8776726547
 31
0.0
 11
-2.6693605548
 21
-24.885520594
 31
0.0
 11
-2.549918683
 21
-24.8605203472
 31
0.0
  0
SPLINE
  5
4CA
100
AcDbEntity
  8
SUPERFICI
100
AcDbSpline
 62
253
  6
CONTINUOUS
 70
0
 71
3
 72
11
 73
7
 74
5
 42
0.0000001
 43
0.0000001
 44
0.0000000001
 12
0.0664284841
 22
-0.502153915
 32
0.0
 13
0.4527049582
 23
-0.227221299
 33
0.0
 40
0.0
 40
0.0
 40
0.0
 40
0.0
 40
0.2812893703
 40
0.5380120778
 40
0.7746844541
 40
1.0
 40
1.0
 40
1.0
 40
1.0
 10
-3.5837244238
 20
-24.7148659992
 30
0.0
 10
-3.5774958816
 20
-24.7619495188
 30
0.0
 10
-3.5581624571
 20
-24.8513326851
 30
0.0
 10
-3.5045656789
 20
-24.9718431368
 30
0.0
 10
-3.4287808834
 20
-25.0684020357
 30
0.0
 10
-3.3640612974
 20
-25.1143238228
 30
0.0
 10
-3.3300608091
 20
-25.1313893198
 30
0.0
 11
-3.5837244238
 21
-24.7148659992
 31
0.0
 11
-3.5523896298
 21
-24.8538588178
 31
0.0
 11
-3.4983349404
 21
-24.9721289292
 31
0.0
 11
-3.423382956
 21
-25.0656903365
 31
0.0
 11
-3.3300608091
 21
-25.1313893198
 31
0.0
  0
SPLINE
  5
4CB
100
AcDbEntity
  8
SUPERFICI
100
AcDbSpline
 62
253
  6
CONTINUOUS
 70
0
 71
3
 72
11
 73
7
 74
5
 42
0.0000001
 43
0.0000001
 44
0.0000000001
 12
-0.6040142685
 22
-0.4013243693
 32
0.0
 13
-0.6493425433
 23
0.3228757461
 33
0.0
 40
0.0
 40
0.0
 40
0.0
 40
0.0
 40
0.2449979728
 40
0.5099789627
 40
0.7695318252
 40
1.0
 40
1.0
 40
1.0
 40
1.0
 10
-2.8867948418
 20
-24.6553302938
 30
0.0
 10
-2.9361222656
 20
-24.6881048461
 30
0.0
 10
-3.0499585213
 20
-24.7398237261
 30
0.0
 10
-3.2338052771
 20
-24.7761879525
 30
0.0
 10
-3.4176448615
 20
-24.7720957379
 30
0.0
 10
-3.5338399856
 20
-24.7396700743
 30
0.0
 10
-3.5837242492
 20
-24.7148658797
 30
0.0
 11
-2.8867948418
 21
-24.6553302938
 31
0.0
 11
-3.0473446263
 21
-24.7314227432
 31
0.0
 11
-3.2357162804
 21
-24.7693932821
 31
0.0
 11
-3.42385073
 21
-24.7635859812
 31
0.0
 11
-3.5837242492
 21
-24.7148658797
 31
0.0
  0
SPLINE
  5
4CC
100
AcDbEntity
  8
SUPERFICI
100
AcDbSpline
 62
253
  6
CONTINUOUS
 70
0
 71
3
 72
11
 73
7
 74
5
 42
0.0000001
 43
0.0000001
 44
0.0000000001
 12
-0.014353954
 22
-0.3367214871
 32
0.0
 13
-0.3107574987
 23
-0.1304498866
 33
0.0
 40
0.0
 40
0.0
 40
0.0
 40
0.0
 40
0.2893508886
 40
0.5493554316
 40
0.7828042077
 40
1.0
 40
1.0
 40
1.0
 40
1.0
 10
-2.549918683
 20
-24.8605203472
 30
0.0
 10
-2.5513031261
 20
-24.8929972344
 30
0.0
 10
-2.559346052
 20
-24.954670964
 30
0.0
 10
-2.5900332611
 20
-25.0380377384
 30
0.0
 10
-2.6379976682
 20
-25.1034400237
 30
0.0
 10
-2.6812276025
 20
-25.1322714636
 30
0.0
 10
-2.7037260096
 20
-25.1417158524
 30
0.0
 11
-2.549918683
 21
-24.8605203472
 31
0.0
 11
-2.5635188923
 21
-24.9570864813
 31
0.0
 11
-2.5949502737
 21
-25.0388840642
 31
0.0
 11
-2.6425334455
 21
-25.1015431837
 31
0.0
 11
-2.7037260096
 21
-25.1417158524
 31
0.0
  0
SPLINE
  5
4CD
100
AcDbEntity
  8
SUPERFICI
100
AcDbSpline
 62
7
  6
CONTINUOUS
 70
0
 71
3
 72
12
 73
8
 74
6
 42
0.0000001
 43
0.0000001
 44
0.0000000001
 12
-0.0
 22
-0.3138680123
 32
0.0
 13
-0.2789252944
 23
-0.1439229283
 33
0.0
 40
0.0
 40
0.0
 40
0.0
 40
0.0
 40
0.1473186917
 40
0.2879453266
 40
0.5479160079
 40
0.7822066127
 40
1.0
 40
1.0
 40
1.0
 40
1.0
 10
2.1018937065
 20
-22.9078784563
 30
0.0
 10
2.1018937065
 20
-22.9232913313
 30
0.0
 10
2.1011162087
 20
-22.9534643683
 30
0.0
 10
2.0929576393
 20
-23.0102951492
 30
0.0
 10
2.0728338607
 20
-23.0743293143
 30
0.0
 10
2.0316854486
 20
-23.1377153859
 30
0.0
 10
1.9934338016
 20
-23.1674508533
 30
0.0
 10
1.9731844401
 20
-23.1778993406
 30
0.0
 11
2.1018937065
 21
-22.9078784563
 31
0.0
 11
2.1001793618
 21
-22.9540852898
 31
0.0
 11
2.0939050306
 21
-22.997775262
 31
0.0
 11
2.0684521402
 21
-23.0753003295
 31
0.0
 11
2.0274751859
 21
-23.1363616144
 31
0.0
 11
1.9731844401
 21
-23.1778993406
 31
0.0
  0
SPLINE
  5
4CE
100
AcDbEntity
  8
SUPERFICI
100
AcDbSpline
 62
253
  6
CONTINUOUS
 70
0
 71
3
 72
11
 73
7
 74
5
 42
0.0000001
 43
0.0000001
 44
0.0000000001
 12
0.1476717368
 22
1.2849302395
 32
0.0
 13
1.1219421779
 23
0.6435047876
 33
0.0
 40
0.0
 40
0.0
 40
0.0
 40
0.0
 40
0.2527744961
 40
0.5160338698
 40
0.7707171907
 40
1.0
 40
1.0
 40
1.0
 40
1.0
 10
-18.4740385426
 20
19.4683314198
 30
0.0
 10
-18.461595993
 20
19.5765972844
 30
0.0
 10
-18.4080596609
 20
19.7948279274
 30
0.0
 10
-18.2635651971
 20
20.0964449103
 30
0.0
 10
-18.0671902868
 20
20.3545984282
 30
0.0
 10
-17.9033715271
 20
20.4888340235
 30
0.0
 10
-17.8176241756
 20
20.538015552
 30
0.0
 11
-18.4740385426
 21
19.4683314198
 31
0.0
 11
-18.3987794451
 21
19.7864868827
 31
0.0
 11
-18.2518781907
 21
20.093664206
 31
0.0
 11
-18.0503709686
 21
20.3542444726
 31
0.0
 11
-17.8176241756
 21
20.538015552
 31
0.0
  0
SPLINE
  5
4CF
100
AcDbEntity
  8
SUPERFICI
100
AcDbSpline
 62
253
  6
CONTINUOUS
 70
0
 71
3
 72
9
 73
5
 74
3
 42
0.0000001
 43
0.0000001
 44
0.0000000001
 12
0.159165979
 22
10.5215953686
 32
0.0
 13
1.1904631782
 23
10.4552427198
 33
0.0
 40
0.0
 40
0.0
 40
0.0
 40
0.0
 40
0.2454643075
 40
1.0
 40
1.0
 40
1.0
 40
1.0
 10
-19.1619379074
 20
8.9704513452
 30
0.0
 10
-19.1489147185
 20
9.8313433853
 30
0.0
 10
-19.0503099387
 20
13.3377600628
 30
0.0
 10
-18.7734541955
 20
16.8387134844
 30
0.0
 10
-18.4740385426
 20
19.4683314198
 30
0.0
 11
-19.1619379074
 21
8.9704513452
 31
0.0
 11
-19.089766704
 21
11.5524144921
 31
0.0
 11
-18.4740385426
 21
19.4683314198
 31
0.0
  0
SPLINE
  5
4D0
100
AcDbEntity
  8
SUPERFICI
100
AcDbSpline
 62
253
  6
CONTINUOUS
 70
0
 71
3
 72
9
 73
5
 74
3
 42
0.0000001
 43
0.0000001
 44
0.0000000001
 12
-1.2562084321
 22
9.7320610608
 32
0.0
 13
-0.1507877501
 23
9.8116428375
 33
0.0
 40
0.0
 40
0.0
 40
0.0
 40
0.0
 40
0.2444169947
 40
1.0
 40
1.0
 40
1.0
 40
1.0
 10
-18.4740385426
 20
-17.2697089398
 30
0.0
 10
-18.5763847725
 20
-16.4768152341
 30
0.0
 10
-18.9460477222
 20
-13.2265638752
 30
0.0
 10
-19.1239603536
 20
-9.9552015207
 30
0.0
 10
-19.1619379074
 20
-7.4840313267
 30
0.0
 11
-18.4740385426
 21
-17.2697089398
 31
0.0
 11
-18.7456334868
 21
-14.8867207317
 31
0.0
 11
-19.1619379074
 21
-7.4840313267
 31
0.0
  0
SPLINE
  5
4D1
100
AcDbEntity
  8
SUPERFICI
100
AcDbSpline
 62
253
  6
CONTINUOUS
 70
0
 71
3
 72
11
 73
7
 74
5
 42
0.0000001
 43
0.0000001
 44
0.0000000001
 12
0.2587375916
 22
-0.1293687958
 32
0.0
 13
0.2596298131
 23
0.1275687534
 33
0.0
 40
0.0
 40
0.0
 40
0.0
 40
0.0
 40
0.2350722031
 40
0.4993698028
 40
0.7640064406
 40
1.0
 40
1.0
 40
1.0
 40
1.0
 10
-6.9862850651
 20
20.8583058524
 30
0.0
 10
-6.9660110599
 20
20.8481688498
 30
0.0
 10
-6.9194350366
 20
20.8336696692
 30
0.0
 10
-6.8457088002
 20
20.8266369825
 30
0.0
 10
-6.7718638443
 20
20.8333658205
 30
0.0
 10
-6.7251055106
 20
20.8476563509
 30
0.0
 10
-6.704681856
 20
20.8576914856
 30
0.0
 11
-6.9862850651
 21
20.8583058524
 31
0.0
 11
-6.9218034664
 21
20.8367125568
 31
0.0
 11
-6.8457363707
 21
20.8290174824
 31
0.0
 11
-6.7695378688
 21
20.8363803627
 31
0.0
 11
-6.704681856
 21
20.8576914856
 31
0.0
  0
SPLINE
  5
4D2
100
AcDbEntity
  8
SUPERFICI
100
AcDbSpline
 62
253
  6
CONTINUOUS
 70
0
 71
3
 72
11
 73
7
 74
5
 42
0.0000001
 43
0.0000001
 44
0.0000000001
 12
-0.0860962604
 22
0.0430481302
 32
0.0
 13
0.0000016063
 23
0.0962585454
 33
0.0
 40
0.0
 40
0.0
 40
0.0
 40
0.0
 40
0.3025822955
 40
0.5654826204
 40
0.793432266
 40
1.0
 40
1.0
 40
1.0
 40
1.0
 10
-5.2855155236
 20
20.0079210817
 30
0.0
 10
-5.2941992583
 20
20.012262949
 30
0.0
 10
-5.3098940349
 20
20.0215747363
 30
0.0
 10
-5.3289431417
 20
20.0387912344
 30
0.0
 10
-5.341166485
 20
20.0579546616
 30
0.0
 10
-5.3440942742
 20
20.0720037899
 30
0.0
 10
-5.3440941636
 20
20.0786317598
 30
0.0
 11
-5.2855155236
 21
20.0079210817
 31
0.0
 11
-5.3103888599
 21
20.0230752457
 31
0.0
 11
-5.3288695368
 21
20.0403633516
 31
0.0
 11
-5.3402511059
 21
20.0591227678
 31
0.0
 11
-5.3440941636
 21
20.0786317598
 31
0.0
  0
SPLINE
  5
4D3
100
AcDbEntity
  8
RACCORDO
100
AcDbSpline
 62
253
  6
CONTINUOUS
 70
0
 71
3
 72
9
 73
5
 74
3
 42
0.0000001
 43
0.0000001
 44
0.0000000001
 12
-1.3705136755
 22
0.6852588855
 32
0.0
 13
-1.1980177973
 23
0.9553223709
 33
0.0
 40
0.0
 40
0.0
 40
0.0
 40
0.0
 40
0.4827388224
 40
1.0
 40
1.0
 40
1.0
 40
1.0
 10
-10.6975311131
 20
-20.2305621432
 30
0.0
 10
-10.9180644991
 20
-20.1202951208
 30
0.0
 10
-11.3608949378
 20
-19.8633200501
 30
0.0
 10
-11.7746978902
 20
-19.5624649334
 30
0.0
 10
-11.9812605891
 20
-19.3977478752
 30
0.0
 11
-10.6975311131
 21
-20.2305621432
 31
0.0
 11
-11.3388429164
 21
-19.8619657706
 31
0.0
 11
-11.9812605891
 21
-19.3977478752
 31
0.0
  0
SPLINE
  5
4D4
100
AcDbEntity
  8
RACCORDO
100
AcDbSpline
 62
253
  6
CONTINUOUS
 70
0
 71
3
 72
13
 73
9
 74
7
 42
0.0000001
 43
0.0000001
 44
0.0000000001
 12
-1.3152014387
 22
4.6798214043
 32
0.0
 13
3.80172165
 23
3.0294216769
 33
0.0
 40
0.0
 40
0.0
 40
0.0
 40
0.0
 40
0.2943150065
 40
0.5578511432
 40
0.6778830109
 40
0.7906368882
 40
0.8973861178
 40
1.0
 40
1.0
 40
1.0
 40
1.0
 10
-15.4547310614
 20
-14.2240617802
 30
0.0
 10
-15.5837589013
 20
-13.7649478913
 30
0.0
 10
-15.7542278007
 20
-12.8708844994
 30
0.0
 10
-15.7189218156
 20
-11.7600825924
 30
0.0
 10
-15.5194753776
 20
-10.977951129
 30
0.0
 10
-15.2985154637
 20
-10.4710951505
 30
0.0
 10
-15.0055670639
 20
-10.0355065341
 30
0.0
 10
-14.7621765562
 20
-9.79512987
 30
0.0
 10
-14.6321400837
 20
-9.6915096303
 30
0.0
 11
-15.4547310614
 21
-14.2240617802
 31
0.0
 11
-15.7080963308
 21
-12.8159745106
 31
0.0
 11
-15.6481167904
 21
-11.5362987222
 31
0.0
 11
-15.5011442907
 21
-10.9716228876
 31
0.0
 11
-15.2796255634
 21
-10.4702706072
 31
0.0
 11
-14.9880312749
 21
-10.0410253013
 31
0.0
 11
-14.6321400837
 21
-9.6915096303
 31
0.0
  0
SPLINE
  5
4D5
100
AcDbEntity
  8
RACCORDO
100
AcDbSpline
 62
253
  6
CONTINUOUS
 70
0
 71
3
 72
23
 73
19
 74
17
 42
0.0000001
 43
0.0000001
 44
0.0000000001
 12
-11.9891809911
 22
5.9946444167
 32
0.0
 13
12.1107922338
 23
5.7449920792
 33
0.0
 40
0.0
 40
0.0
 40
0.0
 40
0.0
 40
0.059856808
 40
0.1238674211
 40
0.1914519022
 40
0.2618018626
 40
0.3339582525
 40
0.4068748689
 40
0.4794742605
 40
0.5507031987
 40
0.619587296
 40
0.6852880213
 40
0.7471652981
 40
0.8048487446
 40
0.8583183366
 40
0.907987653
 40
0.9547601817
 40
1.0
 40
1.0
 40
1.0
 40
1.0
 10
-11.4122541856
 20
-8.3056422964
 30
0.0
 10
-11.6514655538
 20
-8.1860355364
 30
0.0
 10
-12.1278378315
 20
-7.9001381988
 30
0.0
 10
-12.8004659441
 20
-7.368558411
 30
0.0
 10
-13.4416583995
 20
-6.7311361407
 30
0.0
 10
-14.0361867402
 20
-6.0026797684
 30
0.0
 10
-14.5700017651
 20
-5.1999589319
 30
0.0
 10
-15.0302773782
 20
-4.3415451926
 30
0.0
 10
-15.4058870723
 20
-3.4473120833
 30
0.0
 10
-15.6876923182
 20
-2.5379839301
 30
0.0
 10
-15.868803257
 20
-1.6346180561
 30
0.0
 10
-15.9447064597
 20
-0.758071778
 30
0.0
 10
-15.9133222735
 20
0.0715099668
 30
0.0
 10
-15.7748581219
 20
0.8351560786
 30
0.0
 10
-15.531606257
 20
1.5152716495
 30
0.0
 10
-15.1875419455
 20
2.0955797785
 30
0.0
 10
-14.7494990117
 20
2.5602094506
 30
0.0
 10
-14.3989866831
 20
2.7845926638
 30
0.0
 10
-14.2163566698
 20
2.8712267963
 30
0.0
 11
-11.4122541856
 21
-8.3056422964
 31
0.0
 11
-12.1022448741
 21
-7.8961748967
 31
0.0
 11
-12.7773791099
 21
-7.3666546648
 31
0.0
 11
-13.4214458902
 21
-6.7295689158
 31
0.0
 11
-14.0188543982
 21
-5.9999514054
 31
0.0
 11
-14.5550739569
 21
-5.1949912501
 31
0.0
 11
-15.0170061976
 21
-4.3336393681
 31
0.0
 11
-15.3933055165
 21
-3.4361912108
 31
0.0
 11
-15.6746908192
 21
-2.523820288
 31
0.0
 11
-15.854200965
 21
-1.6180923086
 31
0.0
 11
-15.9273797446
 21
-0.7404633388
 31
0.0
 11
-15.8924103348
 21
0.0882229656
 31
0.0
 11
-15.7501626945
 21
0.8482339381
 31
0.0
 11
-15.504165491
 21
1.5214198002
 31
0.0
 11
-15.1605153699
 21
2.0916593994
 31
0.0
 11
-14.7276971941
 21
2.5452457841
 31
0.0
 11
-14.2163566698
 21
2.8712267963
 31
0.0
  0
SPLINE
  5
4D6
100
AcDbEntity
  8
SUPERFICI
100
AcDbSpline
 62
253
  6
CONTINUOUS
 70
0
 71
3
 72
9
 73
5
 74
3
 42
0.0000001
 43
0.0000001
 44
0.0000000001
 12
-0.0840102402
 22
0.0412731624
 32
0.0
 13
-0.0831822566
 23
-0.0429174392
 33
0.0
 40
0.0
 40
0.0
 40
0.0
 40
0.0
 40
0.5365169102
 40
1.0
 40
1.0
 40
1.0
 40
1.0
 10
-5.1449169188
 20
20.2514225336
 30
0.0
 10
-5.1599412237
 20
20.2588037835
 30
0.0
 10
-5.1905041254
 20
20.2687383751
 30
0.0
 10
-5.222952275
 20
20.2629962769
 30
0.0
 10
-5.2358034648
 20
20.2563657745
 30
0.0
 11
-5.1449169188
 21
20.2514225336
 31
0.0
 11
-5.1932789202
 21
20.264951395
 31
0.0
 11
-5.2358034648
 21
20.2563657745
 31
0.0
  0
SPLINE
  5
4D7
100
AcDbEntity
  8
RACCORDO
100
AcDbSpline
 62
253
  6
CONTINUOUS
 70
0
 71
3
 72
16
 73
12
 74
10
 42
0.0000001
 43
0.0000001
 44
0.0000000001
 12
-2.8897051332
 22
7.3311149797
 32
0.0
 13
7.1214844025
 23
3.3734407518
 33
0.0
 40
0.0
 40
0.0
 40
0.0
 40
0.0
 40
0.1471359942
 40
0.2902987954
 40
0.4273696796
 40
0.5568663683
 40
0.67809589
 40
0.7912967346
 40
0.8977458182
 40
0.94923896
 40
1.0
 40
1.0
 40
1.0
 40
1.0
 10
-15.1224917026
 20
8.3930516546
 30
0.0
 10
-15.2642182484
 20
8.7526086183
 30
0.0
 10
-15.5002243759
 20
9.4802657965
 30
0.0
 10
-15.7038901974
 20
10.5876287846
 30
0.0
 10
-15.7458433768
 20
11.6671446415
 30
0.0
 10
-15.623527423
 20
12.6832099627
 30
0.0
 10
-15.3405369123
 20
13.6024002467
 30
0.0
 10
-14.90659196
 20
14.3933509376
 30
0.0
 10
-14.4244736129
 20
14.9282621084
 30
0.0
 10
-13.9846546229
 20
15.2576814679
 30
0.0
 10
-13.7494444541
 20
15.3893792841
 30
0.0
 10
-13.6289464693
 20
15.446459071
 30
0.0
 11
-15.1224917026
 21
8.3930516546
 31
0.0
 11
-15.4783660009
 21
9.4965289308
 31
0.0
 11
-15.679427897
 21
10.6066013604
 31
0.0
 11
-15.7171708928
 21
11.686071107
 31
0.0
 11
-15.5900070696
 21
12.6985608883
 31
0.0
 11
-15.3032359843
 21
13.6098001408
 31
0.0
 11
-14.8685303748
 21
14.3887426125
 31
0.0
 11
-14.3031318628
 21
15.0083840788
 31
0.0
 11
-13.978110745
 21
15.251305013
 31
0.0
 11
-13.6289464693
 21
15.446459071
 31
0.0
  0
SPLINE
  5
4D8
100
AcDbEntity
  8
SUPERFICI
100
AcDbSpline
 62
7
  6
CONTINUOUS
 70
0
 71
3
 72
9
 73
5
 74
3
 42
0.0000001
 43
0.0000001
 44
0.0000000001
 12
-0.0815859525
 22
0.0407929763
 32
0.0
 13
-0.0820943577
 23
-0.0397599169
 33
0.0
 40
0.0
 40
0.0
 40
0.0
 40
0.0
 40
0.5361431045
 40
1.0
 40
1.0
 40
1.0
 40
1.0
 10
-4.9338205613
 20
20.3603465196
 30
0.0
 10
-4.9484011432
 20
20.3676368106
 30
0.0
 10
-4.9780641758
 20
20.3775630525
 30
0.0
 10
-5.009719289
 20
20.3725942002
 30
0.0
 10
-5.0224126336
 20
20.366446563
 30
0.0
 11
-4.9338205613
 21
20.3603465196
 31
0.0
 11
-4.9807810264
 21
20.3739989966
 31
0.0
 11
-5.0224126336
 21
20.366446563
 31
0.0
  0
SPLINE
  5
4D9
100
AcDbEntity
  8
RACCORDO
100
AcDbSpline
 62
253
  6
CONTINUOUS
 70
0
 71
3
 72
11
 73
7
 74
5
 42
0.0000001
 43
0.0000001
 44
0.0000000001
 12
-4.2156811828
 22
2.1079148557
 32
0.0
 13
-2.2497527526
 23
4.1417249337
 33
0.0
 40
0.0
 40
0.0
 40
0.0
 40
0.0
 40
0.2257278723
 40
0.4706155376
 40
0.7305986833
 40
1.0
 40
1.0
 40
1.0
 40
1.0
 10
-11.4070263115
 20
3.9946441358
 30
0.0
 10
-11.7242252262
 20
4.153249181
 30
0.0
 10
-12.351774697
 20
4.5535486933
 30
0.0
 10
-13.2072004806
 20
5.3251344323
 30
0.0
 10
-13.9864604077
 20
6.2641340203
 30
0.0
 10
-14.4301112991
 20
6.9708415302
 30
0.0
 10
-14.6321400837
 20
7.342770247
 30
0.0
 11
-11.4070263115
 21
3.9946441358
 31
0.0
 11
-12.3086202269
 21
4.5595023639
 31
0.0
 11
-13.1699962946
 21
5.3277994985
 31
0.0
 11
-13.9554815258
 21
6.2683156888
 31
0.0
 11
-14.6321400837
 21
7.342770247
 31
0.0
  0
SPLINE
  5
4DA
100
AcDbEntity
  8
SUPERFICI
100
AcDbSpline
 62
7
  6
CONTINUOUS
 70
0
 71
3
 72
11
 73
7
 74
5
 42
0.0000001
 43
0.0000001
 44
0.0000000001
 12
0.2626369811
 22
-0.1313184905
 32
0.0
 13
-0.0
 23
-0.2936370715
 33
0.0
 40
0.0
 40
0.0
 40
0.0
 40
0.0
 40
0.2296750453
 40
0.4882137809
 40
0.7532064433
 40
1.0
 40
1.0
 40
1.0
 40
1.0
 10
-6.6308732462
 20
21.2088728621
 30
0.0
 10
-6.6107661927
 20
21.1988193353
 30
0.0
 10
-6.5723443216
 20
21.1687614646
 30
0.0
 10
-6.5279771352
 20
21.1090854337
 30
0.0
 10
-6.4977896549
 20
21.0392990545
 30
0.0
 10
-6.489453685
 20
20.9891197754
 30
0.0
 10
-6.489453685
 20
20.964963863
 30
0.0
 11
-6.6308732462
 21
21.2088728621
 31
0.0
 11
-6.5767546162
 21
21.1686301374
 31
0.0
 11
-6.5308746112
 21
21.1081458519
 31
0.0
 11
-6.5002185281
 21
21.0366275993
 31
0.0
 11
-6.489453685
 21
20.964963863
 31
0.0
  0
SPLINE
  5
4DB
100
AcDbEntity
  8
SUPERFICI
100
AcDbSpline
 62
253
  6
CONTINUOUS
 70
0
 71
3
 72
11
 73
7
 74
5
 42
0.0000001
 43
0.0000001
 44
0.0000000001
 12
0.2614083509
 22
-0.1330218541
 32
0.0
 13
0.0014086312
 23
-0.2933038618
 33
0.0
 40
0.0
 40
0.0
 40
0.0
 40
0.0
 40
0.2292299108
 40
0.4879022955
 40
0.7531904418
 40
1.0
 40
1.0
 40
1.0
 40
1.0
 10
-6.8456864603
 20
21.1018073044
 30
0.0
 10
-6.825712256
 20
21.0916431084
 30
0.0
 10
-6.7875650259
 20
21.0613978838
 30
0.0
 10
-6.7434552093
 20
21.0016624736
 30
0.0
 10
-6.7132955593
 20
20.9319292459
 30
0.0
 10
-6.7047977439
 20
20.8818215511
 30
0.0
 10
-6.704681856
 20
20.8576914856
 30
0.0
 11
-6.8456864603
 21
21.1018073044
 31
0.0
 11
-6.7919803079
 21
21.0613577475
 31
0.0
 11
-6.7463245291
 21
21.0007617059
 31
0.0
 11
-6.7156695162
 21
20.9292437934
 31
0.0
 11
-6.704681856
 21
20.8576914856
 31
0.0
  0
SPLINE
  5
4DC
100
AcDbEntity
  8
DRAFT
100
AcDbSpline
 62
7
  6
CONTINUOUS
 70
0
 71
3
 72
9
 73
5
 74
3
 42
0.0000001
 43
0.0000001
 44
0.0000000001
 12
0.7341853536
 22
-0.3670926768
 32
0.0
 13
0.7893490163
 23
-0.2251961308
 33
0.0
 40
0.0
 40
0.0
 40
0.0
 40
0.0
 40
0.2582234909
 40
1.0
 40
1.0
 40
1.0
 40
1.0
 10
-7.7622458911
 20
-18.7001690011
 30
0.0
 10
-7.6990512561
 20
-18.7317663185
 30
0.0
 10
-7.4517954025
 20
-18.8489399072
 30
0.0
 10
-7.1941712778
 20
-18.9447818977
 30
0.0
 10
-6.9989977586
 20
-19.0004636309
 30
0.0
 11
-7.7622458911
 21
-18.7001690011
 31
0.0
 11
-7.570665367
 21
-18.7908578872
 31
0.0
 11
-6.9989977586
 21
-19.0004636309
 31
0.0
  0
SPLINE
  5
4DD
100
AcDbEntity
  8
DRAFT
100
AcDbSpline
 62
7
  6
CONTINUOUS
 70
0
 71
3
 72
9
 73
5
 74
3
 42
0.0000001
 43
0.0000001
 44
0.0000000001
 12
0.4880191726
 22
-0.2440095863
 32
0.0
 13
0.5133169802
 23
-0.1849569379
 33
0.0
 40
0.0
 40
0.0
 40
0.0
 40
0.0
 40
0.255248879
 40
1.0
 40
1.0
 40
1.0
 40
1.0
 10
-7.7622458911
 20
-6.4026082673
 30
0.0
 10
-7.7207237755
 20
-6.4233693251
 30
0.0
 10
-7.5569349327
 20
-6.5024435194
 30
0.0
 10
-7.3886478889
 20
-6.5722906855
 30
0.0
 10
-7.2612167568
 20
-6.6182063144
 30
0.0
 11
-7.7622458911
 21
-6.4026082673
 31
0.0
 11
-7.6368168717
 21
-6.4631353647
 31
0.0
 11
-7.2612167568
 21
-6.6182063144
 31
0.0
  0
SPLINE
  5
4DE
100
AcDbEntity
  8
DRAFT
100
AcDbSpline
 62
7
  6
CONTINUOUS
 70
0
 71
3
 72
9
 73
5
 74
3
 42
0.0000001
 43
0.0000001
 44
0.0000000001
 12
0.5816067378
 22
-0.2908033689
 32
0.0
 13
0.617083708
 23
-0.2050382748
 33
0.0
 40
0.0
 40
0.0
 40
0.0
 40
0.0
 40
0.2563525838
 40
1.0
 40
1.0
 40
1.0
 40
1.0
 10
-7.7622458911
 20
5.8949524664
 30
0.0
 10
-7.7125470944
 20
5.8701030681
 30
0.0
 10
-7.5170921683
 20
5.7763981048
 30
0.0
 10
-7.3152103204
 20
5.695904625
 30
0.0
 10
-7.1622460854
 20
5.6450792305
 30
0.0
 11
-7.7622458911
 21
5.8949524664
 31
0.0
 11
-7.611913988
 21
5.8229282636
 31
0.0
 11
-7.1622460854
 21
5.6450792305
 31
0.0
  0
SPLINE
  5
4DF
100
AcDbEntity
  8
SUPERFICI
100
AcDbSpline
 62
253
  6
CONTINUOUS
 70
0
 71
3
 72
11
 73
7
 74
5
 42
0.0000001
 43
0.0000001
 44
0.0000000001
 12
0.3293173432
 22
-0.1627674776
 32
0.0
 13
-0.0017306173
 23
-0.3673420331
 33
0.0
 40
0.0
 40
0.0
 40
0.0
 40
0.0
 40
0.2299227093
 40
0.4883139481
 40
0.753110205
 40
1.0
 40
1.0
 40
1.0
 40
1.0
 10
-10.5573775993
 20
24.1327101464
 30
0.0
 10
-10.5321384207
 20
24.1202354999
 30
0.0
 10
-10.4839020309
 20
24.0828038606
 30
0.0
 10
-10.4283005328
 20
24.0082098055
 30
0.0
 10
-10.3906514428
 20
23.9208691458
 30
0.0
 10
-10.3804614717
 20
23.8580516073
 30
0.0
 10
-10.3806038956
 20
23.8278206076
 30
0.0
 11
-10.5573775993
 21
24.1327101464
 31
0.0
 11
-10.489415515
 21
24.0825618507
 31
0.0
 11
-10.431955994
 21
24.0070103907
 31
0.0
 11
-10.3937465512
 21
23.9175572961
 31
0.0
 11
-10.3806038956
 21
23.8278206076
 31
0.0
  0
SPLINE
  5
4E0
100
AcDbEntity
  8
SUPERFICI
100
AcDbSpline
 62
7
  6
CONTINUOUS
 70
0
 71
3
 72
11
 73
7
 74
5
 42
0.0000001
 43
0.0000001
 44
0.0000000001
 12
0.328298287
 22
-0.1641491435
 32
0.0
 13
-0.0
 23
-0.3670486434
 33
0.0
 40
0.0
 40
0.0
 40
0.0
 40
0.0
 40
0.2296752475
 40
0.4882147097
 40
0.7532072079
 40
1.0
 40
1.0
 40
1.0
 40
1.0
 10
-11.085644771
 20
23.8692713264
 30
0.0
 10
-11.0605107743
 20
23.856704328
 30
0.0
 10
-11.0124834502
 20
23.8191310311
 30
0.0
 10
-10.9570248445
 20
23.7445349218
 30
0.0
 10
-10.9192910708
 20
23.6573011126
 30
0.0
 10
-10.9088710674
 20
23.5945767741
 30
0.0
 10
-10.9088710674
 20
23.5643817875
 30
0.0
 11
-11.085644771
 21
23.8692713264
 31
0.0
 11
-11.0179964021
 21
23.8189670188
 31
0.0
 11
-10.9606466549
 21
23.743360383
 31
0.0
 11
-10.9223270315
 21
23.6539617626
 31
0.0
 11
-10.9088710674
 21
23.5643817875
 31
0.0
  0
SPLINE
  5
4E1
100
AcDbEntity
  8
SUPERFICI
100
AcDbSpline
 62
253
  6
CONTINUOUS
 70
0
 71
3
 72
11
 73
7
 74
5
 42
0.0000001
 43
0.0000001
 44
0.0000000001
 12
0.3272561542
 22
-0.1655567191
 32
0.0
 13
0.0017563535
 23
-0.3667458697
 33
0.0
 40
0.0
 40
0.0
 40
0.0
 40
0.0
 40
0.2294296147
 40
0.4881164794
 40
0.7533035489
 40
1.0
 40
1.0
 40
1.0
 40
1.0
 10
-12.6869255619
 20
23.0665493229
 30
0.0
 10
-12.6618981441
 20
23.0538881181
 30
0.0
 10
-12.6140827909
 20
23.0161715465
 30
0.0
 10
-12.5587682282
 20
22.9415731697
 30
0.0
 10
-12.5209488439
 20
22.8544473748
 30
0.0
 10
-12.5102962869
 20
22.7918180855
 30
0.0
 10
-12.5101518582
 20
22.761659784
 30
0.0
 11
-12.6869255619
 21
23.0665493229
 31
0.0
 11
-12.6195940426
 21
23.0160858089
 31
0.0
 11
-12.5623559145
 21
22.9404236396
 31
0.0
 11
-12.5239250441
 21
22.8510812324
 31
0.0
 11
-12.5101518582
 21
22.761659784
 31
0.0
  0
SPLINE
  5
4E2
100
AcDbEntity
  8
SUPERFICI
100
AcDbSpline
 62
253
  6
CONTINUOUS
 70
0
 71
3
 72
11
 73
7
 74
5
 42
0.0000001
 43
0.0000001
 44
0.0000000001
 12
0.0
 22
0.3659185077
 32
0.0
 13
0.326352026
 23
0.1655013878
 33
0.0
 40
0.0
 40
0.0
 40
0.0
 40
0.0
 40
0.2466000408
 40
0.5114083384
 40
0.7699749055
 40
1.0
 40
1.0
 40
1.0
 40
1.0
 10
-14.5412118883
 20
23.6014415431
 30
0.0
 10
-14.5412118883
 20
23.6315200494
 30
0.0
 10
-14.5308695871
 20
23.6940051993
 30
0.0
 10
-14.4933850525
 20
23.7809751433
 30
0.0
 10
-14.4382465733
 20
23.8554746942
 30
0.0
 10
-14.3904866842
 20
23.8931285339
 30
0.0
 10
-14.3654636323
 20
23.9058183581
 30
0.0
 11
-14.5412118883
 21
23.6014415431
 31
0.0
 11
-14.5278536812
 21
23.6906828294
 31
0.0
 11
-14.4897981441
 21
23.7797953892
 31
0.0
 11
-14.432796517
 21
23.8553114724
 31
0.0
 11
-14.3654636323
 21
23.9058183581
 31
0.0
  0
SPLINE
  5
4E3
100
AcDbEntity
  8
SUPERFICI
100
AcDbSpline
 62
253
  6
CONTINUOUS
 70
0
 71
3
 72
11
 73
7
 74
5
 42
0.0000001
 43
0.0000001
 44
0.0000000001
 12
0.0
 22
0.3659185077
 32
0.0
 13
0.326352026
 23
0.1655013878
 33
0.0
 40
0.0
 40
0.0
 40
0.0
 40
0.0
 40
0.2466000408
 40
0.5114083384
 40
0.7699749055
 40
1.0
 40
1.0
 40
1.0
 40
1.0
 10
-12.8626738179
 20
22.7621725079
 30
0.0
 10
-12.8626738179
 20
22.7922510142
 30
0.0
 10
-12.8523315166
 20
22.8547361641
 30
0.0
 10
-12.8148469821
 20
22.941706108
 30
0.0
 10
-12.7597085029
 20
23.016205659
 30
0.0
 10
-12.7119486138
 20
23.0538594987
 30
0.0
 10
-12.6869255619
 20
23.0665493229
 30
0.0
 11
-12.8626738179
 21
22.7621725079
 31
0.0
 11
-12.8493156108
 21
22.8514137942
 31
0.0
 11
-12.8112600737
 21
22.940526354
 31
0.0
 11
-12.7542584465
 21
23.0160424372
 31
0.0
 11
-12.6869255619
 21
23.0665493229
 31
0.0
  0
LINE
  5
4E4
100
AcDbEntity
  8
SUPERFICI
100
AcDbLine
 62
7
  6
CONTINUOUS
 10
-2.260438962
 20
23.2450374659
 11
-2.2587527583
 21
22.6758686784
  0
SPLINE
  5
4E5
100
AcDbEntity
  8
SUPERFICI
100
AcDbSpline
 62
253
  6
CONTINUOUS
 70
0
 71
3
 72
11
 73
7
 74
5
 42
0.0000001
 43
0.0000001
 44
0.0000000001
 12
0.0306889668
 22
-0.2349609694
 32
0.0
 13
0.2117060056
 23
-0.1064379493
 33
0.0
 40
0.0
 40
0.0
 40
0.0
 40
0.0
 40
0.2228226835
 40
0.4583005448
 40
0.7157548557
 40
1.0
 40
1.0
 40
1.0
 40
1.0
 10
-18.6202908108
 20
-17.0946005684
 30
0.0
 10
-18.6180114115
 20
-17.1120521129
 30
0.0
 10
-18.6076291089
 20
-17.1474114468
 30
0.0
 10
-18.5763722721
 20
-17.195308412
 30
0.0
 10
-18.5309299839
 20
-17.2373205419
 30
0.0
 10
-18.4940973423
 20
-17.2596241153
 30
0.0
 10
-18.474038541
 20
-17.2697089387
 30
0.0
 11
-18.6202908108
 21
-17.0946005684
 31
0.0
 11
-18.6056390497
 21
-17.1453262474
 31
0.0
 11
-18.575666996
 21
-17.1923910827
 31
0.0
 11
-18.5313311466
 21
-17.2342958066
 31
0.0
 11
-18.474038541
 21
-17.2697089387
 31
0.0
  0
ELLIPSE
  5
4E6
100
AcDbEntity
  8
ASSI
100
AcDbEllipse
 62
7
  6
CONTINUOUS
 10
13.7240724491
 20
11.5642557447
 30
0.0
 11
0.9261626287
 21
1.8847694129
 31
0.0
 40
0.607010042
 41
-2.7637651264
 42
-2.4610674593
  0
ELLIPSE
  5
4E7
100
AcDbEntity
  8
ASSI
100
AcDbEllipse
 62
7
  6
CONTINUOUS
 10
13.7240724491
 20
7.2341287257
 30
0.0
 11
0.9261626287
 21
1.8847694129
 31
0.0
 40
0.607010042
 41
-2.7637651264
 42
-2.4610674593
  0
ELLIPSE
  5
4E8
100
AcDbEntity
  8
ASSI
100
AcDbEllipse
 62
7
  6
CONTINUOUS
 10
13.7240724491
 20
2.9040017068
 30
0.0
 11
0.9261626287
 21
1.8847694129
 31
0.0
 40
0.607010042
 41
-2.7637651264
 42
-2.4610674593
  0
ELLIPSE
  5
4E9
100
AcDbEntity
  8
ASSI
100
AcDbEllipse
 62
7
  6
CONTINUOUS
 10
13.7240724491
 20
-1.4261253121
 30
0.0
 11
0.9261626287
 21
1.8847694129
 31
0.0
 40
0.607010042
 41
-2.7637651264
 42
-2.4610674593
  0
ELLIPSE
  5
4EA
100
AcDbEntity
  8
ASSI
100
AcDbEllipse
 62
7
  6
CONTINUOUS
 10
13.7240724491
 20
-5.756252331
 30
0.0
 11
0.9261626287
 21
1.8847694129
 31
0.0
 40
0.607010042
 41
-2.7637651264
 42
-2.4610674593
  0
ELLIPSE
  5
4EB
100
AcDbEntity
  8
ASSI
100
AcDbEllipse
 62
7
  6
CONTINUOUS
 10
13.7240724491
 20
-10.0863793499
 30
0.0
 11
0.9261626287
 21
1.8847694129
 31
0.0
 40
0.607010042
 41
-2.7637651264
 42
-2.4610674593
  0
ELLIPSE
  5
4EC
100
AcDbEntity
  8
ASSI
100
AcDbEllipse
 62
7
  6
CONTINUOUS
 10
14.5628578328
 20
-6.1756450229
 30
0.0
 11
0.9134242373
 21
1.8910797574
 31
0.0
 40
0.6016116119
 41
0.6764898932
 42
3.8180825468
  0
ELLIPSE
  5
4ED
100
AcDbEntity
  8
ASSI
100
AcDbEllipse
 62
7
  6
CONTINUOUS
 10
14.5628578328
 20
-10.5057720418
 30
0.0
 11
0.9134242373
 21
1.8910797574
 31
0.0
 40
0.6016116119
 41
0.6764898932
 42
3.8180825468
  0
ELLIPSE
  5
4EE
100
AcDbEntity
  8
ASSI
100
AcDbEllipse
 62
7
  6
CONTINUOUS
 10
14.5628578328
 20
11.1448630528
 30
0.0
 11
0.9134242373
 21
1.8910797574
 31
0.0
 40
0.6016116119
 41
0.6764898932
 42
3.8180825468
  0
ELLIPSE
  5
4EF
100
AcDbEntity
  8
ASSI
100
AcDbEllipse
 62
7
  6
CONTINUOUS
 10
14.5628578328
 20
6.8147360339
 30
0.0
 11
0.9134242373
 21
1.8910797574
 31
0.0
 40
0.6016116119
 41
0.6764898932
 42
3.8180825468
  0
ELLIPSE
  5
4F0
100
AcDbEntity
  8
ASSI
100
AcDbEllipse
 62
7
  6
CONTINUOUS
 10
14.5628578328
 20
2.484609015
 30
0.0
 11
0.9134242373
 21
1.8910797574
 31
0.0
 40
0.6016116119
 41
0.6764898932
 42
3.8180825468
  0
ELLIPSE
  5
4F1
100
AcDbEntity
  8
RACCORDO
100
AcDbEllipse
 62
7
  6
CONTINUOUS
 10
-3.504197579
 20
20.611790481
 30
0.0
 11
1.2181247452
 21
0.9560445338
 31
0.0
 40
0.2321910517
 41
0.1093596625
 42
0.1138484791
  0
ELLIPSE
  5
4F2
100
AcDbEntity
  8
RACCORDO
100
AcDbEllipse
 62
7
  6
CONTINUOUS
 10
2.1016782821
 20
-17.8317207793
 30
0.0
 11
-0.894811907
 21
1.788971565
 31
0.0
 40
0.6123121697
 41
-3.0410143285
 42
-2.9089044815
  0
ELLIPSE
  5
4F3
100
AcDbEntity
  8
RACCORDO
100
AcDbEllipse
 62
7
  6
CONTINUOUS
 10
2.1016782821
 20
12.7761227182
 30
0.0
 11
-0.894612936
 21
1.7887945813
 31
0.0
 40
0.6124635976
 41
-1.602398565
 42
-1.470288718
  0
ELLIPSE
  5
4F4
100
AcDbEntity
  8
ASSI
100
AcDbEllipse
 62
7
  6
CONTINUOUS
 10
14.5628578328
 20
-1.8455180039
 30
0.0
 11
0.9134242373
 21
1.8910797574
 31
0.0
 40
0.6016116119
 41
0.6764898932
 42
3.8180825468
  0
ELLIPSE
  5
4F5
100
AcDbEntity
  8
SUPERFICI
100
AcDbEllipse
 62
7
  6
CONTINUOUS
 10
-3.5948175193
 20
24.5233379145
 30
0.0
 11
0.2257019663
 21
0.4461636818
 31
0.0
 40
0.6159267166
 41
0.5882567743
 42
0.6817883054
  0
ELLIPSE
  5
4F6
100
AcDbEntity
  8
SUPERFICI
100
AcDbEllipse
 62
7
  6
CONTINUOUS
 10
-4.2335720261
 20
20.5262512452
 30
0.0
 11
-0.0909679979
 21
0.1781462259
 31
0.0
 40
0.6079022756
 41
-0.6898048156
 42
-0.0128958448
  0
ELLIPSE
  5
4F7
100
AcDbEntity
  8
SUPERFICI
100
AcDbEllipse
 62
7
  6
CONTINUOUS
 10
7.7874540189
 20
-17.4842325806
 30
0.0
 11
0.9927147821
 21
0.620457446
 31
0.0
 40
0.0764819879
 41
-2.4043514965
 42
-1.2091443565
  0
ELLIPSE
  5
4F8
100
AcDbEntity
  8
SUPERFICI
100
AcDbEllipse
 62
7
  6
CONTINUOUS
 10
4.1149017711
 20
21.3070569679
 30
0.0
 11
0.4547905863
 21
0.8906238433
 31
0.0
 40
0.6079814556
 41
0.0051546174
 42
0.6840559135
  0
ELLIPSE
  5
4F9
100
AcDbEntity
  8
SUPERFICI
100
AcDbEllipse
 62
7
  6
CONTINUOUS
 10
-3.7957986403
 20
25.2624071737
 30
0.0
 11
1.004787277
 21
0.6140102217
 31
0.0
 40
0.0864918533
 41
0.0541644768
 42
0.7329085821
  0
ELLIPSE
  5
4FA
100
AcDbEntity
  8
SUPERFICI
100
AcDbEllipse
 62
7
  6
CONTINUOUS
 10
2.4492628069
 20
-22.3696087006
 30
0.0
 11
-0.2236315662
 21
0.4472293059
 31
0.0
 40
0.6123445654
 41
-3.1337469158
 42
-2.2555748796
  0
ELLIPSE
  5
4FB
100
AcDbEntity
  8
SUPERFICI
100
AcDbEllipse
 62
7
  6
CONTINUOUS
 10
2.4492628069
 20
15.5522125523
 30
0.0
 11
-0.223611546
 21
0.4472115081
 31
0.0
 40
0.6124054886
 41
-2.2555017776
 42
-0.6847562194
  0
ELLIPSE
  5
4FC
100
AcDbEntity
  8
SUPERFICI
100
AcDbEllipse
 62
7
  6
CONTINUOUS
 10
7.6998075328
 20
19.5699374411
 30
0.0
 11
0.499996712
 21
0.0035883639
 31
0.0
 40
0.5053247124
 41
-0.7715714568
 42
-0.0036366941
  0
ELLIPSE
  5
4FD
100
AcDbEntity
  8
SUPERFICI
100
AcDbEllipse
 62
7
  6
CONTINUOUS
 10
-5.942755163
 20
21.3808428136
 30
0.0
 11
-0.090948378
 21
0.1781282571
 31
0.0
 40
0.6080538059
 41
-2.2606249166
 42
-0.6898793584
  0
ELLIPSE
  5
4FE
100
AcDbEntity
  8
SUPERFICI
100
AcDbEllipse
 62
7
  6
CONTINUOUS
 10
2.0171562768
 20
21.7173510164
 30
0.0
 11
0.2273952932
 21
0.4453119217
 31
0.0
 40
0.6079814556
 41
0.2357074224
 42
0.6840559135
  0
ELLIPSE
  5
4FF
100
AcDbEntity
  8
DRAFT
100
AcDbEllipse
 62
7
  6
CONTINUOUS
 10
-2.5296018333
 20
20.7607500439
 30
0.0
 11
1.0004579904
 21
0.0071800639
 31
0.0
 40
0.5053247124
 41
2.0687741545
 42
2.3526440601
  0
ELLIPSE
  5
500
100
AcDbEntity
  8
SUPERFICI
100
AcDbEllipse
 62
7
  6
CONTINUOUS
 10
2.3493810799
 20
20.6315852279
 30
0.0
 11
0.4530414621
 21
-0.0021419047
 31
0.0
 40
0.4964289597
 41
-0.77723337
 42
0.0023234052
  0
ELLIPSE
  5
501
100
AcDbEntity
  8
SUPERFICI
100
AcDbEllipse
 62
7
  6
CONTINUOUS
 10
-2.5296923501
 20
22.7572909779
 30
0.0
 11
1.0205811965
 21
-0.0048251373
 31
0.0
 40
0.4964289597
 41
1.3061600176
 42
2.3584907469
  0
ELLIPSE
  5
502
100
AcDbEntity
  8
SUPERFICI
100
AcDbEllipse
 62
7
  6
CONTINUOUS
 10
-3.2410655331
 20
23.4268085344
 30
0.0
 11
0.4530414621
 21
-0.0021419047
 31
0.0
 40
0.4964289597
 41
-0.4806702637
 42
0.0023660984
  0
ELLIPSE
  5
503
100
AcDbEntity
  8
SUPERFICI
100
AcDbEllipse
 62
7
  6
CONTINUOUS
 10
51.7396793591
 20
45.9810741043
 30
0.0
 11
60.4168605605
 21
30.5632322457
 31
0.0
 40
0.005706723
 41
2.5167363259
 42
2.6876789752
  0
ELLIPSE
  5
504
100
AcDbEntity
  8
SUPERFICI
100
AcDbEllipse
 62
7
  6
CONTINUOUS
 10
2.6367254296
 20
21.40756644
 30
0.0
 11
0.221538876
 21
0.4482453432
 31
0.0
 40
0.6088015717
 41
0.5825560023
 42
0.6760875334
  0
ELLIPSE
  5
505
100
AcDbEntity
  8
SUPERFICI
100
AcDbEllipse
 62
7
  6
CONTINUOUS
 10
51.7396793591
 20
45.9810741043
 30
0.0
 11
60.4168605605
 21
30.5632322457
 31
0.0
 40
0.005706723
 41
-2.6934527084
 42
-2.5225100591
  0
ELLIPSE
  5
506
100
AcDbEntity
  8
SUPERFICI
100
AcDbEllipse
 62
7
  6
CONTINUOUS
 10
-0.1232463926
 20
23.4261310498
 30
0.0
 11
0.4394935595
 21
0.8982713957
 31
0.0
 40
0.6167074461
 41
5.3917895557
 42
6.9567681183
  0
ELLIPSE
  5
507
100
AcDbEntity
  8
SUPERFICI
100
AcDbEllipse
 62
7
  6
CONTINUOUS
 10
7.7874540189
 20
19.4707808441
 30
0.0
 11
-0.7356038977
 21
1.2035991204
 31
0.0
 40
0.5552491559
 41
5.0404636726
 42
6.2356708126
  0
ELLIPSE
  5
508
100
AcDbEntity
  8
SUPERFICI
100
AcDbEllipse
 62
7
  6
CONTINUOUS
 10
-8.4681185068
 20
21.7406439295
 30
0.0
 11
0.0907039967
 21
0.1782526758
 31
0.0
 40
0.6176975122
 41
0.6948951487
 42
2.2598737113
  0
ELLIPSE
  5
509
100
AcDbEntity
  8
SUPERFICI
100
AcDbEllipse
 62
7
  6
CONTINUOUS
 10
-13.6614422387
 20
22.3979001505
 30
0.0
 11
0.249929385
 21
0.0111824824
 31
0.0
 40
0.5313301283
 41
3.1178197826
 42
3.9032222197
  0
ELLIPSE
  5
50A
100
AcDbEntity
  8
SUPERFICI
100
AcDbEllipse
 62
7
  6
CONTINUOUS
 10
-11.9746765145
 20
21.5545172884
 30
0.0
 11
0.249929385
 21
0.0111824824
 31
0.0
 40
0.5313301283
 41
-2.3799630874
 42
-0.8149845248
  0
ELLIPSE
  5
50B
100
AcDbEntity
  8
SUPERFICI
100
AcDbEllipse
 62
7
  6
CONTINUOUS
 10
-1.357784246
 20
16.2460711542
 30
0.0
 11
0.249929385
 21
0.0111824824
 31
0.0
 40
0.5313301283
 41
3.1178197826
 42
3.9032222197
  0
ELLIPSE
  5
50C
100
AcDbEntity
  8
SUPERFICI
100
AcDbEllipse
 62
7
  6
CONTINUOUS
 10
0.3289814782
 20
15.402688292
 30
0.0
 11
0.249929385
 21
0.0111824824
 31
0.0
 40
0.5313301283
 41
-2.3799630874
 42
-0.8149845248
  0
ELLIPSE
  5
50D
100
AcDbEntity
  8
SUPERFICI
100
AcDbEllipse
 62
7
  6
CONTINUOUS
 10
7.6998075328
 20
20.4031706706
 30
0.0
 11
-0.3739417019
 21
0.598522373
 31
0.0
 40
0.554557473
 41
-3.1836090632
 42
-2.1562706881
  0
ELLIPSE
  5
50E
100
AcDbEntity
  8
SUPERFICI
100
AcDbEllipse
 62
7
  6
CONTINUOUS
 10
7.6998075328
 20
-17.6218691399
 30
0.0
 11
0.499443764
 21
0.3120915671
 31
0.0
 40
0.0755486457
 41
5.9766181181
 42
7.0039564932
  0
ELLIPSE
  5
50F
100
AcDbEntity
  8
SUPERFICI
100
AcDbEllipse
 62
7
  6
CONTINUOUS
 10
-6.8448637089
 20
19.7044794725
 30
0.0
 11
0.199943508
 21
0.008945986
 31
0.0
 40
0.5313301283
 41
-2.3799630874
 42
-0.8178934069
  0
ELLIPSE
  5
510
100
AcDbEntity
  8
SUPERFICI
100
AcDbEllipse
 62
7
  6
CONTINUOUS
 10
-5.1440941674
 20
18.8540947018
 30
0.0
 11
0.199943508
 21
0.008945986
 31
0.0
 40
0.5313301283
 41
3.1178423524
 42
3.9032222197
  0
ELLIPSE
  5
511
100
AcDbEntity
  8
SUPERFICI
100
AcDbEllipse
 62
7
  6
CONTINUOUS
 10
-2.9752483665
 20
24.2135533381
 30
0.0
 11
0.2197467797
 21
0.4491356978
 31
0.0
 40
0.6167074461
 41
0.2252343201
 42
0.6735828111
  0
ELLIPSE
  5
512
100
AcDbEntity
  8
SUPERFICI
100
AcDbEllipse
 62
7
  6
CONTINUOUS
 10
-3.2410655331
 20
66.344827404
 30
0.0
 11
-0.3192264997
 21
45.1189143812
 31
0.0
 40
0.0071249215
 41
-2.8357121276
 42
-2.7477165211
  0
ENDSEC
  0
SECTION
  2
OBJECTS
  0
DICTIONARY
  5
C
100
AcDbDictionary
280
0
281
1
  3
ACAD_GROUP
350
D
  3
ACAD_MLINESTYLE
350
17
  3
ACAD_LAYOUT
350
1A
  3
ACAD_PLOTSETTINGS
350
19
  3
ACAD_PLOTSTYLENAME
350
E
  0
DICTIONARY
  5
D
102
{ACAD_REACTORS
330
C
102
}
100
AcDbDictionary
280
0
281
1
  0
ACDBDICTIONARYWDFLT
  5
E
102
{ACAD_REACTORS
330
C
102
}
100
AcDbDictionary
281
1
  3
Normal
350
F
100
AcDbDictionaryWithDefault
340
F
  0
DICTIONARY
  5
17
102
{ACAD_REACTORS
330
C
102
}
100
AcDbDictionary
280
0
281
1
  3
Standard
350
18
  0
DICTIONARY
  5
19
102
{ACAD_REACTORS
330
C
102
}
100
AcDbDictionary
281
1
  0
DICTIONARY
  5
1A
102
{ACAD_REACTORS
330
C
102
}
100
AcDbDictionary
281
1
  3
Model
350
513
  3
Layout1
350
514
  0
ACDBPLACEHOLDER
  5
F
102
{ACAD_REACTORS
330
E
102
}
  0
MLINESTYLE
  5
18
102
{ACAD_REACTORS
330
17
102
}
100
AcDbMlineStyle
  2
STANDARD
 70
0
  3

 62
256
 51
90.0
 52
90.0
 71
2
 49
0.5
 62
256
  6
BYLAYER
 49
-0.5
 62
256
  6
BYLAYER
  0
LAYOUT
  5
513
102
{ACAD_REACTORS
330
1A
102
}
100
AcDbPlotSettings
  1

  2
none_device
  4
ISO_A4_(297.00_x_210.00_MM)
  6

 40
0.0
 41
0.0
 42
0.0
 43
0.0
 44
297.0
 45
210.0
 46
0.0
 47
0.0
 48
0.0
 49
0.0
140
0.0
141
0.0
142
1.0
143
1.0
 70
1024
 72
1
 73
0
 74
0
  7

 75
0
147
1.0
148
0.0
149
0.0
100
AcDbLayout
  1
Model
 70
0
 71
0
 10
0.0
 20
0.0
 11
297.0
 21
210.0
 12
0.0
 22
0.0
 32
0.0
 14
0.0
 24
0.0
 34
0.0
 15
0.0
 25
0.0
 35
0.0
146
0.0
 13
0.0
 23
0.0
 33
0.0
 16
1.0
 26
0.0
 36
0.0
 17
0.0
 27
1.0
 37
0.0
 76
0
330
21C
345
0
346
0
  0
LAYOUT
  5
514
102
{ACAD_REACTORS
330
1A
102
}
100
AcDbPlotSettings
  1

  2
none_device
  4
ISO_A4_(297.00_x_210.00_MM)
  6

 40
0.0
 41
0.0
 42
0.0
 43
0.0
 44
297.0
 45
210.0
 46
0.0
 47
0.0
 48
0.0
 49
0.0
140
0.0
141
0.0
142
1.0
143
1.0
 70
0
 72
1
 73
0
 74
0
  7

 75
0
147
1.0
148
0.0
149
0.0
100
AcDbLayout
  1
Layout1
 70
0
 71
1
 10
0.0
 20
0.0
 11
297.0
 21
210.0
 12
0.0
 22
0.0
 32
0.0
 14
0.0
 24
0.0
 34
0.0
 15
0.0
 25
0.0
 35
0.0
146
0.0
 13
0.0
 23
0.0
 33
0.0
 16
1.0
 26
0.0
 36
0.0
 17
0.0
 27
1.0
 37
0.0
 76
0
330
21D
345
0
346
0
  0
ENDSEC
  0
EOF
