0
SECTION
2
HEADER
9
$ACADVER
1
AC1014
9
$HANDSEED
5
       439
9
$EXTMAX
10
297.0000000000
20
210.0000000000
9
$EXTMIN
10
0.0000000000
20
0.0000000000
9
$LIMMIN
10
0.0000000000
20
0.0000000000
9
$LIMMAX
10
297.0000000000
20
210.0000000000
9
$VIEWCTR
10
148.5000000000
20
105.0000000000
9
$VIEWSIZE
40
210.0000000000
9
$CLAYER
8
0
9
$LTSCALE
40
16.3350000000
9
$CELTYPE
6
BYLAYER
9
$DIMSCALE
40
1
9
$DIMASZ
40
3.0000000000
9
$DIMEXO
40
1.8562500000
9
$DIMDLI
40
11.2860000000
9
$DIMEXE
40
5.3460000000
9
$DIMCEN
40
2.6730000000
9
$DIMLFAC
40
1.0000000000
9
$DIMTXT
40
3.0000000000
9
$DIMTOL
70
1
9
$DIMLIM
70
0
9
$DIMTFAC
40
1.0000000000
9
$DIMTP
40
0.0100000000
9
$DIMTM
40
0.0100000000
9
$MEASUREMENT
70
1
0
ENDSEC
0
SECTION
2
CLASSES
0
ENDSEC
0
SECTION
2
TABLES
0
TABLE
2
VPORT
5
8
100
AcDbSymbolTable
70
2
0
VPORT
5
1F4
100
AcDbSymbolTableRecord
100
AcDbViewportTableRecord
2
*ACTIVE
70
0
10
0.0
20
0.0
11
1.0
21
1.0
12
148.5000000000
22
105.0000000000
13
0.0
23
0.0
14
1.0
24
1.0
15
0.0
25
0.0
16
0.0
26
0.0
36
1.0
17
0.0
27
0.0
37
0.0
40
210.0000000000
41
1.4142857143
42
50.0
43
0.0
44
0.0
50
0.0
51
0.0
71
0
72
100
73
1
74
1
75
0
76
0
77
0
78
0
0
ENDTAB
0
TABLE
2
LTYPE
5
5
100
AcDbSymbolTable
70
6
0
LTYPE
5
14
100
AcDbSymbolTableRecord
100
AcDbLinetypeTableRecord
2
BYBLOCK
70
0
3

72
65
73
0
40
0.0
0
LTYPE
5
15
100
AcDbSymbolTableRecord
100
AcDbLinetypeTableRecord
2
BYLAYER
70
0
3

72
65
73
0
40
0.0
0
LTYPE
5
16
100
AcDbSymbolTableRecord
100
AcDbLinetypeTableRecord
2
CONTINUOUS
70
64
3
Solid line
72
65
73
0
40
0
0
LTYPE
5
1F5
100
AcDbSymbolTableRecord
100
AcDbLinetypeTableRecord
2
CENTER
70
64
3
____ _ ____ _ ____ _ ____ _ ____ _ ____ _ ____
72
65
73
4
40
0.6
49
0.375
74
0
49
-0.075
74
0
49
0.075
74
0
49
-0.075
74
0
0
LTYPE
5
1F6
100
AcDbSymbolTableRecord
100
AcDbLinetypeTableRecord
2
HIDDEN
70
64
3
- - - - - - - - - - - - - - - - - - - -
72
65
73
2
40
0.2
49
0.1
74
0
49
-0.1
74
0
0
LTYPE
5
1F7
100
AcDbSymbolTableRecord
100
AcDbLinetypeTableRecord
2
PHANTOM
70
64
3
_____ _ _ _____ _ _ _____ _ _ _____
72
65
73
6
40
0.8
49
0.45
74
0
49
-0.05
74
0
49
0.1
74
0
49
-0.05
74
0
49
0.1
74
0
49
-0.05
74
0
0
LTYPE
5
1F8
100
AcDbSymbolTableRecord
100
AcDbLinetypeTableRecord
2
DOT
70
64
3
. . . . . . . . . . . . . . . . . . . .
72
65
73
2
40
0.2
49
0.1
74
0
49
-0.1
74
0
0
LTYPE
5
1F9
100
AcDbSymbolTableRecord
100
AcDbLinetypeTableRecord
2
DASHED
70
64
3
- - - - - - - - - - - - - - - - - - - -
72
65
73
2
40
0.2
49
0.1
74
0
49
-0.1
74
0
0
ENDTAB
0
TABLE
2
LAYER
5
2
100
AcDbSymbolTable
70
36
0
LAYER
5
10
100
AcDbSymbolTableRecord
100
AcDbLayerTableRecord
2
0
70
0
62
7
6
CONTINUOUS
0
LAYER
5
1FA
100
AcDbSymbolTableRecord
100
AcDbLayerTableRecord
2
DEFAULT_1
70
0
62
7
6
CENTER
0
LAYER
5
1FB
100
AcDbSymbolTableRecord
100
AcDbLayerTableRecord
2
DEFAULT_2
70
0
62
8
6
HIDDEN
0
LAYER
5
1FC
100
AcDbSymbolTableRecord
100
AcDbLayerTableRecord
2
DEFAULT_3
70
0
62
7
6
PHANTOM
0
LAYER
5
1FD
100
AcDbSymbolTableRecord
100
AcDbLayerTableRecord
2
_BLACK_HOLE
70
0
62
7
6
CONTINUOUS
0
LAYER
5
1FE
100
AcDbSymbolTableRecord
100
AcDbLayerTableRecord
2
ASSI
70
0
62
7
6
CONTINUOUS
0
LAYER
5
1FF
100
AcDbSymbolTableRecord
100
AcDbLayerTableRecord
2
COLOR6
70
0
62
7
6
CONTINUOUS
0
LAYER
5
200
100
AcDbSymbolTableRecord
100
AcDbLayerTableRecord
2
COORDINATE
70
0
62
7
6
CONTINUOUS
0
LAYER
5
201
100
AcDbSymbolTableRecord
100
AcDbLayerTableRecord
2
COORD_ORIGINE
70
0
62
7
6
CONTINUOUS
0
LAYER
5
202
100
AcDbSymbolTableRecord
100
AcDbLayerTableRecord
2
COPY
70
0
62
7
6
CONTINUOUS
0
LAYER
5
203
100
AcDbSymbolTableRecord
100
AcDbLayerTableRecord
2
COPY_AGGANCI
70
0
62
7
6
CONTINUOUS
0
LAYER
5
204
100
AcDbSymbolTableRecord
100
AcDbLayerTableRecord
2
COPY_PLACCA
70
0
62
7
6
CONTINUOUS
0
LAYER
5
205
100
AcDbSymbolTableRecord
100
AcDbLayerTableRecord
2
COPY_PUB
70
0
62
7
6
CONTINUOUS
0
LAYER
5
206
100
AcDbSymbolTableRecord
100
AcDbLayerTableRecord
2
COPY_SUPPORTO
70
0
62
7
6
CONTINUOUS
0
LAYER
5
207
100
AcDbSymbolTableRecord
100
AcDbLayerTableRecord
2
CURVE
70
0
62
7
6
CONTINUOUS
0
LAYER
5
208
100
AcDbSymbolTableRecord
100
AcDbLayerTableRecord
2
DRAFT
70
0
62
7
6
CONTINUOUS
0
LAYER
5
209
100
AcDbSymbolTableRecord
100
AcDbLayerTableRecord
2
IMPORT_SCRITTE
70
0
62
7
6
CONTINUOUS
0
LAYER
5
20A
100
AcDbSymbolTableRecord
100
AcDbLayerTableRecord
2
NOTE
70
0
62
7
6
CONTINUOUS
0
LAYER
5
20B
100
AcDbSymbolTableRecord
100
AcDbLayerTableRecord
2
PIANI
70
0
62
7
6
CONTINUOUS
0
LAYER
5
20C
100
AcDbSymbolTableRecord
100
AcDbLayerTableRecord
2
PIANI_ORIGINE
70
0
62
7
6
CONTINUOUS
0
LAYER
5
20D
100
AcDbSymbolTableRecord
100
AcDbLayerTableRecord
2
PUNTI
70
0
62
7
6
CONTINUOUS
0
LAYER
5
20E
100
AcDbSymbolTableRecord
100
AcDbLayerTableRecord
2
RACCORDO
70
0
62
7
6
CONTINUOUS
0
LAYER
5
20F
100
AcDbSymbolTableRecord
100
AcDbLayerTableRecord
2
SMUSSO
70
0
62
7
6
CONTINUOUS
0
LAYER
5
210
100
AcDbSymbolTableRecord
100
AcDbLayerTableRecord
2
SUPERFICI
70
0
62
7
6
CONTINUOUS
0
LAYER
5
211
100
AcDbSymbolTableRecord
100
AcDbLayerTableRecord
2
SUP_SUPP
70
0
62
7
6
CONTINUOUS
0
LAYER
5
212
100
AcDbSymbolTableRecord
100
AcDbLayerTableRecord
2
TRASH
70
0
62
7
6
CONTINUOUS
0
LAYER
5
213
100
AcDbSymbolTableRecord
100
AcDbLayerTableRecord
2
XSEC_DATUMS
70
0
62
7
6
CONTINUOUS
0
ENDTAB
0
TABLE
2
STYLE
5
3
100
AcDbSymbolTable
70
1
0
STYLE
5
11
100
AcDbSymbolTableRecord
100
AcDbTextStyleTableRecord
2
STANDARD
70
0
40
0.0
41
0.8000000000
50
0.0
71
0
42
0.2
3
txt
4

0
ENDTAB
0
TABLE
2
VIEW
5
6
100
AcDbSymbolTable
70
0
0
ENDTAB
0
TABLE
2
UCS
5
7
100
AcDbSymbolTable
70
0
0
ENDTAB
0
TABLE
2
APPID
5
9
100
AcDbSymbolTable
70
1
0
APPID
5
214
100
AcDbSymbolTableRecord
100
AcDbRegAppTableRecord
2
ACAD
70
0
0
ENDTAB
0
TABLE
2
DIMSTYLE
5
A
100
AcDbSymbolTable
70
1
0
DIMSTYLE
105
215
100
AcDbSymbolTableRecord
100
AcDbDimStyleTableRecord
2
STANDARD
70
0
3

4

5

6

7

40
1.0
41
3.0000000000
42
0.0625
43
0.38
44
0.18
45
0.0
46
0.0
47
0.0100000000
48
0.0100000000
140
3.0000000000
141
0.09
142
0.0
143
25.4
144
1.0000000000
145
0.0
146
1.0000000000
147
0.09
71
1
72
0
73
0
74
0
75
0
76
0
77
1
78
8
170
0
171
2
172
0
173
0
174
0
175
0
176
0
177
0
178
0
270
2
271
2
272
2
273
2
274
2
340
11
275
0
280
0
281
0
282
0
283
1
284
8
285
0
286
0
287
3
288
0
0
ENDTAB
0
TABLE
2
BLOCK_RECORD
5
1
100
AcDbSymbolTable
70
0
0
BLOCK_RECORD
5
1B
100
AcDbSymbolTableRecord
100
AcDbBlockTableRecord
2
*MODEL_SPACE
0
BLOCK_RECORD
5
1C
100
AcDbSymbolTableRecord
100
AcDbBlockTableRecord
2
*PAPER_SPACE
0
ENDTAB
0
ENDSEC
0
SECTION
2
BLOCKS
0
BLOCK
5
1E
100
AcDbEntity
8
0
100
AcDbBlockBegin
2
*MODEL_SPACE
70
0
10
0.0
20
0.0
30
0.0
3
*MODEL_SPACE
1

0
ENDBLK
5
1F
100
AcDbEntity
8
0
100
AcDbBlockEnd
0
BLOCK
5
20
100
AcDbEntity
8
0
100
AcDbBlockBegin
2
*PAPER_SPACE
70
0
10
0.0
20
0.0
30
0.0
3
*PAPER_SPACE
1

0
ENDBLK
5
21
100
AcDbEntity
8
0
100
AcDbBlockEnd
0
ENDSEC
0
SECTION
2
ENTITIES
0
LINE
5
216
100
AcDbEntity
8
0
100
AcDbLine
62
7
6
CONTINUOUS
10
-54.4742327706
20
60.7065193133
11
-54.4749493894
21
60.7060728598
0
LINE
5
217
100
AcDbEntity
8
0
100
AcDbLine
62
7
6
CONTINUOUS
10
-50.1127428671
20
62.2202518627
11
-50.3253553869
21
62.0957081602
0
LINE
5
218
100
AcDbEntity
8
0
100
AcDbLine
62
7
6
CONTINUOUS
10
-49.6436631776
20
62.2037047317
11
-50.0771121736
21
61.9591588076
0
LINE
5
219
100
AcDbEntity
8
0
100
AcDbLine
62
7
6
CONTINUOUS
10
-55.1159669980
20
59.4264392341
11
-55.1159669980
21
-10.3614678862
0
LINE
5
21A
100
AcDbEntity
8
0
100
AcDbLine
62
7
6
CONTINUOUS
10
-54.8845348313
20
59.1251847482
11
-54.8845348313
21
-10.6627217266
0
LINE
5
21B
100
AcDbEntity
8
0
100
AcDbLine
62
7
6
CONTINUOUS
10
-55.1159669980
20
-10.3614678880
11
-55.1159668106
21
-10.3611775007
0
LINE
5
21C
100
AcDbEntity
8
0
100
AcDbLine
62
7
6
CONTINUOUS
10
-38.9839504297
20
37.3469189864
11
-38.9832515648
21
37.3473497803
0
LINE
5
21D
100
AcDbEntity
8
0
100
AcDbLine
62
7
6
CONTINUOUS
10
-38.9962861201
20
37.6240341986
11
-38.9926438455
21
37.6258117115
0
LINE
5
21E
100
AcDbEntity
8
0
100
AcDbLine
62
7
6
CONTINUOUS
10
-37.2272392627
20
34.7303911586
11
-37.3001954618
21
34.7019957155
0
LINE
5
21F
100
AcDbEntity
8
0
100
AcDbLine
62
7
6
CONTINUOUS
10
-39.4158835213
20
-5.4475155147
11
-39.4158835213
21
37.0352048060
0
LINE
5
220
100
AcDbEntity
8
0
100
AcDbLine
62
7
6
CONTINUOUS
10
-39.2726528515
20
-5.4490804642
11
-39.2726528515
21
37.0336398565
0
LINE
5
221
100
AcDbEntity
8
0
100
AcDbLine
62
7
6
CONTINUOUS
10
-39.2314835084
20
-5.5118866812
11
-39.2314835084
21
36.7946494936
0
LINE
5
222
100
AcDbEntity
8
0
100
AcDbLine
62
7
6
CONTINUOUS
10
-39.2046021897
20
-5.5459955453
11
-39.2046021897
21
36.7605406258
0
LINE
5
223
100
AcDbEntity
8
0
100
AcDbLine
62
7
6
CONTINUOUS
10
-38.1909303389
20
35.9772201310
11
-38.1909303389
21
-5.8479762996
0
LINE
5
224
100
AcDbEntity
8
0
100
AcDbLine
62
7
6
CONTINUOUS
10
-37.9110169840
20
35.1904104044
11
-37.9110169840
21
-5.0731979660
0
LINE
5
225
100
AcDbEntity
8
0
100
AcDbLine
62
7
6
CONTINUOUS
10
-36.3854110304
20
34.3094770425
11
-36.3854110304
21
-3.5671667714
0
LINE
5
226
100
AcDbEntity
8
0
100
AcDbLine
62
7
6
CONTINUOUS
10
-37.7450424322
20
-4.5842563906
11
-37.9110169840
21
-5.0731979660
0
LINE
5
227
100
AcDbEntity
8
0
100
AcDbLine
62
7
6
CONTINUOUS
10
-37.4830450345
20
-4.6676848651
11
-37.6490195863
21
-5.1566264405
0
LINE
5
228
100
AcDbEntity
8
0
100
AcDbLine
62
7
6
CONTINUOUS
10
48.9977327979
20
-26.3171918934
11
48.5027580511
21
-26.4384610069
0
LINE
5
229
100
AcDbEntity
8
0
100
AcDbLine
62
7
6
CONTINUOUS
10
43.7155937114
20
-61.2315462589
11
43.7157045751
21
-61.2315962395
0
LINE
5
22A
100
AcDbEntity
8
0
100
AcDbLine
62
7
6
CONTINUOUS
10
-53.9824387495
20
-12.3825010510
11
-53.9822332393
21
-12.3826148263
0
LINE
5
22B
100
AcDbEntity
8
0
100
AcDbLine
62
7
6
CONTINUOUS
10
-22.4056269929
20
-9.1718063712
11
-22.4056269929
21
-9.6841698776
0
LINE
5
22C
100
AcDbEntity
8
0
100
AcDbLine
62
7
6
CONTINUOUS
10
-22.3542559580
20
-9.1562853108
11
-22.3542559580
21
-9.6668360953
0
LINE
5
22D
100
AcDbEntity
8
0
100
AcDbLine
62
7
6
CONTINUOUS
10
-3.4228128772
20
-24.3870505291
11
-3.7431463912
21
-24.2268837721
0
LINE
5
22E
100
AcDbEntity
8
0
100
AcDbLine
62
7
6
CONTINUOUS
10
-4.2770353455
20
-23.9599392949
11
-4.5617766397
21
-23.8175686478
0
LINE
5
22F
100
AcDbEntity
8
0
100
AcDbLine
62
7
6
CONTINUOUS
10
-4.7871966247
20
-23.7048586554
11
-5.0719372118
21
-23.5624883618
0
LINE
5
230
100
AcDbEntity
8
0
100
AcDbLine
62
7
6
CONTINUOUS
10
-5.7007404022
20
-23.2480867666
11
-5.9854816964
21
-23.1057161195
0
LINE
5
231
100
AcDbEntity
8
0
100
AcDbLine
62
7
6
CONTINUOUS
10
-6.2109016814
20
-22.9930061270
11
-6.4956422685
21
-22.8506358335
0
LINE
5
232
100
AcDbEntity
8
0
100
AcDbLine
62
7
6
CONTINUOUS
10
-6.7685190180
20
-22.7141974587
11
-7.0532603122
21
-22.5718268116
0
LINE
5
233
100
AcDbEntity
8
0
100
AcDbLine
62
7
6
CONTINUOUS
10
-7.3261370617
20
-22.4353884369
11
-7.6108776487
21
-22.2930181433
0
LINE
5
234
100
AcDbEntity
8
0
100
AcDbLine
62
7
6
CONTINUOUS
10
-7.8600260160
20
-22.1684439597
11
-8.1447673102
21
-22.0260733126
0
LINE
5
235
100
AcDbEntity
8
0
100
AcDbLine
62
7
6
CONTINUOUS
10
-8.8210272651
20
-21.6879433351
11
-9.0939040146
21
-21.5515049604
0
LINE
5
236
100
AcDbEntity
8
0
100
AcDbLine
62
7
6
CONTINUOUS
10
-3.4288732332
20
-24.3059997502
11
-3.6651257903
21
-24.1878734717
0
LINE
5
237
100
AcDbEntity
8
0
100
AcDbLine
62
7
6
CONTINUOUS
10
-4.2458271052
20
-23.8975228142
11
-4.4837560388
21
-23.7785583474
0
LINE
5
238
100
AcDbEntity
8
0
100
AcDbLine
62
7
6
CONTINUOUS
10
-4.7823662069
20
-23.6292532634
11
-4.9939166109
21
-23.5234780614
0
LINE
5
239
100
AcDbEntity
8
0
100
AcDbLine
62
7
6
CONTINUOUS
10
-5.6695321619
20
-23.1856702859
11
-5.9074610955
21
-23.0667058191
0
LINE
5
23A
100
AcDbEntity
8
0
100
AcDbLine
62
7
6
CONTINUOUS
10
-6.1796934411
20
-22.9305896463
11
-6.4176216676
21
-22.8116255330
0
LINE
5
23B
100
AcDbEntity
8
0
100
AcDbLine
62
7
6
CONTINUOUS
10
-6.7373107776
20
-22.6517809780
11
-6.9752397113
21
-22.5328165112
0
LINE
5
23C
100
AcDbEntity
8
0
100
AcDbLine
62
7
6
CONTINUOUS
10
-7.2949288213
20
-22.3729719562
11
-7.5328570479
21
-22.2540078429
0
LINE
5
23D
100
AcDbEntity
8
0
100
AcDbLine
62
7
6
CONTINUOUS
10
-7.8288177756
20
-22.1060274790
11
-8.0667467093
21
-21.9870630122
0
LINE
5
23E
100
AcDbEntity
8
0
100
AcDbLine
62
7
6
CONTINUOUS
10
-8.7898190248
20
-21.6255268544
11
-9.0158834138
21
-21.5124946600
0
LINE
5
23F
100
AcDbEntity
8
0
100
AcDbLine
62
7
6
CONTINUOUS
10
-5.0515286227
20
-23.1544774462
11
-5.5023678856
21
-22.9290578147
0
LINE
5
240
100
AcDbEntity
8
0
100
AcDbLine
62
7
6
CONTINUOUS
10
-4.9735080218
20
-23.1154671457
11
-5.4243472847
21
-22.8900475143
0
LINE
5
241
100
AcDbEntity
8
0
100
AcDbLine
62
7
6
CONTINUOUS
10
-5.2971457249
20
-22.6316375268
11
-5.0242689754
21
-22.7680759015
0
LINE
5
242
100
AcDbEntity
8
0
100
AcDbLine
62
7
6
CONTINUOUS
10
-3.8022555215
20
-23.3790826285
11
-4.0514038887
21
-23.2545084449
0
LINE
5
243
100
AcDbEntity
8
0
100
AcDbLine
62
7
6
CONTINUOUS
10
-3.7242349206
20
-23.3400723281
11
-3.9733832879
21
-23.2154981445
0
LINE
5
244
100
AcDbEntity
8
0
100
AcDbLine
62
7
6
CONTINUOUS
10
-3.9529598018
20
-22.9036991201
11
-3.5970331069
21
-23.0816625072
0
LINE
5
245
100
AcDbEntity
8
0
100
AcDbLine
62
7
6
CONTINUOUS
10
-3.4466127062
20
-22.6113753513
11
-3.8025389405
21
-22.4334122304
0
LINE
5
246
100
AcDbEntity
8
0
100
AcDbLine
62
7
6
CONTINUOUS
10
-3.3685920691
20
-22.5723650710
11
-3.7245183396
21
-22.3944019299
0
LINE
5
247
100
AcDbEntity
8
0
100
AcDbLine
62
7
6
CONTINUOUS
10
-8.9599382408
20
-19.4546812119
11
-8.6751969466
21
-19.5970518590
0
LINE
5
248
100
AcDbEntity
8
0
100
AcDbLine
62
7
6
CONTINUOUS
10
-8.0463944633
20
-19.9114531007
11
-7.7616531691
21
-20.0538237478
0
LINE
5
249
100
AcDbEntity
8
0
100
AcDbLine
62
7
6
CONTINUOUS
10
-7.5480977288
20
-20.1606014679
11
-7.2633564346
21
-20.3029721150
0
LINE
5
24A
100
AcDbEntity
8
0
100
AcDbLine
62
7
6
CONTINUOUS
10
-7.0142080674
20
-20.4275462986
11
-6.5752326421
21
-20.6470340113
0
LINE
5
24B
100
AcDbEntity
8
0
100
AcDbLine
62
7
6
CONTINUOUS
10
-6.0413429807
20
-20.9139788420
11
-5.6142321001
21
-21.1275342823
0
LINE
5
24C
100
AcDbEntity
8
0
100
AcDbLine
62
7
6
CONTINUOUS
10
-4.9379721451
20
-21.4656642598
11
-4.6532308509
21
-21.6080349069
0
LINE
5
24D
100
AcDbEntity
8
0
100
AcDbLine
62
7
6
CONTINUOUS
10
-3.9651070584
20
-21.9520968031
11
-3.3007111349
21
-22.2842947424
0
LINE
5
24E
100
AcDbEntity
8
0
100
AcDbLine
62
7
6
CONTINUOUS
10
-38.6156046994
20
-6.6763468107
11
-38.6156903438
21
-6.6762932173
0
LINE
5
24F
100
AcDbEntity
8
0
100
AcDbLine
62
7
6
CONTINUOUS
10
-24.1171083768
20
-9.7138428701
11
-24.0110423596
21
-9.7907136721
0
LINE
5
250
100
AcDbEntity
8
0
100
AcDbLine
62
7
6
CONTINUOUS
10
-23.7635549862
20
-9.5370661748
11
-23.6574889690
21
-9.6139369768
0
LINE
5
251
100
AcDbEntity
8
0
100
AcDbLine
62
7
6
CONTINUOUS
10
-22.9576104116
20
-10.3445823445
11
-22.8750509868
21
-10.0084986053
0
LINE
5
252
100
AcDbEntity
8
0
100
AcDbLine
62
7
6
CONTINUOUS
10
-27.8894148125
20
-7.8276896522
11
-27.7940636390
21
-7.6632332047
0
LINE
5
253
100
AcDbEntity
8
0
100
AcDbLine
62
7
6
CONTINUOUS
10
-27.5358614219
20
-7.6509129570
11
-27.4405102484
21
-7.4864565094
0
LINE
5
254
100
AcDbEntity
8
0
100
AcDbLine
62
7
6
CONTINUOUS
10
-27.1823080313
20
-7.4741362617
11
-27.0869568578
21
-7.3096798141
0
LINE
5
255
100
AcDbEntity
8
0
100
AcDbLine
62
7
6
CONTINUOUS
10
-26.8287546407
20
-7.2973595664
11
-26.7334034672
21
-7.1329031188
0
LINE
5
256
100
AcDbEntity
8
0
100
AcDbLine
62
7
6
CONTINUOUS
10
-37.4830450345
20
-4.6676848651
11
25.8291664709
21
-36.3237906177
0
LINE
5
257
100
AcDbEntity
8
0
100
AcDbLine
62
7
6
CONTINUOUS
10
-37.1589679186
20
-4.2783785891
11
25.8291664709
21
-35.7724457838
0
LINE
5
258
100
AcDbEntity
8
0
100
AcDbLine
62
7
6
CONTINUOUS
10
25.8291664709
20
-34.8474232313
11
-36.2441834872
21
-3.8107482522
0
LINE
5
259
100
AcDbEntity
8
0
100
AcDbLine
62
7
6
CONTINUOUS
10
23.4711779971
20
-33.6494074133
11
19.5820907005
21
-31.7048637650
0
LINE
5
25A
100
AcDbEntity
8
0
100
AcDbLine
62
7
6
CONTINUOUS
10
-24.2585297330
20
-9.7845535482
11
-28.1476170296
21
-7.8400099000
0
LINE
5
25B
100
AcDbEntity
8
0
100
AcDbLine
62
7
6
CONTINUOUS
10
23.6125993533
20
-33.5786967352
11
19.7235120568
21
-31.6341530869
0
LINE
5
25C
100
AcDbEntity
8
0
100
AcDbLine
62
7
6
CONTINUOUS
10
-24.1171083768
20
-9.7138428701
11
-28.0061956733
21
-7.7692992219
0
LINE
5
25D
100
AcDbEntity
8
0
100
AcDbLine
62
7
6
CONTINUOUS
10
23.8247313877
20
-33.4726307180
11
19.9356440911
21
-31.5280870697
0
LINE
5
25E
100
AcDbEntity
8
0
100
AcDbLine
62
7
6
CONTINUOUS
10
-23.9049763424
20
-9.6077768529
11
-27.7940636390
21
-7.6632332047
0
LINE
5
25F
100
AcDbEntity
8
0
100
AcDbLine
62
7
6
CONTINUOUS
10
23.9661527439
20
-33.4019200399
11
20.0770654474
21
-31.4573763916
0
LINE
5
260
100
AcDbEntity
8
0
100
AcDbLine
62
7
6
CONTINUOUS
10
-23.7635549862
20
-9.5370661748
11
-27.6526422827
21
-7.5925225266
0
LINE
5
261
100
AcDbEntity
8
0
100
AcDbLine
62
7
6
CONTINUOUS
10
24.1782847782
20
-33.2958540227
11
20.2891974817
21
-31.3513103744
0
LINE
5
262
100
AcDbEntity
8
0
100
AcDbLine
62
7
6
CONTINUOUS
10
-23.5514229518
20
-9.4310001576
11
-27.4405102484
21
-7.4864565094
0
LINE
5
263
100
AcDbEntity
8
0
100
AcDbLine
62
7
6
CONTINUOUS
10
24.3197061345
20
-33.2251433446
11
20.4306188380
21
-31.2805996963
0
LINE
5
264
100
AcDbEntity
8
0
100
AcDbLine
62
7
6
CONTINUOUS
10
-23.4100015956
20
-9.3602894795
11
-27.2990888921
21
-7.4157458313
0
LINE
5
265
100
AcDbEntity
8
0
100
AcDbLine
62
7
6
CONTINUOUS
10
24.5318381688
20
-33.1190773274
11
20.6427508723
21
-31.1745336791
0
LINE
5
266
100
AcDbEntity
8
0
100
AcDbLine
62
7
6
CONTINUOUS
10
-23.1978695613
20
-9.2542234623
11
-27.0869568578
21
-7.3096798141
0
LINE
5
267
100
AcDbEntity
8
0
100
AcDbLine
62
7
6
CONTINUOUS
10
24.6732595251
20
-33.0483666493
11
20.7841722286
21
-31.1038230010
0
LINE
5
268
100
AcDbEntity
8
0
100
AcDbLine
62
7
6
CONTINUOUS
10
-23.0564482050
20
-9.1835127842
11
-26.9455355015
21
-7.2389691360
0
LINE
5
269
100
AcDbEntity
8
0
100
AcDbLine
62
7
6
CONTINUOUS
10
24.8853915594
20
-32.9423006321
11
20.9963042629
21
-30.9977569838
0
LINE
5
26A
100
AcDbEntity
8
0
100
AcDbLine
62
7
6
CONTINUOUS
10
-22.8443161707
20
-9.0774467670
11
-26.7334034672
21
-7.1329031188
0
LINE
5
26B
100
AcDbEntity
8
0
100
AcDbLine
62
7
6
CONTINUOUS
10
-10.7602017916
20
-15.0885229341
11
-6.5027379460
21
-17.2172548569
0
LINE
5
26C
100
AcDbEntity
8
0
100
AcDbLine
62
7
6
CONTINUOUS
10
5.1497007851
20
-23.0434742225
11
9.4071646307
21
-25.1722061452
0
LINE
5
26D
100
AcDbEntity
8
0
100
AcDbLine
62
7
6
CONTINUOUS
10
-10.6383982230
20
-15.0990230014
11
-6.4825772592
21
-17.1769334833
0
LINE
5
26E
100
AcDbEntity
8
0
100
AcDbLine
62
7
6
CONTINUOUS
10
5.2715043537
20
-23.0539742898
11
9.4273253175
21
-25.1318847716
0
LINE
5
26F
100
AcDbEntity
8
0
100
AcDbLine
62
7
6
CONTINUOUS
10
-26.6701043683
20
-7.0469691054
11
-26.6158199043
21
-7.0741113374
0
LINE
5
270
100
AcDbEntity
8
0
100
AcDbLine
62
7
6
CONTINUOUS
10
-22.5968287972
20
-9.0836068909
11
-22.4126405227
21
-9.1757010282
0
LINE
5
271
100
AcDbEntity
8
0
100
AcDbLine
62
7
6
CONTINUOUS
10
21.0596033618
20
-30.9118229704
11
21.1138878258
21
-30.9389652024
0
LINE
5
272
100
AcDbEntity
8
0
100
AcDbLine
62
7
6
CONTINUOUS
10
25.1328789328
20
-32.9484607560
11
25.3170672074
21
-33.0405548932
0
LINE
5
273
100
AcDbEntity
8
0
100
AcDbLine
62
7
6
CONTINUOUS
10
25.0268129157
20
-32.8715899540
11
21.1377256191
21
-30.9270463057
0
LINE
5
274
100
AcDbEntity
8
0
100
AcDbLine
62
7
6
CONTINUOUS
10
-22.7028948144
20
-9.0067360889
11
-26.5919821109
21
-7.0621924407
0
LINE
5
275
100
AcDbEntity
8
0
100
AcDbLine
62
7
6
CONTINUOUS
10
-26.5483018460
20
-7.0574686495
11
-22.3924798359
21
-9.1353796546
0
LINE
5
276
100
AcDbEntity
8
0
100
AcDbLine
62
7
6
CONTINUOUS
10
21.1814058841
20
-30.9223225146
11
25.3372278942
21
-33.0002335196
0
LINE
5
277
100
AcDbEntity
8
0
100
AcDbLine
62
7
6
CONTINUOUS
10
-23.4100015956
20
-9.3602894795
11
-23.3039355784
21
-9.4371602815
0
LINE
5
278
100
AcDbEntity
8
0
100
AcDbLine
62
7
6
CONTINUOUS
10
-23.0564482050
20
-9.1835127842
11
-22.9503821878
21
-9.2603835862
0
LINE
5
279
100
AcDbEntity
8
0
100
AcDbLine
62
7
6
CONTINUOUS
10
-22.7028948144
20
-9.0067360889
11
-22.5968287972
21
-9.0836068909
0
LINE
5
27A
100
AcDbEntity
8
0
100
AcDbLine
62
7
6
CONTINUOUS
10
-37.7450424322
20
34.8509129867
11
-37.9110169840
21
35.1904104044
0
LINE
5
27B
100
AcDbEntity
8
0
100
AcDbLine
62
7
6
CONTINUOUS
10
-37.4830450345
20
34.9138837725
11
-37.6490195863
21
35.2533811902
0
LINE
5
27C
100
AcDbEntity
8
0
100
AcDbLine
62
7
6
CONTINUOUS
10
-24.0110423596
20
-9.7907136721
11
-23.9049763424
21
-9.6077768529
0
LINE
5
27D
100
AcDbEntity
8
0
100
AcDbLine
62
7
6
CONTINUOUS
10
-23.6574889690
20
-9.6139369768
11
-23.5514229518
21
-9.4310001576
0
LINE
5
27E
100
AcDbEntity
8
0
100
AcDbLine
62
7
6
CONTINUOUS
10
-23.3039355784
20
-9.4371602815
11
-23.1978695613
21
-9.2542234623
0
LINE
5
27F
100
AcDbEntity
8
0
100
AcDbLine
62
7
6
CONTINUOUS
10
-22.9503821878
20
-9.2603835862
11
-22.8443161707
21
-9.0774467670
0
LINE
5
280
100
AcDbEntity
8
0
100
AcDbLine
62
7
6
CONTINUOUS
10
-36.3854110304
20
-3.5671667714
11
-37.3001954618
21
-4.0347971083
0
LINE
5
281
100
AcDbEntity
8
0
100
AcDbLine
62
7
6
CONTINUOUS
10
-36.2441834872
20
-3.8107482522
11
-37.1589679186
21
-4.2783785891
0
LINE
5
282
100
AcDbEntity
8
0
100
AcDbLine
62
7
6
CONTINUOUS
10
-38.5121852548
20
-6.7401617640
11
-38.5787991673
21
-6.7735476930
0
LINE
5
283
100
AcDbEntity
8
0
100
AcDbLine
62
7
6
CONTINUOUS
10
23.6125993533
20
-33.5786967352
11
23.7186653705
21
-33.6555675371
0
LINE
5
284
100
AcDbEntity
8
0
100
AcDbLine
62
7
6
CONTINUOUS
10
23.9661527439
20
-33.4019200399
11
24.0722187611
21
-33.4787908418
0
LINE
5
285
100
AcDbEntity
8
0
100
AcDbLine
62
7
6
CONTINUOUS
10
24.3197061345
20
-33.2251433446
11
24.4257721517
21
-33.3020141465
0
LINE
5
286
100
AcDbEntity
8
0
100
AcDbLine
62
7
6
CONTINUOUS
10
24.6732595251
20
-33.0483666493
11
24.7793255423
21
-33.1252374512
0
LINE
5
287
100
AcDbEntity
8
0
100
AcDbLine
62
7
6
CONTINUOUS
10
25.0268129157
20
-32.8715899540
11
25.1328789328
21
-32.9484607560
0
LINE
5
288
100
AcDbEntity
8
0
100
AcDbLine
62
7
6
CONTINUOUS
10
-3.4906084942
20
-23.4803566768
11
-3.4228128772
21
-24.3870505291
0
LINE
5
289
100
AcDbEntity
8
0
100
AcDbLine
62
7
6
CONTINUOUS
10
-3.7431463912
20
-24.2268837721
11
-3.8022555215
21
-23.3790826285
0
LINE
5
28A
100
AcDbEntity
8
0
100
AcDbLine
62
7
6
CONTINUOUS
10
-3.6651257903
20
-24.1878734717
11
-3.7242349206
21
-23.3400723281
0
LINE
5
28B
100
AcDbEntity
8
0
100
AcDbLine
62
7
6
CONTINUOUS
10
-6.4957244162
20
-17.2133601999
11
-6.4957244162
21
-17.6391211660
0
LINE
5
28C
100
AcDbEntity
8
0
100
AcDbLine
62
7
6
CONTINUOUS
10
-6.4443533813
20
-17.1978387437
11
-6.4443533813
21
-17.6217873732
0
LINE
5
28D
100
AcDbEntity
8
0
100
AcDbLine
62
7
6
CONTINUOUS
10
-9.0939040146
20
-21.5515049604
11
-8.9599382408
21
-19.4546812119
0
LINE
5
28E
100
AcDbEntity
8
0
100
AcDbLine
62
7
6
CONTINUOUS
10
-9.0158834138
20
-21.5124946600
11
-8.8867480578
21
-19.4912763034
0
LINE
5
28F
100
AcDbEntity
8
0
100
AcDbLine
62
7
6
CONTINUOUS
10
-8.6751969466
20
-19.5970518590
11
-8.7828925251
21
-21.0524139207
0
LINE
5
290
100
AcDbEntity
8
0
100
AcDbLine
62
7
6
CONTINUOUS
10
-7.0532603122
20
-22.5718268116
11
-6.9350428223
21
-21.2126425236
0
LINE
5
291
100
AcDbEntity
8
0
100
AcDbLine
62
7
6
CONTINUOUS
10
-22.6675394754
20
-9.9027594100
11
-22.4128346018
21
-9.7181633591
0
LINE
5
292
100
AcDbEntity
8
0
100
AcDbLine
62
7
6
CONTINUOUS
10
-28.1476170296
20
-7.8400099000
11
-28.0061956733
21
-7.7692992219
0
LINE
5
293
100
AcDbEntity
8
0
100
AcDbLine
62
7
6
CONTINUOUS
10
-27.7940636390
20
-7.6632332047
11
-27.6526422827
21
-7.5925225266
0
LINE
5
294
100
AcDbEntity
8
0
100
AcDbLine
62
7
6
CONTINUOUS
10
-27.4405102484
20
-7.4864565094
11
-27.2990888921
21
-7.4157458313
0
LINE
5
295
100
AcDbEntity
8
0
100
AcDbLine
62
7
6
CONTINUOUS
10
-27.0869568578
20
-7.3096798141
11
-26.9455355015
21
-7.2389691360
0
LINE
5
296
100
AcDbEntity
8
0
100
AcDbLine
62
7
6
CONTINUOUS
10
-26.7334034672
20
-7.1329031188
11
-26.5919821109
21
-7.0621924407
0
LINE
5
297
100
AcDbEntity
8
0
100
AcDbLine
62
7
6
CONTINUOUS
10
-5.0719372118
20
-23.5624883618
11
-5.0515286227
21
-23.1544774462
0
LINE
5
298
100
AcDbEntity
8
0
100
AcDbLine
62
7
6
CONTINUOUS
10
-4.9939166109
20
-23.5234780614
11
-4.9735080218
21
-23.1154671457
0
LINE
5
299
100
AcDbEntity
8
0
100
AcDbLine
62
7
6
CONTINUOUS
10
-4.6532308509
20
-21.6080349069
11
-4.7871966247
21
-23.7048586554
0
LINE
5
29A
100
AcDbEntity
8
0
100
AcDbLine
62
7
6
CONTINUOUS
10
-5.0242689754
20
-22.7680759015
11
-4.9811203716
21
-22.1168707729
0
LINE
5
29B
100
AcDbEntity
8
0
100
AcDbLine
62
7
6
CONTINUOUS
10
-4.9462483746
20
-22.7290656011
11
-4.9030997707
21
-22.0778604724
0
LINE
5
29C
100
AcDbEntity
8
0
100
AcDbLine
62
7
6
CONTINUOUS
10
-6.9752397113
20
-22.5328165112
11
-6.8570222214
21
-21.1736322231
0
LINE
5
29D
100
AcDbEntity
8
0
100
AcDbLine
62
7
6
CONTINUOUS
10
-6.5752326421
20
-20.6470340113
11
-6.7053139695
21
-22.0002863805
0
LINE
5
29E
100
AcDbEntity
8
0
100
AcDbLine
62
7
6
CONTINUOUS
10
-7.0477078349
20
-18.2995336329
11
-6.9651484101
21
-17.9634498937
0
LINE
5
29F
100
AcDbEntity
8
0
100
AcDbLine
62
7
6
CONTINUOUS
10
-8.1447673102
20
-22.0260733126
11
-7.5480977288
21
-20.1606014679
0
LINE
5
2A0
100
AcDbEntity
8
0
100
AcDbLine
62
7
6
CONTINUOUS
10
-8.0667467093
20
-21.9870630122
11
-7.4886375250
21
-20.1796197635
0
LINE
5
2A1
100
AcDbEntity
8
0
100
AcDbLine
62
7
6
CONTINUOUS
10
-7.2633564346
20
-20.3029721150
11
-7.8600260160
21
-22.1684439597
0
LINE
5
2A2
100
AcDbEntity
8
0
100
AcDbLine
62
7
6
CONTINUOUS
10
-7.6108776487
20
-22.2930181433
11
-7.0142080674
21
-20.4275462986
0
LINE
5
2A3
100
AcDbEntity
8
0
100
AcDbLine
62
7
6
CONTINUOUS
10
-7.5328570479
20
-22.2540078429
11
-6.9547478635
21
-20.4465645942
0
LINE
5
2A4
100
AcDbEntity
8
0
100
AcDbLine
62
7
6
CONTINUOUS
10
-6.9350428223
20
-21.2126425236
11
-7.3261370617
21
-22.4353884369
0
LINE
5
2A5
100
AcDbEntity
8
0
100
AcDbLine
62
7
6
CONTINUOUS
10
-22.4126405227
20
-9.1757010282
11
-23.8821842646
21
-9.9917478636
0
LINE
5
2A6
100
AcDbEntity
8
0
100
AcDbLine
62
7
6
CONTINUOUS
10
-22.6675394754
20
-9.9027594100
11
-23.3572578472
21
-10.2542110723
0
LINE
5
2A7
100
AcDbEntity
8
0
100
AcDbLine
62
7
6
CONTINUOUS
10
-22.9576104116
20
-10.3445823445
11
-23.0668179168
21
-10.3994310374
0
LINE
5
2A8
100
AcDbEntity
8
0
100
AcDbLine
62
7
6
CONTINUOUS
10
-24.2585297330
20
-9.7845535482
11
-24.1171083768
21
-9.7138428701
0
LINE
5
2A9
100
AcDbEntity
8
0
100
AcDbLine
62
7
6
CONTINUOUS
10
-23.9049763424
20
-9.6077768529
11
-23.7635549862
21
-9.5370661748
0
LINE
5
2AA
100
AcDbEntity
8
0
100
AcDbLine
62
7
6
CONTINUOUS
10
-23.5514229518
20
-9.4310001576
11
-23.4100015956
21
-9.3602894795
0
LINE
5
2AB
100
AcDbEntity
8
0
100
AcDbLine
62
7
6
CONTINUOUS
10
-23.1978695613
20
-9.2542234623
11
-23.0564482050
21
-9.1835127842
0
LINE
5
2AC
100
AcDbEntity
8
0
100
AcDbLine
62
7
6
CONTINUOUS
10
-22.8443161707
20
-9.0774467670
11
-22.7028948144
21
-9.0067360889
0
LINE
5
2AD
100
AcDbEntity
8
0
100
AcDbLine
62
7
6
CONTINUOUS
10
-22.5968287972
20
-9.0836068909
11
-24.1476475036
21
-9.8590162441
0
LINE
5
2AE
100
AcDbEntity
8
0
100
AcDbLine
62
7
6
CONTINUOUS
10
-22.4056269929
20
-9.6841698776
11
-23.4533650506
21
-10.2061574706
0
LINE
5
2AF
100
AcDbEntity
8
0
100
AcDbLine
62
7
6
CONTINUOUS
10
-26.6623150543
20
-7.0434623405
11
-28.3021980391
21
-7.7817409763
0
LINE
5
2B0
100
AcDbEntity
8
0
100
AcDbLine
62
7
6
CONTINUOUS
10
48.5027580511
20
-25.7925029517
11
48.9977327979
21
-26.0399903251
0
LINE
5
2B1
100
AcDbEntity
8
0
100
AcDbLine
62
7
6
CONTINUOUS
10
-6.4956422685
20
-22.8506358335
11
-6.1045480291
21
-21.6278899202
0
LINE
5
2B2
100
AcDbEntity
8
0
100
AcDbLine
62
7
6
CONTINUOUS
10
-6.4176216676
20
-22.8116255330
11
-6.0265274282
21
-21.5888796197
0
LINE
5
2B3
100
AcDbEntity
8
0
100
AcDbLine
62
7
6
CONTINUOUS
10
-5.6142321001
20
-21.1275342823
11
-6.2109016814
21
-22.9930061270
0
LINE
5
2B4
100
AcDbEntity
8
0
100
AcDbLine
62
7
6
CONTINUOUS
10
-4.5617766397
20
-23.8175686478
11
-3.9651070584
21
-21.9520968031
0
LINE
5
2B5
100
AcDbEntity
8
0
100
AcDbLine
62
7
6
CONTINUOUS
10
-4.4837560388
20
-23.7785583474
11
-3.9056468545
21
-21.9711150987
0
LINE
5
2B6
100
AcDbEntity
8
0
100
AcDbLine
62
7
6
CONTINUOUS
10
-3.8025389405
20
-22.4334122304
11
-3.9529598018
21
-22.9036991201
0
LINE
5
2B7
100
AcDbEntity
8
0
100
AcDbLine
62
7
6
CONTINUOUS
10
-4.0514038887
20
-23.2545084449
11
-4.2770353455
21
-23.9599392949
0
LINE
5
2B8
100
AcDbEntity
8
0
100
AcDbLine
62
7
6
CONTINUOUS
10
-6.7053139695
20
-22.0002863805
11
-6.0413429807
21
-20.9139788420
0
LINE
5
2B9
100
AcDbEntity
8
0
100
AcDbLine
62
7
6
CONTINUOUS
10
-6.6272933687
20
-21.9612760801
11
-6.0019011659
21
-20.9380863989
0
LINE
5
2BA
100
AcDbEntity
8
0
100
AcDbLine
62
7
6
CONTINUOUS
10
-8.7828925251
20
-21.0524139207
11
-8.0463944633
21
-19.9114531007
0
LINE
5
2BB
100
AcDbEntity
8
0
100
AcDbLine
62
7
6
CONTINUOUS
10
-8.7048719242
20
-21.0134036203
11
-8.0090965444
21
-19.9355291640
0
LINE
5
2BC
100
AcDbEntity
8
0
100
AcDbLine
62
7
6
CONTINUOUS
10
-7.7616531691
20
-20.0538237478
11
-8.8210272651
21
-21.6879433351
0
LINE
5
2BD
100
AcDbEntity
8
0
100
AcDbLine
62
7
6
CONTINUOUS
10
9.4141781605
20
-25.1683114882
11
9.4141781605
21
-25.5940724543
0
LINE
5
2BE
100
AcDbEntity
8
0
100
AcDbLine
62
7
6
CONTINUOUS
10
9.4655491954
20
-25.1527900321
11
9.4655491954
21
-25.5767386615
0
LINE
5
2BF
100
AcDbEntity
8
0
100
AcDbLine
62
7
6
CONTINUOUS
10
-6.1045480291
20
-21.6278899202
11
-6.7685190180
21
-22.7141974587
0
LINE
5
2C0
100
AcDbEntity
8
0
100
AcDbLine
62
7
6
CONTINUOUS
10
-4.9811203716
20
-22.1168707729
11
-5.2971457249
21
-22.6316375268
0
LINE
5
2C1
100
AcDbEntity
8
0
100
AcDbLine
62
7
6
CONTINUOUS
10
-5.5023678856
20
-22.9290578147
11
-5.7007404022
21
-23.2480867666
0
LINE
5
2C2
100
AcDbEntity
8
0
100
AcDbLine
62
7
6
CONTINUOUS
10
-5.9854816964
20
-23.1057161195
11
-4.9379721451
21
-21.4656642598
0
LINE
5
2C3
100
AcDbEntity
8
0
100
AcDbLine
62
7
6
CONTINUOUS
10
-5.9074610955
20
-23.0667058191
11
-4.9002543723
21
-21.4897547951
0
LINE
5
2C4
100
AcDbEntity
8
0
100
AcDbLine
62
7
6
CONTINUOUS
10
-6.7576368987
20
-17.8577106983
11
-6.5029320251
21
-17.6731146474
0
LINE
5
2C5
100
AcDbEntity
8
0
100
AcDbLine
62
7
6
CONTINUOUS
10
44.0541538970
20
11.8624916593
11
47.0902950498
21
13.4140267378
0
LINE
5
2C6
100
AcDbEntity
8
0
100
AcDbLine
62
7
6
CONTINUOUS
10
48.4126703357
20
11.7535850366
11
48.9977327979
21
12.0169813402
0
LINE
5
2C7
100
AcDbEntity
8
0
100
AcDbLine
62
7
6
CONTINUOUS
10
-10.7524124776
20
-15.0850161692
11
-12.3011542752
21
-15.7822628583
0
LINE
5
2C8
100
AcDbEntity
8
0
100
AcDbLine
62
7
6
CONTINUOUS
10
8.8621947418
20
-26.2544849212
11
8.9447541666
21
-25.9184011820
0
LINE
5
2C9
100
AcDbEntity
8
0
100
AcDbLine
62
7
6
CONTINUOUS
10
47.7464224046
20
12.9295279890
11
48.2906260167
21
13.2365601345
0
LINE
5
2CA
100
AcDbEntity
8
0
100
AcDbLine
62
7
6
CONTINUOUS
10
-6.5027379460
20
-17.2172548569
11
-7.8902177943
21
-17.9877310987
0
LINE
5
2CB
100
AcDbEntity
8
0
100
AcDbLine
62
7
6
CONTINUOUS
10
45.4305145992
20
9.5698920333
11
48.5027580511
21
11.1398877310
0
LINE
5
2CC
100
AcDbEntity
8
0
100
AcDbLine
62
7
6
CONTINUOUS
10
-6.7576368987
20
-17.8577106983
11
-7.4473552705
21
-18.2091623606
0
LINE
5
2CD
100
AcDbEntity
8
0
100
AcDbLine
62
7
6
CONTINUOUS
10
-7.0477078349
20
-18.2995336329
11
-7.1569153401
21
-18.3543823258
0
LINE
5
2CE
100
AcDbEntity
8
0
100
AcDbLine
62
7
6
CONTINUOUS
10
-8.7048719242
20
-21.0134036203
11
-8.7828925251
21
-21.0524139207
0
LINE
5
2CF
100
AcDbEntity
8
0
100
AcDbLine
62
7
6
CONTINUOUS
10
-9.0158834138
20
-21.5124946600
11
-9.0939040146
21
-21.5515049604
0
LINE
5
2D0
100
AcDbEntity
8
0
100
AcDbLine
62
7
6
CONTINUOUS
10
-6.8570222214
20
-21.1736322231
11
-6.9350428223
21
-21.2126425236
0
LINE
5
2D1
100
AcDbEntity
8
0
100
AcDbLine
62
7
6
CONTINUOUS
10
-8.0667467093
20
-21.9870630122
11
-8.1447673102
21
-22.0260733126
0
LINE
5
2D2
100
AcDbEntity
8
0
100
AcDbLine
62
7
6
CONTINUOUS
10
-7.5328570479
20
-22.2540078429
11
-7.6108776487
21
-22.2930181433
0
LINE
5
2D3
100
AcDbEntity
8
0
100
AcDbLine
62
7
6
CONTINUOUS
10
-6.0265274282
20
-21.5888796197
11
-6.1045480291
21
-21.6278899202
0
LINE
5
2D4
100
AcDbEntity
8
0
100
AcDbLine
62
7
6
CONTINUOUS
10
-6.6272933687
20
-21.9612760801
11
-6.7053139695
21
-22.0002863805
0
LINE
5
2D5
100
AcDbEntity
8
0
100
AcDbLine
62
7
6
CONTINUOUS
10
-6.4957244162
20
-17.6391211660
11
-7.5434624739
21
-18.1611087589
0
LINE
5
2D6
100
AcDbEntity
8
0
100
AcDbLine
62
7
6
CONTINUOUS
10
25.8291664709
20
3.2021882918
11
-37.3789125897
21
34.8062278221
0
LINE
5
2D7
100
AcDbEntity
8
0
100
AcDbLine
62
7
6
CONTINUOUS
10
25.8228031987
20
3.2609596559
11
-37.4830450345
21
34.9138837725
0
LINE
5
2D8
100
AcDbEntity
8
0
100
AcDbLine
62
7
6
CONTINUOUS
10
-37.3794973542
20
34.8065206803
11
-37.3822471635
21
34.8079271069
0
LINE
5
2D9
100
AcDbEntity
8
0
100
AcDbLine
62
7
6
CONTINUOUS
10
26.5569613972
20
5.0172647855
11
26.5570292985
21
5.0172273085
0
LINE
5
2DA
100
AcDbEntity
8
0
100
AcDbLine
62
7
6
CONTINUOUS
10
-6.9752397113
20
-22.5328165112
11
-7.0532603122
21
-22.5718268116
0
LINE
5
2DB
100
AcDbEntity
8
0
100
AcDbLine
62
7
6
CONTINUOUS
10
-6.4176216676
20
-22.8116255330
11
-6.4956422685
21
-22.8506358335
0
LINE
5
2DC
100
AcDbEntity
8
0
100
AcDbLine
62
7
6
CONTINUOUS
10
-4.9030997707
20
-22.0778604724
11
-4.9811203716
21
-22.1168707729
0
LINE
5
2DD
100
AcDbEntity
8
0
100
AcDbLine
62
7
6
CONTINUOUS
10
-5.9074610955
20
-23.0667058191
11
-5.9854816964
21
-23.1057161195
0
LINE
5
2DE
100
AcDbEntity
8
0
100
AcDbLine
62
7
6
CONTINUOUS
10
-5.4243472847
20
-22.8900475143
11
-5.5023678856
21
-22.9290578147
0
LINE
5
2DF
100
AcDbEntity
8
0
100
AcDbLine
62
7
6
CONTINUOUS
10
-4.9462483746
20
-22.7290656011
11
-5.0242689754
21
-22.7680759015
0
LINE
5
2E0
100
AcDbEntity
8
0
100
AcDbLine
62
7
6
CONTINUOUS
10
-3.7245183396
20
-22.3944019299
11
-3.8025389405
21
-22.4334122304
0
LINE
5
2E1
100
AcDbEntity
8
0
100
AcDbLine
62
7
6
CONTINUOUS
10
-4.9735080218
20
-23.1154671457
11
-5.0515286227
21
-23.1544774462
0
LINE
5
2E2
100
AcDbEntity
8
0
100
AcDbLine
62
7
6
CONTINUOUS
10
-3.3685920691
20
-22.5723650710
11
-3.4466126700
21
-22.6113753714
0
LINE
5
2E3
100
AcDbEntity
8
0
100
AcDbLine
62
7
6
CONTINUOUS
10
-4.9939166109
20
-23.5234780614
11
-5.0719372118
21
-23.5624883618
0
LINE
5
2E4
100
AcDbEntity
8
0
100
AcDbLine
62
7
6
CONTINUOUS
10
-3.9733832879
20
-23.2154981445
11
-4.0514038887
21
-23.2545084449
0
LINE
5
2E5
100
AcDbEntity
8
0
100
AcDbLine
62
7
6
CONTINUOUS
10
-3.7242349206
20
-23.3400723281
11
-3.8022555215
21
-23.3790826285
0
LINE
5
2E6
100
AcDbEntity
8
0
100
AcDbLine
62
7
6
CONTINUOUS
10
-4.4837560388
20
-23.7785583474
11
-4.5617766397
21
-23.8175686478
0
LINE
5
2E7
100
AcDbEntity
8
0
100
AcDbLine
62
7
6
CONTINUOUS
10
-3.6651257903
20
-24.1878734717
11
-3.7431463912
21
-24.2268837721
0
LINE
5
2E8
100
AcDbEntity
8
0
100
AcDbLine
62
7
6
CONTINUOUS
10
-38.6238934119
20
37.6077116971
11
-38.6237936418
21
37.6076673900
0
LINE
5
2E9
100
AcDbEntity
8
0
100
AcDbLine
62
7
6
CONTINUOUS
10
25.3240807372
20
-33.0366602362
11
25.3240807372
21
-33.5490237427
0
LINE
5
2EA
100
AcDbEntity
8
0
100
AcDbLine
62
7
6
CONTINUOUS
10
25.3754517721
20
-33.0211391759
11
25.3754517721
21
-33.5316899604
0
LINE
5
2EB
100
AcDbEntity
8
0
100
AcDbLine
62
7
6
CONTINUOUS
10
25.8291665563
20
-37.5229468248
11
25.8291664709
21
3.7130031346
0
LINE
5
2EC
100
AcDbEntity
8
0
100
AcDbLine
62
7
6
CONTINUOUS
10
25.8925702770
20
-37.8897251760
11
25.8925702770
21
3.9354711482
0
LINE
5
2ED
100
AcDbEntity
8
0
100
AcDbLine
62
7
6
CONTINUOUS
10
26.9778701480
20
3.6693044570
11
26.9778701480
21
-38.6372317141
0
LINE
5
2EE
100
AcDbEntity
8
0
100
AcDbLine
62
7
6
CONTINUOUS
10
27.1130009368
20
3.6687065564
11
27.1130009368
21
-38.6378296147
0
LINE
5
2EF
100
AcDbEntity
8
0
100
AcDbLine
62
7
6
CONTINUOUS
10
27.3192095046
20
3.6883257377
11
27.3192095046
21
-38.7943945830
0
LINE
5
2F0
100
AcDbEntity
8
0
100
AcDbLine
62
7
6
CONTINUOUS
10
27.3510143586
20
3.6517558660
11
27.3510143586
21
-38.8309644547
0
LINE
5
2F1
100
AcDbEntity
8
0
100
AcDbLine
62
7
6
CONTINUOUS
10
9.1522656780
20
-25.8126619867
11
9.4069705516
21
-25.6280659358
0
LINE
5
2F2
100
AcDbEntity
8
0
100
AcDbLine
62
7
6
CONTINUOUS
10
9.4071646307
20
-25.1722061452
11
8.0196847824
21
-25.9426823870
0
LINE
5
2F3
100
AcDbEntity
8
0
100
AcDbLine
62
7
6
CONTINUOUS
10
9.1522656780
20
-25.8126619867
11
8.4625473062
21
-26.1641136489
0
LINE
5
2F4
100
AcDbEntity
8
0
100
AcDbLine
62
7
6
CONTINUOUS
10
8.8621947418
20
-26.2544849212
11
8.7529872366
21
-26.3093336141
0
LINE
5
2F5
100
AcDbEntity
8
0
100
AcDbLine
62
7
6
CONTINUOUS
10
9.4141781605
20
-25.5940724543
11
8.3664401028
21
-26.1160600473
0
LINE
5
2F6
100
AcDbEntity
8
0
100
AcDbLine
62
7
6
CONTINUOUS
10
5.1574900991
20
-23.0399674575
11
3.6087483015
21
-23.7372141466
0
LINE
5
2F7
100
AcDbEntity
8
0
100
AcDbLine
62
7
6
CONTINUOUS
10
24.7720973185
20
-34.2094362096
11
24.8546567433
21
-33.8733524703
0
LINE
5
2F8
100
AcDbEntity
8
0
100
AcDbLine
62
7
6
CONTINUOUS
10
19.8402929176
20
-31.6925435173
11
19.9356440911
21
-31.5280870697
0
LINE
5
2F9
100
AcDbEntity
8
0
100
AcDbLine
62
7
6
CONTINUOUS
10
20.1938463082
20
-31.5157668220
11
20.2891974817
21
-31.3513103744
0
LINE
5
2FA
100
AcDbEntity
8
0
100
AcDbLine
62
7
6
CONTINUOUS
10
20.5473996988
20
-31.3389901267
11
20.6427508723
21
-31.1745336791
0
LINE
5
2FB
100
AcDbEntity
8
0
100
AcDbLine
62
7
6
CONTINUOUS
10
-49.6436631776
20
62.2037047317
11
48.2906260167
21
13.2365601345
0
LINE
5
2FC
100
AcDbEntity
8
0
100
AcDbLine
62
7
6
CONTINUOUS
10
20.9009530893
20
-31.1622134314
11
20.9963042629
21
-30.9977569838
0
LINE
5
2FD
100
AcDbEntity
8
0
100
AcDbLine
62
7
6
CONTINUOUS
10
23.7186653705
20
-33.6555675371
11
23.8247313877
21
-33.4726307180
0
LINE
5
2FE
100
AcDbEntity
8
0
100
AcDbLine
62
7
6
CONTINUOUS
10
24.0722187611
20
-33.4787908418
11
24.1782847782
21
-33.2958540227
0
LINE
5
2FF
100
AcDbEntity
8
0
100
AcDbLine
62
7
6
CONTINUOUS
10
24.4257721517
20
-33.3020141465
11
24.5318381688
21
-33.1190773274
0
LINE
5
300
100
AcDbEntity
8
0
100
AcDbLine
62
7
6
CONTINUOUS
10
24.7793255423
20
-33.1252374512
11
24.8853915594
21
-32.9423006321
0
LINE
5
301
100
AcDbEntity
8
0
100
AcDbLine
62
7
6
CONTINUOUS
10
19.5820907005
20
-31.7048637650
11
19.7235120568
21
-31.6341530869
0
LINE
5
302
100
AcDbEntity
8
0
100
AcDbLine
62
7
6
CONTINUOUS
10
19.9356440911
20
-31.5280870697
11
20.0770654474
21
-31.4573763916
0
LINE
5
303
100
AcDbEntity
8
0
100
AcDbLine
62
7
6
CONTINUOUS
10
20.2891974817
20
-31.3513103744
11
20.4306188380
21
-31.2805996963
0
LINE
5
304
100
AcDbEntity
8
0
100
AcDbLine
62
7
6
CONTINUOUS
10
20.6427508723
20
-31.1745336791
11
20.7841722286
21
-31.1038230010
0
LINE
5
305
100
AcDbEntity
8
0
100
AcDbLine
62
7
6
CONTINUOUS
10
20.9963042629
20
-30.9977569838
11
21.1377256191
21
-30.9270463057
0
LINE
5
306
100
AcDbEntity
8
0
100
AcDbLine
62
7
6
CONTINUOUS
10
21.0673926758
20
-30.9083162055
11
19.4275096910
21
-31.6465948413
0
LINE
5
307
100
AcDbEntity
8
0
100
AcDbLine
62
7
6
CONTINUOUS
10
44.2257880890
20
-60.2178831868
11
44.2257880890
21
9.5700232881
0
LINE
5
308
100
AcDbEntity
8
0
100
AcDbLine
62
7
6
CONTINUOUS
10
25.0621682547
20
-33.7676132750
11
25.3168731283
21
-33.5830172241
0
LINE
5
309
100
AcDbEntity
8
0
100
AcDbLine
62
7
6
CONTINUOUS
10
48.5027580511
20
-20.1213112832
11
48.9977327979
21
-19.7969031329
0
LINE
5
30A
100
AcDbEntity
8
0
100
AcDbLine
62
7
6
CONTINUOUS
10
25.3170672074
20
-33.0405548932
11
23.8475234655
21
-33.8566017286
0
LINE
5
30B
100
AcDbEntity
8
0
100
AcDbLine
62
7
6
CONTINUOUS
10
25.0621682547
20
-33.7676132750
11
24.3724498829
21
-34.1190649373
0
LINE
5
30C
100
AcDbEntity
8
0
100
AcDbLine
62
7
6
CONTINUOUS
10
24.7720973185
20
-34.2094362096
11
24.6628898133
21
-34.2642849025
0
LINE
5
30D
100
AcDbEntity
8
0
100
AcDbLine
62
7
6
CONTINUOUS
10
23.4711779971
20
-33.6494074133
11
23.6125993533
21
-33.5786967352
0
LINE
5
30E
100
AcDbEntity
8
0
100
AcDbLine
62
7
6
CONTINUOUS
10
23.8247313877
20
-33.4726307180
11
23.9661527439
21
-33.4019200399
0
LINE
5
30F
100
AcDbEntity
8
0
100
AcDbLine
62
7
6
CONTINUOUS
10
24.1782847782
20
-33.2958540227
11
24.3197061345
21
-33.2251433446
0
LINE
5
310
100
AcDbEntity
8
0
100
AcDbLine
62
7
6
CONTINUOUS
10
24.5318381688
20
-33.1190773274
11
24.6732595251
21
-33.0483666493
0
LINE
5
311
100
AcDbEntity
8
0
100
AcDbLine
62
7
6
CONTINUOUS
10
24.8853915594
20
-32.9423006321
11
25.0268129157
21
-32.8715899540
0
LINE
5
312
100
AcDbEntity
8
0
100
AcDbLine
62
7
6
CONTINUOUS
10
25.1328789328
20
-32.9484607560
11
23.5820602265
21
-33.7238701091
0
LINE
5
313
100
AcDbEntity
8
0
100
AcDbLine
62
7
6
CONTINUOUS
10
25.3240807372
20
-33.5490237427
11
24.2763426795
21
-34.0710113356
0
LINE
5
314
100
AcDbEntity
8
0
100
AcDbLine
62
7
6
CONTINUOUS
10
48.4320473729
20
13.1483521901
11
48.7148900854
21
12.9362201557
0
LINE
5
315
100
AcDbEntity
8
0
100
AcDbLine
62
7
6
CONTINUOUS
10
45.4305145992
20
-60.2180144416
11
45.4305145992
21
9.5698920333
0
LINE
5
316
100
AcDbEntity
8
0
100
AcDbLine
62
7
6
CONTINUOUS
10
48.5027580511
20
11.1398877310
11
48.5027580511
21
-59.0217497101
0
LINE
5
317
100
AcDbEntity
8
0
100
AcDbLine
62
7
6
CONTINUOUS
10
48.9977327979
20
-26.0399903251
11
48.9977327979
21
-58.1310763664
0
LINE
5
318
100
AcDbEntity
8
0
100
AcDbLine
62
7
6
CONTINUOUS
10
48.9977327979
20
-19.7969031329
11
48.9977327979
21
12.3705347308
0
LINE
5
319
100
AcDbEntity
8
0
100
AcDbLine
62
7
6
CONTINUOUS
10
27.2310908839
20
-39.0351440316
11
26.5996402665
21
-39.3627674100
0
LINE
5
31A
100
AcDbEntity
8
0
100
AcDbLine
62
7
6
CONTINUOUS
10
27.0567410210
20
-39.3570804986
11
27.0566071653
21
-39.3571499145
0
LINE
5
31B
100
AcDbEntity
8
0
100
AcDbLine
62
7
6
CONTINUOUS
10
26.8150704418
20
-39.1948101426
11
26.8124627970
21
-39.1958477727
0
LINE
5
31C
100
AcDbEntity
8
0
100
AcDbLine
62
7
6
CONTINUOUS
10
48.9977327979
20
-58.1310763664
11
48.5027580511
21
-58.3539149983
0
LINE
5
31D
100
AcDbEntity
8
0
100
AcDbLine
62
7
6
CONTINUOUS
10
48.7152362308
20
-58.6823302482
11
48.5027580511
21
-58.7715138081
0
LINE
5
31E
100
AcDbEntity
8
0
100
AcDbLine
62
7
6
CONTINUOUS
10
48.5027580511
20
-59.0217497101
11
45.4305145992
21
-60.2180144416
0
LINE
5
31F
100
AcDbEntity
8
0
100
AcDbLine
62
7
6
CONTINUOUS
10
44.8479189242
20
-61.2827305558
11
47.9188601004
21
-60.0870375981
0
SPLINE
5
320
100
AcDbEntity
8
0
100
AcDbSpline
62
7
6
CONTINUOUS
70
0
71
3
72
10
73
6
74
4
42
0.0000001000
43
0.0000001000
44
0.0000000001
12
0.5160199869
22
-0.3928388831
32
0.0000000000
13
-0.0000000000
23
-0.6448837237
33
0.0000000000
40
0.0000000000
40
0.0000000000
40
0.0000000000
40
0.0000000000
40
0.2202987440
40
0.6203719329
40
1.0000000000
40
1.0000000000
40
1.0000000000
40
1.0000000000
10
48.7182940381
20
12.9338037975
30
0.0000000000
10
48.7561868898
20
12.9049564933
30
0.0000000000
10
48.8526230293
20
12.8085905925
30
0.0000000000
10
48.9605045356
20
12.6201102077
30
0.0000000000
10
48.9977327979
20
12.4521400513
30
0.0000000000
10
48.9977327979
20
12.3705347308
30
0.0000000000
11
48.7182940381
21
12.9338037975
31
0.0000000000
11
48.8209561026
21
12.8339230784
31
0.0000000000
11
48.9503656251
21
12.6107246681
31
0.0000000000
11
48.9977327979
21
12.3705347308
31
0.0000000000
0
SPLINE
5
321
100
AcDbEntity
8
0
100
AcDbSpline
62
7
6
CONTINUOUS
70
0
71
3
72
9
73
5
74
3
42
0.0000001000
43
0.0000001000
44
0.0000000001
12
0.1279284611
22
-0.0639642306
32
0.0000000000
13
0.1297518606
23
0.0644496388
33
0.0000000000
40
0.0000000000
40
0.0000000000
40
0.0000000000
40
0.0000000000
40
0.5591835652
40
1.0000000000
40
1.0000000000
40
1.0000000000
40
1.0000000000
10
-3.5970331069
20
-23.0816625072
30
0.0000000000
10
-3.5731879426
20
-23.0935850893
30
0.0000000000
10
-3.5236576358
20
-23.1032274893
30
0.0000000000
10
-3.4765314346
20
-23.0894378739
30
0.0000000000
10
-3.4574658504
20
-23.0799677206
30
0.0000000000
11
-3.5970331069
21
-23.0816625072
31
0.0000000000
11
-3.5185466063
21
-23.0970419633
31
0.0000000000
11
-3.4574658504
21
-23.0799677206
31
0.0000000000
0
SPLINE
5
322
100
AcDbEntity
8
0
100
AcDbSpline
62
7
6
CONTINUOUS
70
0
71
3
72
8
73
4
74
2
42
0.0000001000
43
0.0000001000
44
0.0000000001
12
0.1148479261
22
-0.0574239631
32
0.0000000000
13
0.0939114018
23
-0.0896826289
33
0.0000000000
40
0.0000000000
40
0.0000000000
40
0.0000000000
40
0.0000000000
40
1.0000000000
40
1.0000000000
40
1.0000000000
40
1.0000000000
10
-3.3007111349
20
-22.2842947424
30
0.0000000000
10
-3.2624284928
20
-22.3034360634
30
0.0000000000
10
-3.2272685467
20
-22.3291057111
30
0.0000000000
10
-3.1959647461
20
-22.3589999208
30
0.0000000000
11
-3.3007111349
21
-22.2842947424
31
0.0000000000
11
-3.1959647461
21
-22.3589999208
31
0.0000000000
0
SPLINE
5
323
100
AcDbEntity
8
0
100
AcDbSpline
62
7
6
CONTINUOUS
70
0
71
3
72
10
73
6
74
4
42
0.0000001000
43
0.0000001000
44
0.0000000001
12
0.2730008002
22
-0.2607077413
32
0.0000000000
13
0.0726570912
23
-0.3677563284
33
0.0000000000
40
0.0000000000
40
0.0000000000
40
0.0000000000
40
0.0000000000
40
0.1776660532
40
0.7807139151
40
1.0000000000
40
1.0000000000
40
1.0000000000
40
1.0000000000
10
-3.1959647461
20
-22.3589999208
30
0.0000000000
10
-3.1797970879
20
-22.3744395592
30
0.0000000000
10
-3.1132719398
20
-22.4472374832
30
0.0000000000
10
-3.0560016310
20
-22.5605045656
30
0.0000000000
10
-3.0305142718
20
-22.6601896497
30
0.0000000000
10
-3.0252033755
20
-22.6870709315
30
0.0000000000
11
-3.1959647461
21
-22.3589999208
31
0.0000000000
11
-3.1506486674
21
-22.4083821218
31
0.0000000000
11
-3.0456438705
21
-22.6074901672
31
0.0000000000
11
-3.0252033755
21
-22.6870709315
31
0.0000000000
0
SPLINE
5
324
100
AcDbEntity
8
0
100
AcDbSpline
62
7
6
CONTINUOUS
70
0
71
3
72
9
73
5
74
3
42
0.0000001000
43
0.0000001000
44
0.0000000001
12
0.0496214783
22
-0.2511607934
32
0.0000000000
13
-0.0327897719
23
-0.2538131791
33
0.0000000000
40
0.0000000000
40
0.0000000000
40
0.0000000000
40
0.0000000000
40
0.6697740028
40
1.0000000000
40
1.0000000000
40
1.0000000000
40
1.0000000000
10
-3.0252033755
20
-22.6870709315
30
0.0000000000
10
-3.0141249834
20
-22.7431445881
30
0.0000000000
10
-3.0072361798
20
-22.8288070425
30
0.0000000000
10
-3.0137281901
20
-22.9140059856
30
0.0000000000
10
-3.0173375352
20
-22.9419445557
30
0.0000000000
11
-3.0252033755
21
-22.6870709315
31
0.0000000000
11
-3.0108996962
21
-22.8576856282
31
0.0000000000
11
-3.0173375352
21
-22.9419445557
31
0.0000000000
0
SPLINE
5
325
100
AcDbEntity
8
0
100
AcDbSpline
62
7
6
CONTINUOUS
70
0
71
3
72
10
73
6
74
4
42
0.0000001000
43
0.0000001000
44
0.0000000001
12
-0.0695740457
22
-0.5385462813
32
0.0000000000
13
-0.4470017730
23
-0.3106680142
33
0.0000000000
40
0.0000000000
40
0.0000000000
40
0.0000000000
40
0.0000000000
40
0.3094509916
40
0.7451482057
40
1.0000000000
40
1.0000000000
40
1.0000000000
40
1.0000000000
10
-3.0173375352
20
-22.9419445557
30
0.0000000000
10
-3.0245141210
20
-22.9974957826
30
0.0000000000
10
-3.0557465791
20
-23.1293922943
30
0.0000000000
10
-3.1431338332
20
-23.2914416026
30
0.0000000000
10
-3.2355542014
20
-23.3778672653
30
0.0000000000
10
-3.2735272694
20
-23.4042586989
30
0.0000000000
11
-3.0173375352
21
-22.9419445557
31
0.0000000000
11
-3.0562988109
21
-23.1051235762
31
0.0000000000
11
-3.1717062079
21
-23.3106052256
31
0.0000000000
11
-3.2735272694
21
-23.4042586989
31
0.0000000000
0
SPLINE
5
326
100
AcDbEntity
8
0
100
AcDbSpline
62
7
6
CONTINUOUS
70
0
71
3
72
9
73
5
74
3
42
0.0000001000
43
0.0000001000
44
0.0000000001
12
-0.0537524305
22
-0.0373581535
32
0.0000000000
13
-0.0587554155
23
-0.0293636932
33
0.0000000000
40
0.0000000000
40
0.0000000000
40
0.0000000000
40
0.0000000000
40
0.9679123037
40
1.0000000000
40
1.0000000000
40
1.0000000000
40
1.0000000000
10
-3.2735272694
20
-23.4042586989
30
0.0000000000
10
-3.2908698156
20
-23.4163118377
30
0.0000000000
10
-3.3096201191
20
-23.4275783509
30
0.0000000000
10
-3.3291796085
20
-23.4374124694
30
0.0000000000
10
-3.3298080505
20
-23.4377265405
30
0.0000000000
11
-3.2735272694
21
-23.4042586989
31
0.0000000000
11
-3.3279252038
21
-23.4367798862
31
0.0000000000
11
-3.3298080505
21
-23.4377265405
31
0.0000000000
0
SPLINE
5
327
100
AcDbEntity
8
0
100
AcDbSpline
62
7
6
CONTINUOUS
70
0
71
3
72
9
73
5
74
3
42
0.0000001000
43
0.0000001000
44
0.0000000001
12
-0.2535743975
22
-0.1542592056
32
0.0000000000
13
-0.1186859777
23
-0.2711827720
33
0.0000000000
40
0.0000000000
40
0.0000000000
40
0.0000000000
40
0.0000000000
40
0.2020885331
40
1.0000000000
40
1.0000000000
40
1.0000000000
40
1.0000000000
10
-38.9831236501
20
37.3470639501
30
0.0000000000
10
-39.0002051428
20
37.3366726112
30
0.0000000000
10
-39.0809854202
20
37.2794024545
30
0.0000000000
10
-39.1382760416
20
37.1953444094
30
0.0000000000
10
-39.1698430091
20
37.1232177949
30
0.0000000000
11
-38.9831236501
21
37.3470639501
31
0.0000000000
11
-39.0318953661
21
37.3124313159
31
0.0000000000
11
-39.1698430091
21
37.1232177949
31
0.0000000000
0
SPLINE
5
328
100
AcDbEntity
8
0
100
AcDbSpline
62
7
6
CONTINUOUS
70
0
71
3
72
9
73
5
74
3
42
0.0000001000
43
0.0000001000
44
0.0000000001
12
-0.1355215079
22
-0.3096498753
32
0.0000000000
13
-0.0001349931
23
-0.3363222506
33
0.0000000000
40
0.0000000000
40
0.0000000000
40
0.0000000000
40
0.0000000000
40
0.7972045226
40
1.0000000000
40
1.0000000000
40
1.0000000000
40
1.0000000000
10
-39.1698430091
20
37.1232177949
30
0.0000000000
10
-39.2058557954
20
37.0409330346
30
0.0000000000
10
-39.2279351709
20
36.9294624489
30
0.0000000000
10
-39.2314788228
20
36.8173166491
30
0.0000000000
10
-39.2314879481
20
36.7945817719
30
0.0000000000
11
-39.1698430091
21
37.1232177949
31
0.0000000000
11
-39.2292792494
21
36.8627742022
31
0.0000000000
11
-39.2314879481
21
36.7945817719
31
0.0000000000
0
SPLINE
5
329
100
AcDbEntity
8
0
100
AcDbSpline
62
7
6
CONTINUOUS
70
0
71
3
72
8
73
4
74
2
42
0.0000001000
43
0.0000001000
44
0.0000000001
12
-0.0000113056
22
-0.0955238206
32
0.0000000000
13
0.0078869327
23
-0.0953697856
33
0.0000000000
40
0.0000000000
40
0.0000000000
40
0.0000000000
40
0.0000000000
40
1.0000000000
40
1.0000000000
40
1.0000000000
40
1.0000000000
10
-39.2314835249
20
-5.5118773896
30
0.0000000000
10
-39.2314872934
20
-5.5437186631
30
0.0000000000
10
-39.2301140777
20
-5.5755794422
30
0.0000000000
10
-39.2274851001
20
-5.6073693707
30
0.0000000000
11
-39.2314835249
21
-5.5118773896
31
0.0000000000
11
-39.2274851001
21
-5.6073693707
31
0.0000000000
0
SPLINE
5
32A
100
AcDbEntity
8
0
100
AcDbSpline
62
7
6
CONTINUOUS
70
0
71
3
72
9
73
5
74
3
42
0.0000001000
43
0.0000001000
44
0.0000000001
12
0.0269843548
22
-0.3262982225
32
0.0000000000
13
0.1017547161
23
-0.3112130763
33
0.0000000000
40
0.0000000000
40
0.0000000000
40
0.0000000000
40
0.0000000000
40
0.6576624080
40
1.0000000000
40
1.0000000000
40
1.0000000000
40
1.0000000000
10
-39.2274851001
20
-5.6073693707
30
0.0000000000
10
-39.2215695682
20
-5.6789007289
30
0.0000000000
10
-39.2029071956
20
-5.7871213546
30
0.0000000000
10
-39.1727378873
20
-5.8921326344
30
0.0000000000
10
-39.1611263992
20
-5.9276459461
30
0.0000000000
11
-39.2274851001
21
-5.6073693707
31
0.0000000000
11
-39.1920455084
21
-5.8198578977
31
0.0000000000
11
-39.1611263992
21
-5.9276459461
31
0.0000000000
0
SPLINE
5
32B
100
AcDbEntity
8
0
100
AcDbSpline
62
7
6
CONTINUOUS
70
0
71
3
72
9
73
5
74
3
42
0.0000001000
43
0.0000001000
44
0.0000000001
12
0.1066875524
22
-0.3262999758
32
0.0000000000
13
0.1738839554
23
-0.2960778396
33
0.0000000000
40
0.0000000000
40
0.0000000000
40
0.0000000000
40
0.0000000000
40
0.6664676601
40
1.0000000000
40
1.0000000000
40
1.0000000000
40
1.0000000000
10
-39.1611263992
20
-5.9276459461
30
0.0000000000
10
-39.1374251314
20
-6.0001354065
30
0.0000000000
10
-39.0938393647
20
-6.1061764048
30
0.0000000000
10
-39.0394626460
20
-6.2069812371
30
0.0000000000
10
-39.0201306719
20
-6.2398984153
30
0.0000000000
11
-39.1611263992
21
-5.9276459461
31
0.0000000000
11
-39.0745350077
21
-6.1391554028
31
0.0000000000
11
-39.0201306719
21
-6.2398984153
31
0.0000000000
0
SPLINE
5
32C
100
AcDbEntity
8
0
100
AcDbSpline
62
7
6
CONTINUOUS
70
0
71
3
72
10
73
6
74
4
42
0.0000001000
43
0.0000001000
44
0.0000000001
12
0.2812722722
22
-0.4789314028
32
0.0000000000
13
0.4583993324
23
-0.3191706146
33
0.0000000000
40
0.0000000000
40
0.0000000000
40
0.0000000000
40
0.0000000000
40
0.4046154771
40
0.9694919854
40
1.0000000000
40
1.0000000000
40
1.0000000000
40
1.0000000000
10
-39.0201306719
20
-6.2398984153
30
0.0000000000
10
-38.9821949670
20
-6.3044927680
30
0.0000000000
10
-38.8802666575
20
-6.4527660159
30
0.0000000000
10
-38.7480842368
20
-6.5841807822
30
0.0000000000
10
-38.6576962319
20
-6.6482930607
30
0.0000000000
10
-38.6530346141
20
-6.6515388146
30
0.0000000000
11
-39.0201306719
21
-6.2398984153
31
0.0000000000
11
-38.8925485879
21
-6.4246211166
31
0.0000000000
11
-38.6669286600
21
-6.6416856240
31
0.0000000000
11
-38.6530346141
21
-6.6515388146
31
0.0000000000
0
SPLINE
5
32D
100
AcDbEntity
8
0
100
AcDbSpline
62
7
6
CONTINUOUS
70
0
71
3
72
8
73
4
74
2
42
0.0000001000
43
0.0000001000
44
0.0000000001
12
0.0368319044
22
-0.0256450233
32
0.0000000000
13
0.0380483066
23
-0.0238778427
33
0.0000000000
40
0.0000000000
40
0.0000000000
40
0.0000000000
40
0.0000000000
40
1.0000000000
40
1.0000000000
40
1.0000000000
40
1.0000000000
10
-38.6530346141
20
-6.6515388146
30
0.0000000000
10
-38.6407573126
20
-6.6600871557
30
0.0000000000
10
-38.6282715121
20
-6.6683621043
30
0.0000000000
10
-38.6155887432
20
-6.6763213852
30
0.0000000000
11
-38.6530346141
21
-6.6515388146
31
0.0000000000
11
-38.6155887432
21
-6.6763213852
31
0.0000000000
0
SPLINE
5
32E
100
AcDbEntity
8
0
100
AcDbSpline
62
7
6
CONTINUOUS
70
0
71
3
72
10
73
6
74
4
42
0.0000001000
43
0.0000001000
44
0.0000000001
12
33.8346309424
22
-21.2403258727
32
0.0000000000
13
35.8921378077
23
-17.5489680192
33
0.0000000000
40
0.0000000000
40
0.0000000000
40
0.0000000000
40
0.0000000000
40
0.4586298849
40
0.9183265665
40
1.0000000000
40
1.0000000000
40
1.0000000000
40
1.0000000000
10
-38.6156906258
20
-6.6762936692
30
0.0000000000
10
-33.4431663271
20
-9.9234430729
30
0.0000000000
10
-22.9311940020
20
-16.1824493519
30
0.0000000000
10
-11.1679177226
20
-22.4345417655
30
0.0000000000
10
-4.7050157965
20
-25.6301292898
30
0.0000000000
10
-3.7278710869
20
-26.1078907804
30
0.0000000000
11
-38.6156906258
21
-6.6762936692
31
0.0000000000
11
-22.8709349635
21
-16.0460929275
31
0.0000000000
11
-6.6529049284
21
-24.6616249050
31
0.0000000000
11
-3.7278710869
21
-26.1078907804
31
0.0000000000
0
SPLINE
5
32F
100
AcDbEntity
8
0
100
AcDbSpline
62
7
6
CONTINUOUS
70
0
71
3
72
9
73
5
74
3
42
0.0000001000
43
0.0000001000
44
0.0000000001
12
29.4700900108
22
-14.4089959170
32
0.0000000000
13
30.6537754137
23
-11.6733431897
33
0.0000000000
40
0.0000000000
40
0.0000000000
40
0.0000000000
40
0.0000000000
40
0.4561277014
40
1.0000000000
40
1.0000000000
40
1.0000000000
40
1.0000000000
10
-3.7278710869
20
-26.1078907804
30
0.0000000000
10
0.7528370524
20
-28.2986715096
30
0.0000000000
10
10.6740871590
20
-32.9016641357
30
0.0000000000
10
20.7960185245
20
-37.0501689406
30
0.0000000000
10
26.3532649558
20
-39.1664382715
30
0.0000000000
11
-3.7278710869
21
-26.1078907804
31
0.0000000000
11
9.8453032989
21
-32.4032190838
31
0.0000000000
11
26.3532649558
21
-39.1664382715
31
0.0000000000
0
SPLINE
5
330
100
AcDbEntity
8
0
100
AcDbSpline
62
7
6
CONTINUOUS
70
0
71
3
72
8
73
4
74
2
42
0.0000001000
43
0.0000001000
44
0.0000000001
12
0.0477872727
22
-0.0181979944
32
0.0000000000
13
0.0477898459
23
-0.0181910932
33
0.0000000000
40
0.0000000000
40
0.0000000000
40
0.0000000000
40
0.0000000000
40
1.0000000000
40
1.0000000000
40
1.0000000000
40
1.0000000000
10
26.3532649558
20
-39.1664382715
30
0.0000000000
10
26.3691940467
20
-39.1725042696
30
0.0000000000
10
26.3851235666
20
-39.1785691176
30
0.0000000000
10
26.4010535152
20
-39.1846328153
30
0.0000000000
11
26.3532649558
21
-39.1664382715
31
0.0000000000
11
26.4010535152
21
-39.1846328153
31
0.0000000000
0
SPLINE
5
331
100
AcDbEntity
8
0
100
AcDbSpline
62
7
6
CONTINUOUS
70
0
71
3
72
8
73
4
74
2
42
0.0000001000
43
0.0000001000
44
0.0000000001
12
0.0638278903
22
-0.0242642897
32
0.0000000000
13
0.0659350514
23
-0.0182846058
33
0.0000000000
40
0.0000000000
40
0.0000000000
40
0.0000000000
40
0.0000000000
40
1.0000000000
40
1.0000000000
40
1.0000000000
40
1.0000000000
10
26.4010267513
20
-39.1846666487
30
0.0000000000
10
26.4223027148
20
-39.1927547452
30
0.0000000000
10
26.4439450251
20
-39.1999061757
30
0.0000000000
10
26.4659233755
20
-39.2060010443
30
0.0000000000
11
26.4010267513
21
-39.1846666487
31
0.0000000000
11
26.4659233755
21
-39.2060010443
31
0.0000000000
0
SPLINE
5
332
100
AcDbEntity
8
0
100
AcDbSpline
62
7
6
CONTINUOUS
70
0
71
3
72
8
73
4
74
2
42
0.0000001000
43
0.0000001000
44
0.0000000001
12
0.2353927804
22
-0.0652773313
32
0.0000000000
13
0.2418574326
23
0.0369760411
33
0.0000000000
40
0.0000000000
40
0.0000000000
40
0.0000000000
40
0.0000000000
40
1.0000000000
40
1.0000000000
40
1.0000000000
40
1.0000000000
10
26.4659233755
20
-39.2060010443
30
0.0000000000
10
26.5443876357
20
-39.2277601548
30
0.0000000000
10
26.6271348630
20
-39.2360529578
30
0.0000000000
10
26.7077540072
20
-39.2237276107
30
0.0000000000
11
26.4659233755
21
-39.2060010443
31
0.0000000000
11
26.7077540072
21
-39.2237276107
31
0.0000000000
0
SPLINE
5
333
100
AcDbEntity
8
0
100
AcDbSpline
62
7
6
CONTINUOUS
70
0
71
3
72
8
73
4
74
2
42
0.0000001000
43
0.0000001000
44
0.0000000001
12
0.1096697847
22
0.0167667143
32
0.0000000000
13
0.1033115827
23
0.0412788308
33
0.0000000000
40
0.0000000000
40
0.0000000000
40
0.0000000000
40
0.0000000000
40
1.0000000000
40
1.0000000000
40
1.0000000000
40
1.0000000000
10
26.7077540072
20
-39.2237276107
30
0.0000000000
10
26.7443106021
20
-39.2181387060
30
0.0000000000
10
26.7804296308
20
-39.2083103973
30
0.0000000000
10
26.8148668251
20
-39.1945507870
30
0.0000000000
11
26.7077540072
21
-39.2237276107
31
0.0000000000
11
26.8148668251
21
-39.1945507870
31
0.0000000000
0
SPLINE
5
334
100
AcDbEntity
8
0
100
AcDbSpline
62
7
6
CONTINUOUS
70
0
71
3
72
8
73
4
74
2
42
0.0000001000
43
0.0000001000
44
0.0000000001
12
-0.0187140445
22
-0.0115683608
32
0.0000000000
13
-0.0187140433
23
-0.0115683627
33
0.0000000000
40
0.0000000000
40
0.0000000000
40
0.0000000000
40
0.0000000000
40
1.0000000000
40
1.0000000000
40
1.0000000000
40
1.0000000000
10
-38.5880399773
20
37.5916708221
30
0.0000000000
10
-38.5942779921
20
37.5878147018
30
0.0000000000
10
-38.6005160068
20
37.5839585812
30
0.0000000000
10
-38.6067540212
20
37.5801024603
30
0.0000000000
11
-38.5880399773
21
37.5916708221
31
0.0000000000
11
-38.6067540212
21
37.5801024603
31
0.0000000000
0
SPLINE
5
335
100
AcDbEntity
8
0
100
AcDbSpline
62
7
6
CONTINUOUS
70
0
71
3
72
8
73
4
74
2
42
0.0000001000
43
0.0000001000
44
0.0000000001
12
-0.0765361631
22
-0.0473119614
32
0.0000000000
13
-0.0765361436
23
-0.0473119929
33
0.0000000000
40
0.0000000000
40
0.0000000000
40
0.0000000000
40
0.0000000000
40
1.0000000000
40
1.0000000000
40
1.0000000000
40
1.0000000000
10
-38.6067540212
20
37.5801024603
30
0.0000000000
10
-38.6322660756
20
37.5643318065
30
0.0000000000
10
-38.6577781267
20
37.5485611474
30
0.0000000000
10
-38.6832901746
20
37.5327904831
30
0.0000000000
11
-38.6067540212
21
37.5801024603
31
0.0000000000
11
-38.6832901746
21
37.5327904831
31
0.0000000000
0
SPLINE
5
336
100
AcDbEntity
8
0
100
AcDbSpline
62
7
6
CONTINUOUS
70
0
71
3
72
8
73
4
74
2
42
0.0000001000
43
0.0000001000
44
0.0000000001
12
-0.0485263148
22
-0.0299972869
32
0.0000000000
13
-0.0485263070
23
-0.0299972996
33
0.0000000000
40
0.0000000000
40
0.0000000000
40
0.0000000000
40
0.0000000000
40
1.0000000000
40
1.0000000000
40
1.0000000000
40
1.0000000000
10
-38.6832901746
20
37.5327904831
30
0.0000000000
10
-38.6994656128
20
37.5227913875
30
0.0000000000
10
-38.7156410498
20
37.5127922897
30
0.0000000000
10
-38.7318164855
20
37.5027931899
30
0.0000000000
11
-38.6832901746
21
37.5327904831
31
0.0000000000
11
-38.7318164855
21
37.5027931899
31
0.0000000000
0
SPLINE
5
337
100
AcDbEntity
8
0
100
AcDbSpline
62
7
6
CONTINUOUS
70
0
71
3
72
8
73
4
74
2
42
0.0000001000
43
0.0000001000
44
0.0000000001
12
-0.0520475133
22
-0.0321739886
32
0.0000000000
13
-0.0520475043
23
-0.0321740032
33
0.0000000000
40
0.0000000000
40
0.0000000000
40
0.0000000000
40
0.0000000000
40
1.0000000000
40
1.0000000000
40
1.0000000000
40
1.0000000000
10
-38.7318164855
20
37.5027931899
30
0.0000000000
10
-38.7491656565
20
37.4920685270
30
0.0000000000
10
-38.7665148261
20
37.4813438617
30
0.0000000000
10
-38.7838639942
20
37.4706191940
30
0.0000000000
11
-38.7318164855
21
37.5027931899
31
0.0000000000
11
-38.7838639942
21
37.4706191940
31
0.0000000000
0
SPLINE
5
338
100
AcDbEntity
8
0
100
AcDbSpline
62
7
6
CONTINUOUS
70
0
71
3
72
8
73
4
74
2
42
0.0000001000
43
0.0000001000
44
0.0000000001
12
-0.0850839961
22
-0.0525960428
32
0.0000000000
13
-0.0850839720
23
-0.0525960817
33
0.0000000000
40
0.0000000000
40
0.0000000000
40
0.0000000000
40
0.0000000000
40
1.0000000000
40
1.0000000000
40
1.0000000000
40
1.0000000000
10
-38.7838639942
20
37.4706191940
30
0.0000000000
10
-38.8122253262
20
37.4530871797
30
0.0000000000
10
-38.8405866542
20
37.4355551590
30
0.0000000000
10
-38.8689479783
20
37.4180231318
30
0.0000000000
11
-38.7838639942
21
37.4706191940
31
0.0000000000
11
-38.8689479783
21
37.4180231318
31
0.0000000000
0
SPLINE
5
339
100
AcDbEntity
8
0
100
AcDbSpline
62
7
6
CONTINUOUS
70
0
71
3
72
8
73
4
74
2
42
0.0000001000
43
0.0000001000
44
0.0000000001
12
-0.1150088773
22
-0.0710946628
32
0.0000000000
13
-0.1150088333
23
-0.0710947339
33
0.0000000000
40
0.0000000000
40
0.0000000000
40
0.0000000000
40
0.0000000000
40
1.0000000000
40
1.0000000000
40
1.0000000000
40
1.0000000000
10
-38.8689479783
20
37.4180231318
30
0.0000000000
10
-38.9072842707
20
37.3943249108
30
0.0000000000
10
-38.9456205558
20
37.3706266780
30
0.0000000000
10
-38.9839568335
20
37.3469284334
30
0.0000000000
11
-38.8689479783
21
37.4180231318
31
0.0000000000
11
-38.9839568335
21
37.3469284334
31
0.0000000000
0
SPLINE
5
33A
100
AcDbEntity
8
0
100
AcDbSpline
62
7
6
CONTINUOUS
70
0
71
3
72
8
73
4
74
2
42
0.0000001000
43
0.0000001000
44
0.0000000001
12
0.1564315907
22
0.0615716936
32
0.0000000000
13
0.1564315405
23
0.0615718212
33
0.0000000000
40
0.0000000000
40
0.0000000000
40
0.0000000000
40
0.0000000000
40
1.0000000000
40
1.0000000000
40
1.0000000000
40
1.0000000000
10
26.8124620179
20
-39.1958520001
30
0.0000000000
10
26.8646058815
20
-39.1753281023
30
0.0000000000
10
26.9167497367
20
-39.1548041831
30
0.0000000000
10
26.9688935835
20
-39.1342802427
30
0.0000000000
11
26.8124620179
21
-39.1958520001
31
0.0000000000
11
26.9688935835
21
-39.1342802427
31
0.0000000000
0
SPLINE
5
33B
100
AcDbEntity
8
0
100
AcDbSpline
62
7
6
CONTINUOUS
70
0
71
3
72
8
73
4
74
2
42
0.0000001000
43
0.0000001000
44
0.0000000001
12
0.1771697477
22
0.0697344282
32
0.0000000000
13
0.1771696833
23
0.0697345919
33
0.0000000000
40
0.0000000000
40
0.0000000000
40
0.0000000000
40
0.0000000000
40
1.0000000000
40
1.0000000000
40
1.0000000000
40
1.0000000000
10
26.9688935835
20
-39.1342802427
30
0.0000000000
10
27.0279501661
20
-39.1110354333
30
0.0000000000
10
27.0870067379
20
-39.0877905966
30
0.0000000000
10
27.1460632990
20
-39.0645457326
30
0.0000000000
11
26.9688935835
21
-39.1342802427
31
0.0000000000
11
27.1460632990
21
-39.0645457326
31
0.0000000000
0
SPLINE
5
33C
100
AcDbEntity
8
0
100
AcDbSpline
62
7
6
CONTINUOUS
70
0
71
3
72
8
73
4
74
2
42
0.0000001000
43
0.0000001000
44
0.0000000001
12
0.0836420552
22
0.0329217984
32
0.0000000000
13
0.0836420409
23
0.0329218348
33
0.0000000000
40
0.0000000000
40
0.0000000000
40
0.0000000000
40
0.0000000000
40
1.0000000000
40
1.0000000000
40
1.0000000000
40
1.0000000000
10
27.1460632990
20
-39.0645457326
30
0.0000000000
10
27.1739439841
20
-39.0535717998
30
0.0000000000
10
27.2018246668
20
-39.0425978610
30
0.0000000000
10
27.2297053470
20
-39.0316239160
30
0.0000000000
11
27.1460632990
21
-39.0645457326
31
0.0000000000
11
27.2297053470
21
-39.0316239160
31
0.0000000000
0
SPLINE
5
33D
100
AcDbEntity
8
0
100
AcDbSpline
62
7
6
CONTINUOUS
70
0
71
3
72
8
73
4
74
2
42
0.0000001000
43
0.0000001000
44
0.0000000001
12
0.0331578144
22
0.0130510456
32
0.0000000000
13
0.0331578121
23
0.0130510513
33
0.0000000000
40
0.0000000000
40
0.0000000000
40
0.0000000000
40
0.0000000000
40
1.0000000000
40
1.0000000000
40
1.0000000000
40
1.0000000000
10
27.2297053470
20
-39.0316239160
30
0.0000000000
10
27.2407579518
20
-39.0272735675
30
0.0000000000
10
27.2518105563
20
-39.0229232180
30
0.0000000000
10
27.2628631603
20
-39.0185728676
30
0.0000000000
11
27.2297053470
21
-39.0316239160
31
0.0000000000
11
27.2628631603
21
-39.0185728676
31
0.0000000000
0
SPLINE
5
33E
100
AcDbEntity
8
0
100
AcDbSpline
62
7
6
CONTINUOUS
70
0
71
3
72
8
73
4
74
2
42
0.0000001000
43
0.0000001000
44
0.0000000001
12
0.0328664856
22
0.0129363840
32
0.0000000000
13
0.0328664834
23
0.0129363896
33
0.0000000000
40
0.0000000000
40
0.0000000000
40
0.0000000000
40
0.0000000000
40
1.0000000000
40
1.0000000000
40
1.0000000000
40
1.0000000000
10
27.2628631603
20
-39.0185728676
30
0.0000000000
10
27.2738186555
20
-39.0142607396
30
0.0000000000
10
27.2847741503
20
-39.0099486106
30
0.0000000000
10
27.2957296448
20
-39.0056364807
30
0.0000000000
11
27.2628631603
21
-39.0185728676
31
0.0000000000
11
27.2957296448
21
-39.0056364807
31
0.0000000000
0
SPLINE
5
33F
100
AcDbEntity
8
0
100
AcDbSpline
62
7
6
CONTINUOUS
70
0
71
3
72
10
73
6
74
4
42
0.0000001000
43
0.0000001000
44
0.0000000001
12
0.4222532848
22
0.2501451337
32
0.0000000000
13
0.4349339260
23
-0.2174669630
33
0.0000000000
40
0.0000000000
40
0.0000000000
40
0.0000000000
40
0.0000000000
40
0.1192567467
40
0.5313873910
40
1.0000000000
40
1.0000000000
40
1.0000000000
40
1.0000000000
10
-50.1127583506
20
62.2199448459
30
0.0000000000
10
-50.0959728329
20
62.2298886775
30
0.0000000000
10
-50.0179634474
20
62.2684335793
30
0.0000000000
10
-49.8499057764
20
62.2849985270
30
0.0000000000
10
-49.7116016849
20
62.2376739853
30
0.0000000000
10
-49.6436631776
20
62.2037047317
30
0.0000000000
11
-50.1127583506
21
62.2199448459
31
0.0000000000
11
-50.0603894230
21
62.2456915445
31
0.0000000000
11
-49.8615244801
21
62.2705060159
31
0.0000000000
11
-49.6436631776
21
62.2037047317
31
0.0000000000
0
SPLINE
5
340
100
AcDbEntity
8
0
100
AcDbSpline
62
7
6
CONTINUOUS
70
0
71
3
72
11
73
7
74
5
42
0.0000001000
43
0.0000001000
44
0.0000000001
12
-0.1052704140
22
0.0525821704
32
0.0000000000
13
-0.1091585435
23
-0.0434817623
33
0.0000000000
40
0.0000000000
40
0.0000000000
40
0.0000000000
40
0.0000000000
40
0.0566546350
40
0.4227727881
40
0.7332455682
40
1.0000000000
40
1.0000000000
40
1.0000000000
40
1.0000000000
10
5.2711706222
20
-23.0538068990
30
0.0000000000
10
5.2691826032
20
-23.0528138911
30
0.0000000000
10
5.2542454448
20
-23.0456011244
30
0.0000000000
10
5.2270098706
20
-23.0357706200
30
0.0000000000
10
5.1898553597
20
-23.0319499037
30
0.0000000000
10
5.1671962742
20
-23.0363385115
30
0.0000000000
10
5.1574900991
20
-23.0402048291
30
0.0000000000
11
5.2711706222
21
-23.0538068990
31
0.0000000000
11
5.2651654666
21
-23.0509085045
31
0.0000000000
11
5.2244988056
21
-23.0368782819
31
0.0000000000
11
5.1881553243
21
-23.0337188300
31
0.0000000000
11
5.1574900991
21
-23.0402048291
31
0.0000000000
0
SPLINE
5
341
100
AcDbEntity
8
0
100
AcDbSpline
62
7
6
CONTINUOUS
70
0
71
3
72
10
73
6
74
4
42
0.0000001000
43
0.0000001000
44
0.0000000001
12
0.0774178382
22
0.0632233885
32
0.0000000000
13
0.0237236076
23
0.0965743011
33
0.0000000000
40
0.0000000000
40
0.0000000000
40
0.0000000000
40
0.0000000000
40
0.0185822240
40
0.4830448330
40
1.0000000000
40
1.0000000000
40
1.0000000000
40
1.0000000000
10
8.8127714329
20
-26.3392711706
30
0.0000000000
10
8.8132509648
20
-26.3388795602
30
0.0000000000
10
8.8256324160
20
-26.3286009338
30
0.0000000000
10
8.8466420369
20
-26.3020815640
30
0.0000000000
10
8.8581067279
20
-26.2711264492
30
0.0000000000
10
8.8621947418
20
-26.2544849212
30
0.0000000000
11
8.8127714329
21
-26.3392711706
31
0.0000000000
11
8.8142002632
21
-26.3380849983
31
0.0000000000
11
8.8434888312
21
-26.3023697801
31
0.0000000000
11
8.8621947418
21
-26.2544849212
31
0.0000000000
0
SPLINE
5
342
100
AcDbEntity
8
0
100
AcDbSpline
62
7
6
CONTINUOUS
70
0
71
3
72
11
73
7
74
5
42
0.0000001000
43
0.0000001000
44
0.0000000001
12
-0.1052704140
22
0.0525821704
32
0.0000000000
13
-0.1091585435
23
-0.0434817623
33
0.0000000000
40
0.0000000000
40
0.0000000000
40
0.0000000000
40
0.0000000000
40
0.0566546350
40
0.4227727881
40
0.7332455682
40
1.0000000000
40
1.0000000000
40
1.0000000000
40
1.0000000000
10
-10.6387319545
20
-15.0988556106
30
0.0000000000
10
-10.6407199735
20
-15.0978626027
30
0.0000000000
10
-10.6556571319
20
-15.0906498361
30
0.0000000000
10
-10.6828927061
20
-15.0808193316
30
0.0000000000
10
-10.7200472170
20
-15.0769986153
30
0.0000000000
10
-10.7427063025
20
-15.0813872231
30
0.0000000000
10
-10.7524124776
20
-15.0852535407
30
0.0000000000
11
-10.6387319545
21
-15.0988556106
31
0.0000000000
11
-10.6447371101
21
-15.0959572161
31
0.0000000000
11
-10.6854037711
21
-15.0819269936
31
0.0000000000
11
-10.7217472524
21
-15.0787675416
31
0.0000000000
11
-10.7524124776
21
-15.0852535407
31
0.0000000000
0
SPLINE
5
343
100
AcDbEntity
8
0
100
AcDbSpline
62
7
6
CONTINUOUS
70
0
71
3
72
10
73
6
74
4
42
0.0000001000
43
0.0000001000
44
0.0000000001
12
0.0774178382
22
0.0632233885
32
0.0000000000
13
0.0237236076
23
0.0965743011
33
0.0000000000
40
0.0000000000
40
0.0000000000
40
0.0000000000
40
0.0000000000
40
0.0185822240
40
0.4830448330
40
1.0000000000
40
1.0000000000
40
1.0000000000
40
1.0000000000
10
-7.0971311438
20
-18.3843198822
30
0.0000000000
10
-7.0966516119
20
-18.3839282718
30
0.0000000000
10
-7.0842701607
20
-18.3736496454
30
0.0000000000
10
-7.0632605398
20
-18.3471302756
30
0.0000000000
10
-7.0517958488
20
-18.3161751608
30
0.0000000000
10
-7.0477078349
20
-18.2995336329
30
0.0000000000
11
-7.0971311438
21
-18.3843198822
31
0.0000000000
11
-7.0957023135
21
-18.3831337099
31
0.0000000000
11
-7.0664137454
21
-18.3474184917
31
0.0000000000
11
-7.0477078349
21
-18.2995336329
31
0.0000000000
0
SPLINE
5
344
100
AcDbEntity
8
0
100
AcDbSpline
62
7
6
CONTINUOUS
70
0
71
3
72
11
73
7
74
5
42
0.0000001000
43
0.0000001000
44
0.0000000001
12
-0.1052706954
22
0.0525826372
32
0.0000000000
13
-0.1091594246
23
-0.0434803919
33
0.0000000000
40
0.0000000000
40
0.0000000000
40
0.0000000000
40
0.0000000000
40
0.0564164814
40
0.4226037126
40
0.7331627768
40
1.0000000000
40
1.0000000000
40
1.0000000000
40
1.0000000000
10
21.1810736054
20
-30.9221558558
30
0.0000000000
10
21.1790939380
20
-30.9211670133
30
0.0000000000
10
21.1641631380
20
-30.9139562249
30
0.0000000000
10
21.1369318127
20
-30.9041234624
30
0.0000000000
10
21.0997681440
20
-30.9002972884
30
0.0000000000
10
21.0771019417
20
-30.9046861814
30
0.0000000000
10
21.0673926758
20
-30.9085535771
30
0.0000000000
11
21.1810736054
21
-30.9221558558
31
0.0000000000
11
21.1750938479
21
-30.9192692707
31
0.0000000000
11
21.1344211397
21
-30.9052313401
31
0.0000000000
11
21.0980678090
21
-30.9020670100
31
0.0000000000
11
21.0673926758
21
-30.9085535771
31
0.0000000000
0
SPLINE
5
345
100
AcDbEntity
8
0
100
AcDbSpline
62
7
6
CONTINUOUS
70
0
71
3
72
10
73
6
74
4
42
0.0000001000
43
0.0000001000
44
0.0000000001
12
0.0774178382
22
0.0632233885
32
0.0000000000
13
0.0237236076
23
0.0965743011
33
0.0000000000
40
0.0000000000
40
0.0000000000
40
0.0000000000
40
0.0000000000
40
0.0185822240
40
0.4830448330
40
1.0000000000
40
1.0000000000
40
1.0000000000
40
1.0000000000
10
24.7226740096
20
-34.2942224589
30
0.0000000000
10
24.7231535415
20
-34.2938308485
30
0.0000000000
10
24.7355349927
20
-34.2835522221
30
0.0000000000
10
24.7565446136
20
-34.2570328523
30
0.0000000000
10
24.7680093046
20
-34.2260777375
30
0.0000000000
10
24.7720973185
20
-34.2094362096
30
0.0000000000
11
24.7226740096
21
-34.2942224589
31
0.0000000000
11
24.7241028399
21
-34.2930362866
31
0.0000000000
11
24.7533914079
21
-34.2573210684
31
0.0000000000
11
24.7720973185
21
-34.2094362096
31
0.0000000000
0
SPLINE
5
346
100
AcDbEntity
8
0
100
AcDbSpline
62
7
6
CONTINUOUS
70
0
71
3
72
11
73
7
74
5
42
0.0000001000
43
0.0000001000
44
0.0000000001
12
-0.1052706954
22
0.0525826372
32
0.0000000000
13
-0.1091594246
23
-0.0434803919
33
0.0000000000
40
0.0000000000
40
0.0000000000
40
0.0000000000
40
0.0000000000
40
0.0564164814
40
0.4226037126
40
0.7331627768
40
1.0000000000
40
1.0000000000
40
1.0000000000
40
1.0000000000
10
-26.5486341247
20
-7.0573019907
30
0.0000000000
10
-26.5506137921
20
-7.0563131483
30
0.0000000000
10
-26.5655445921
20
-7.0491023598
30
0.0000000000
10
-26.5927759173
20
-7.0392695974
30
0.0000000000
10
-26.6299395860
20
-7.0354434234
30
0.0000000000
10
-26.6526057884
20
-7.0398323163
30
0.0000000000
10
-26.6623150543
20
-7.0436997120
30
0.0000000000
11
-26.5486341247
21
-7.0573019907
31
0.0000000000
11
-26.5546138822
21
-7.0544154056
31
0.0000000000
11
-26.5952865904
21
-7.0403774750
31
0.0000000000
11
-26.6316399211
21
-7.0372131450
31
0.0000000000
11
-26.6623150543
21
-7.0436997120
31
0.0000000000
0
SPLINE
5
347
100
AcDbEntity
8
0
100
AcDbSpline
62
7
6
CONTINUOUS
70
0
71
3
72
10
73
6
74
4
42
0.0000001000
43
0.0000001000
44
0.0000000001
12
0.0774178382
22
0.0632233885
32
0.0000000000
13
0.0237236076
23
0.0965743011
33
0.0000000000
40
0.0000000000
40
0.0000000000
40
0.0000000000
40
0.0000000000
40
0.0185822240
40
0.4830448330
40
1.0000000000
40
1.0000000000
40
1.0000000000
40
1.0000000000
10
-23.0070337205
20
-10.4293685939
30
0.0000000000
10
-23.0065541886
20
-10.4289769835
30
0.0000000000
10
-22.9941727374
20
-10.4186983571
30
0.0000000000
10
-22.9731631165
20
-10.3921789873
30
0.0000000000
10
-22.9616984255
20
-10.3612238725
30
0.0000000000
10
-22.9576104116
20
-10.3445823445
30
0.0000000000
11
-23.0070337205
21
-10.4293685939
31
0.0000000000
11
-23.0056048902
21
-10.4281824216
31
0.0000000000
11
-22.9763163221
21
-10.3924672034
31
0.0000000000
11
-22.9576104116
21
-10.3445823445
31
0.0000000000
0
SPLINE
5
348
100
AcDbEntity
8
0
100
AcDbSpline
62
7
6
CONTINUOUS
70
0
71
3
72
8
73
4
74
2
42
0.0000001000
43
0.0000001000
44
0.0000000001
12
0.1486384148
22
-0.0743192074
32
0.0000000000
13
0.1335225548
23
-0.1001376908
33
0.0000000000
40
0.0000000000
40
0.0000000000
40
0.0000000000
40
0.0000000000
40
1.0000000000
40
1.0000000000
40
1.0000000000
40
1.0000000000
10
48.2906260167
20
13.2365601345
30
0.0000000000
10
48.3401721550
20
13.2117870654
30
0.0000000000
10
48.3872501213
20
13.1819822700
30
0.0000000000
10
48.4317576395
20
13.1486030398
30
0.0000000000
11
48.2906260167
21
13.2365601345
31
0.0000000000
11
48.4317576395
21
13.1486030398
31
0.0000000000
0
SPLINE
5
349
100
AcDbEntity
8
0
100
AcDbSpline
62
7
6
CONTINUOUS
70
0
71
3
72
10
73
6
74
4
42
0.0000001000
43
0.0000001000
44
0.0000000001
12
0.0000000000
22
-0.6521879552
32
0.0000000000
13
-0.6041063203
23
-0.2560533315
33
0.0000000000
40
0.0000000000
40
0.0000000000
40
0.0000000000
40
0.0000000000
40
0.3863674375
40
0.7204614248
40
1.0000000000
40
1.0000000000
40
1.0000000000
40
1.0000000000
10
48.9977327979
20
-58.1310763664
30
0.0000000000
10
48.9977327979
20
-58.2150710960
30
0.0000000000
10
48.9795825128
20
-58.3729551516
30
0.0000000000
10
48.8823277818
20
-58.5741981744
30
0.0000000000
10
48.7715916721
20
-58.6584192883
30
0.0000000000
10
48.7153013321
20
-58.6822782161
30
0.0000000000
11
48.9977327979
21
-58.1310763664
31
0.0000000000
11
48.9633343137
21
-58.3807016371
31
0.0000000000
11
48.8618871097
21
-58.5735368541
31
0.0000000000
11
48.7153013321
21
-58.6822782161
31
0.0000000000
0
SPLINE
5
34A
100
AcDbEntity
8
0
100
AcDbSpline
62
7
6
CONTINUOUS
70
0
71
3
72
10
73
6
74
4
42
0.0000001000
43
0.0000001000
44
0.0000000001
12
0.0000000000
22
-0.2925501957
32
0.0000000000
13
0.2616648497
23
-0.1308324249
33
0.0000000000
40
0.0000000000
40
0.0000000000
40
0.0000000000
40
0.0000000000
40
0.3336983797
40
0.6845860550
40
1.0000000000
40
1.0000000000
40
1.0000000000
40
1.0000000000
10
-36.3854110304
20
-3.5671667714
30
0.0000000000
10
-36.3854110304
20
-3.5997079469
30
0.0000000000
10
-36.3706360870
20
-3.6666189093
30
0.0000000000
10
-36.3217972151
20
-3.7521656972
30
0.0000000000
10
-36.2716944014
20
-3.7969927951
30
0.0000000000
10
-36.2441834872
20
-3.8107482522
30
0.0000000000
11
-36.3854110304
21
-3.5671667714
31
0.0000000000
11
-36.3665735244
21
-3.6629556082
31
0.0000000000
11
-36.3151944432
21
-3.7518244785
31
0.0000000000
11
-36.2441834872
21
-3.8107482522
31
0.0000000000
0
SPLINE
5
34B
100
AcDbEntity
8
0
100
AcDbSpline
62
7
6
CONTINUOUS
70
0
71
3
72
12
73
8
74
6
42
0.0000001000
43
0.0000001000
44
0.0000000001
12
0.0635407318
22
0.0460508195
32
0.0000000000
13
-0.0042675374
23
0.0503720217
33
0.0000000000
40
0.0000000000
40
0.0000000000
40
0.0000000000
40
0.0000000000
40
0.3320143316
40
0.6015610897
40
0.7993171433
40
0.9299950006
40
1.0000000000
40
1.0000000000
40
1.0000000000
40
1.0000000000
10
9.4069705516
20
-25.6280659358
30
0.0000000000
10
9.4140026962
20
-25.6229694251
30
0.0000000000
10
9.4266815306
20
-25.6135461161
30
0.0000000000
10
9.4430023710
20
-25.6008103341
30
0.0000000000
10
9.4550856819
20
-25.5900867050
30
0.0000000000
10
9.4619214605
20
-25.5836483380
30
0.0000000000
10
9.4656458837
20
-25.5778977666
30
0.0000000000
10
9.4655463007
20
-25.5767223355
30
0.0000000000
11
9.4069705516
21
-25.6280659358
31
0.0000000000
11
9.4278775424
21
-25.6125183625
31
0.0000000000
11
9.4444353256
21
-25.5993555528
31
0.0000000000
11
9.4560778961
21
-25.5890950322
31
0.0000000000
11
9.4630817185
21
-25.5816046012
31
0.0000000000
11
9.4655463007
21
-25.5767223355
31
0.0000000000
0
SPLINE
5
34C
100
AcDbEntity
8
0
100
AcDbSpline
62
7
6
CONTINUOUS
70
0
71
3
72
12
73
8
74
6
42
0.0000001000
43
0.0000001000
44
0.0000000001
12
0.0635407318
22
0.0460508195
32
0.0000000000
13
-0.0042675374
23
0.0503720217
33
0.0000000000
40
0.0000000000
40
0.0000000000
40
0.0000000000
40
0.0000000000
40
0.3320143316
40
0.6015610897
40
0.7993171433
40
0.9299950006
40
1.0000000000
40
1.0000000000
40
1.0000000000
40
1.0000000000
10
-6.5029320251
20
-17.6731146474
30
0.0000000000
10
-6.4958998805
20
-17.6680181368
30
0.0000000000
10
-6.4832210461
20
-17.6585948278
30
0.0000000000
10
-6.4669002057
20
-17.6458590458
30
0.0000000000
10
-6.4548168948
20
-17.6351354166
30
0.0000000000
10
-6.4479811162
20
-17.6286970496
30
0.0000000000
10
-6.4442566930
20
-17.6229464782
30
0.0000000000
10
-6.4443562760
20
-17.6217710471
30
0.0000000000
11
-6.5029320251
21
-17.6731146474
31
0.0000000000
11
-6.4820250342
21
-17.6575670741
31
0.0000000000
11
-6.4654672511
21
-17.6444042644
31
0.0000000000
11
-6.4538246806
21
-17.6341437438
31
0.0000000000
11
-6.4468208582
21
-17.6266533128
31
0.0000000000
11
-6.4443562760
21
-17.6217710471
31
0.0000000000
0
SPLINE
5
34D
100
AcDbEntity
8
0
100
AcDbSpline
62
7
6
CONTINUOUS
70
0
71
3
72
12
73
8
74
6
42
0.0000001000
43
0.0000001000
44
0.0000000001
12
0.0635407381
22
0.0460508240
32
0.0000000000
13
-0.0042689127
23
0.0503707168
33
0.0000000000
40
0.0000000000
40
0.0000000000
40
0.0000000000
40
0.0000000000
40
0.3320274477
40
0.6015555872
40
0.7993087660
40
0.9299911118
40
1.0000000000
40
1.0000000000
40
1.0000000000
40
1.0000000000
10
25.3168731283
20
-33.5830172241
30
0.0000000000
10
25.3239055514
20
-33.5779205116
30
0.0000000000
10
25.3365842726
20
-33.5684972824
30
0.0000000000
10
25.3529049249
20
-33.5557616095
30
0.0000000000
10
25.3649879346
20
-33.5450383014
30
0.0000000000
10
25.3718237827
20
-33.5385999063
30
0.0000000000
10
25.3755484955
20
-33.5328490912
30
0.0000000000
10
25.3754488749
20
-33.5316736253
30
0.0000000000
11
25.3168731283
21
-33.5830172241
31
0.0000000000
11
25.3377809382
21
-33.5674690230
31
0.0000000000
11
25.3543375739
21
-33.5543071144
31
0.0000000000
11
25.3659800012
21
-33.5440467703
31
0.0000000000
11
25.3729841126
21
-33.5365561259
31
0.0000000000
11
25.3754488749
21
-33.5316736253
31
0.0000000000
0
SPLINE
5
34E
100
AcDbEntity
8
0
100
AcDbSpline
62
7
6
CONTINUOUS
70
0
71
3
72
12
73
8
74
6
42
0.0000001000
43
0.0000001000
44
0.0000000001
12
0.0635407381
22
0.0460508240
32
0.0000000000
13
-0.0042689127
23
0.0503707168
33
0.0000000000
40
0.0000000000
40
0.0000000000
40
0.0000000000
40
0.0000000000
40
0.3320274477
40
0.6015555872
40
0.7993087660
40
0.9299911118
40
1.0000000000
40
1.0000000000
40
1.0000000000
40
1.0000000000
10
-22.4128346018
20
-9.7181633591
30
0.0000000000
10
-22.4058021787
20
-9.7130666466
30
0.0000000000
10
-22.3931234575
20
-9.7036434174
30
0.0000000000
10
-22.3768028052
20
-9.6909077445
30
0.0000000000
10
-22.3647197955
20
-9.6801844364
30
0.0000000000
10
-22.3578839474
20
-9.6737460412
30
0.0000000000
10
-22.3541592346
20
-9.6679952262
30
0.0000000000
10
-22.3542588552
20
-9.6668197602
30
0.0000000000
11
-22.4128346018
21
-9.7181633591
31
0.0000000000
11
-22.3919267919
21
-9.7026151580
31
0.0000000000
11
-22.3753701562
21
-9.6894532494
31
0.0000000000
11
-22.3637277289
21
-9.6791929052
31
0.0000000000
11
-22.3567236175
21
-9.6717022608
31
0.0000000000
11
-22.3542588552
21
-9.6668197602
31
0.0000000000
0
SPLINE
5
34F
100
AcDbEntity
8
0
100
AcDbSpline
62
7
6
CONTINUOUS
70
0
71
3
72
13
73
9
74
7
42
0.0000001000
43
0.0000001000
44
0.0000000001
12
0.4937672681
22
-0.2468836340
32
0.0000000000
13
-0.5007398990
23
-0.2486577679
33
0.0000000000
40
0.0000000000
40
0.0000000000
40
0.0000000000
40
0.0000000000
40
0.1551465847
40
0.3434463037
40
0.5538277838
40
0.7640170757
40
0.9532431262
40
1.0000000000
40
1.0000000000
40
1.0000000000
40
1.0000000000
10
-3.3685921055
20
-22.5723650508
30
0.0000000000
10
-3.3430566704
20
-22.5851327683
30
0.0000000000
10
-3.2945455146
20
-22.6296223405
30
0.0000000000
10
-3.2518176066
20
-22.7247554015
30
0.0000000000
10
-3.2464164016
20
-22.8392377156
30
0.0000000000
10
-3.2799837043
20
-22.9486510630
30
0.0000000000
10
-3.3336896518
20
-23.0146540238
30
0.0000000000
10
-3.3716261304
20
-23.0370840839
30
0.0000000000
10
-3.3794304745
20
-23.0409595705
30
0.0000000000
11
-3.3685921055
21
-22.5723650508
31
0.0000000000
11
-3.3037206459
21
-22.6282877764
31
0.0000000000
11
-3.2595936510
21
-22.7224075635
31
0.0000000000
11
-3.2531413046
21
-22.8383689900
31
0.0000000000
11
-3.2883631547
21
-22.9489288078
31
0.0000000000
11
-3.3569670880
21
-23.0277057356
31
0.0000000000
11
-3.3794304745
21
-23.0409595705
31
0.0000000000
0
SPLINE
5
350
100
AcDbEntity
8
0
100
AcDbSpline
62
7
6
CONTINUOUS
70
0
71
3
72
11
73
7
74
5
42
0.0000001000
43
0.0000001000
44
0.0000000001
12
0.0486377385
22
0.0242071507
32
0.0000000000
13
0.0142311125
23
-0.0240106422
33
0.0000000000
40
0.0000000000
40
0.0000000000
40
0.0000000000
40
0.0000000000
40
0.4602760457
40
0.7976920459
40
0.9794841435
40
1.0000000000
40
1.0000000000
40
1.0000000000
40
1.0000000000
10
9.4141781605
20
-25.1685488598
30
0.0000000000
10
9.4216404225
20
-25.1648348693
30
0.0000000000
10
9.4355927304
20
-25.1585157654
30
0.0000000000
10
9.4495854932
20
-25.1527624712
30
0.0000000000
10
9.4628314087
20
-25.1491229278
30
0.0000000000
10
9.4641340287
20
-25.1504912819
30
0.0000000000
10
9.4642313498
20
-25.1506554815
30
0.0000000000
11
9.4141781605
21
-25.1685488598
31
0.0000000000
11
9.4368904616
21
-25.1580863987
31
0.0000000000
11
9.4540576384
21
-25.1516576983
31
0.0000000000
11
9.4638321702
21
-25.1502418563
31
0.0000000000
11
9.4642313498
21
-25.1506554815
31
0.0000000000
0
SPLINE
5
351
100
AcDbEntity
8
0
100
AcDbSpline
62
7
6
CONTINUOUS
70
0
71
3
72
11
73
7
74
5
42
0.0000001000
43
0.0000001000
44
0.0000000001
12
0.0486377385
22
0.0242071507
32
0.0000000000
13
0.0142311125
23
-0.0240106422
33
0.0000000000
40
0.0000000000
40
0.0000000000
40
0.0000000000
40
0.0000000000
40
0.4602760457
40
0.7976920459
40
0.9794841435
40
1.0000000000
40
1.0000000000
40
1.0000000000
40
1.0000000000
10
-6.4957244162
20
-17.2135975714
30
0.0000000000
10
-6.4882621542
20
-17.2098835809
30
0.0000000000
10
-6.4743098463
20
-17.2035644771
30
0.0000000000
10
-6.4603170835
20
-17.1978111829
30
0.0000000000
10
-6.4470711680
20
-17.1941716395
30
0.0000000000
10
-6.4457685480
20
-17.1955399935
30
0.0000000000
10
-6.4456712269
20
-17.1957041931
30
0.0000000000
11
-6.4957244162
21
-17.2135975714
31
0.0000000000
11
-6.4730121151
21
-17.2031351103
31
0.0000000000
11
-6.4558449383
21
-17.1967064100
31
0.0000000000
11
-6.4460704065
21
-17.1952905679
31
0.0000000000
11
-6.4456712269
21
-17.1957041931
31
0.0000000000
0
SPLINE
5
352
100
AcDbEntity
8
0
100
AcDbSpline
62
7
6
CONTINUOUS
70
0
71
3
72
9
73
5
74
3
42
0.0000001000
43
0.0000001000
44
0.0000000001
12
-0.0135187259
22
0.0335360019
32
0.0000000000
13
-0.0127901688
23
0.0338207957
33
0.0000000000
40
0.0000000000
40
0.0000000000
40
0.0000000000
40
0.0000000000
40
0.2470711420
40
1.0000000000
40
1.0000000000
40
1.0000000000
40
1.0000000000
10
25.8291161246
20
3.5712301921
30
0.0000000000
10
25.8280027623
20
3.5739921182
30
0.0000000000
10
25.8235246884
20
3.5851822027
30
0.0000000000
10
25.8191630574
20
3.5964188930
30
0.0000000000
10
25.8159530284
20
3.6049071107
30
0.0000000000
11
25.8291161246
21
3.5712301921
31
0.0000000000
11
25.8257970648
21
3.5795244571
31
0.0000000000
11
25.8159530284
21
3.6049071107
31
0.0000000000
0
SPLINE
5
353
100
AcDbEntity
8
0
100
AcDbSpline
62
7
6
CONTINUOUS
70
0
71
3
72
12
73
8
74
6
42
0.0000001000
43
0.0000001000
44
0.0000000001
12
-0.0962074803
22
0.2543995772
32
0.0000000000
13
0.0207145222
23
0.2714571912
33
0.0000000000
40
0.0000000000
40
0.0000000000
40
0.0000000000
40
0.0000000000
40
0.1881819001
40
0.4362362342
40
0.6494443775
40
0.8357672430
40
1.0000000000
40
1.0000000000
40
1.0000000000
40
1.0000000000
10
25.8159530284
20
3.6049071107
30
0.0000000000
10
25.8099181929
20
3.6208649093
30
0.0000000000
10
25.7965345087
20
3.6580853654
30
0.0000000000
10
25.7791241655
20
3.7143556396
30
0.0000000000
10
25.7654173010
20
3.7715011887
30
0.0000000000
10
25.7578872222
20
3.8221036069
30
0.0000000000
10
25.7567485050
20
3.8540063560
30
0.0000000000
10
25.7578825061
20
3.8688670770
30
0.0000000000
11
25.8159530284
21
3.6049071107
31
0.0000000000
11
25.7986856942
21
3.6530842525
31
0.0000000000
11
25.7789426245
21
3.7175883217
31
0.0000000000
11
25.7657367699
21
3.7740459310
31
0.0000000000
11
25.7585932314
21
3.8242099715
31
0.0000000000
11
25.7578825061
21
3.8688670770
31
0.0000000000
0
SPLINE
5
354
100
AcDbEntity
8
0
100
AcDbSpline
62
7
6
CONTINUOUS
70
0
71
3
72
9
73
5
74
3
42
0.0000001000
43
0.0000001000
44
0.0000000001
12
0.0055738212
22
0.0730431449
32
0.0000000000
13
0.0581919142
23
0.0443656447
33
0.0000000000
40
0.0000000000
40
0.0000000000
40
0.0000000000
40
0.0000000000
40
0.5243995572
40
1.0000000000
40
1.0000000000
40
1.0000000000
40
1.0000000000
10
25.7578825061
20
3.8688670770
30
0.0000000000
10
25.7588568092
20
3.8816350079
30
0.0000000000
10
25.7630620034
20
3.9058623891
30
0.0000000000
10
25.7768487164
20
3.9277191543
30
0.0000000000
10
25.7860740832
20
3.9347525944
30
0.0000000000
11
25.7578825061
21
3.8688670770
31
0.0000000000
11
25.7659020819
21
3.9063927566
31
0.0000000000
11
25.7860740832
21
3.9347525944
31
0.0000000000
0
SPLINE
5
355
100
AcDbEntity
8
0
100
AcDbSpline
62
7
6
CONTINUOUS
70
0
71
3
72
10
73
6
74
4
42
0.0000001000
43
0.0000001000
44
0.0000000001
12
-0.1260276435
22
-0.0567378999
32
0.0000000000
13
-0.1252527257
23
0.0584286822
33
0.0000000000
40
0.0000000000
40
0.0000000000
40
0.0000000000
40
0.0000000000
40
0.3239738900
40
0.6781808503
40
1.0000000000
40
1.0000000000
40
1.0000000000
40
1.0000000000
10
27.1130009368
20
3.6687065564
30
0.0000000000
10
27.0993910481
20
3.6625793570
30
0.0000000000
10
27.0684289941
20
3.6552501645
30
0.0000000000
10
27.0221151547
20
3.6554377172
30
0.0000000000
10
26.9913063899
20
3.6630366340
30
0.0000000000
10
26.9778701480
20
3.6693044570
30
0.0000000000
11
27.1130009368
21
3.6687065564
31
0.0000000000
11
27.0697072394
21
3.6572784972
31
0.0000000000
11
27.0207525797
21
3.6574951023
31
0.0000000000
11
26.9778701480
21
3.6693044570
31
0.0000000000
0
SPLINE
5
356
100
AcDbEntity
8
0
100
AcDbSpline
62
7
6
CONTINUOUS
70
0
71
3
72
10
73
6
74
4
42
0.0000001000
43
0.0000001000
44
0.0000000001
12
-0.1212280032
22
-0.0727595423
32
0.0000000000
13
-0.0089399736
23
-0.1411037087
33
0.0000000000
40
0.0000000000
40
0.0000000000
40
0.0000000000
40
0.0000000000
40
0.3176721154
40
0.6709686137
40
1.0000000000
40
1.0000000000
40
1.0000000000
40
1.0000000000
10
26.4381912703
20
4.8470876339
30
0.0000000000
10
26.4253543515
20
4.8393830747
30
0.0000000000
10
26.4019992268
20
4.8169078930
30
0.0000000000
10
26.3779679707
20
4.7759694642
30
0.0000000000
10
26.3693457892
20
4.7442649195
30
0.0000000000
10
26.3683652785
20
4.7287890698
30
0.0000000000
11
26.4381912703
21
4.8470876339
31
0.0000000000
11
26.4048601066
21
4.8169819207
31
0.0000000000
11
26.3794693099
21
4.7739650634
31
0.0000000000
11
26.3683652785
21
4.7287890698
31
0.0000000000
0
SPLINE
5
357
100
AcDbEntity
8
0
100
AcDbSpline
62
7
6
CONTINUOUS
70
0
71
3
72
14
73
10
74
8
42
0.0000001000
43
0.0000001000
44
0.0000000001
12
1.1137349494
22
-0.6164130214
32
0.0000000000
13
-0.0000021452
23
-1.2729377638
33
0.0000000000
40
0.0000000000
40
0.0000000000
40
0.0000000000
40
0.0000000000
40
0.1154851049
40
0.2560958754
40
0.4212157593
40
0.5946546611
40
0.7540529780
40
0.8884324795
40
1.0000000000
40
1.0000000000
40
1.0000000000
40
1.0000000000
10
26.3683652750
20
4.7287890679
30
0.0000000000
10
26.4112385408
20
4.7050602271
30
0.0000000000
10
26.5017554993
20
4.6439716216
30
0.0000000000
10
26.6329499006
20
4.5215855559
30
0.0000000000
10
26.7588533721
20
4.3608519476
30
0.0000000000
10
26.8625082269
20
4.1757701359
30
0.0000000000
10
26.9327548320
20
3.9895960362
30
0.0000000000
10
26.9698614810
20
3.8210960464
30
0.0000000000
10
26.9778702278
20
3.7166439603
30
0.0000000000
10
26.9778701480
20
3.6693044570
30
0.0000000000
11
26.3683652750
21
4.7287890679
31
0.0000000000
11
26.4906884553
21
4.6472561739
31
0.0000000000
11
26.6221659379
21
4.5258039292
31
0.0000000000
11
26.7522710541
21
4.3607240249
31
0.0000000000
11
26.8602062764
21
4.1681300487
31
0.0000000000
11
26.9314303483
21
3.9781373635
31
0.0000000000
11
26.9676193230
21
3.8109525342
31
0.0000000000
11
26.9778701480
21
3.6693044570
31
0.0000000000
0
SPLINE
5
358
100
AcDbEntity
8
0
100
AcDbSpline
62
7
6
CONTINUOUS
70
0
71
3
72
14
73
10
74
8
42
0.0000001000
43
0.0000001000
44
0.0000000001
12
1.2314102267
22
-0.6926096695
32
0.0000000000
13
0.0058849004
23
-1.4128144495
33
0.0000000000
40
0.0000000000
40
0.0000000000
40
0.0000000000
40
0.0000000000
40
0.1151264495
40
0.2555671537
40
0.4207988375
40
0.5945269198
40
0.7541197565
40
0.8885268316
40
1.0000000000
40
1.0000000000
40
1.0000000000
40
1.0000000000
10
26.4381912703
20
4.8470876339
30
0.0000000000
10
26.4854472327
20
4.8205084032
30
0.0000000000
10
26.5852539437
20
4.7521964208
30
0.0000000000
10
26.7299873568
20
4.6157336012
30
0.0000000000
10
26.8691179417
20
4.4367489446
30
0.0000000000
10
26.9839029328
20
4.2308854652
30
0.0000000000
10
27.0619518219
20
4.0240470190
30
0.0000000000
10
27.1034926976
20
3.8370623275
30
0.0000000000
10
27.1127817955
20
3.7212037860
30
0.0000000000
10
27.1130004650
20
3.6687068184
30
0.0000000000
11
26.4381912703
21
4.8470876339
31
0.0000000000
11
26.5729521944
21
4.7560067538
31
0.0000000000
11
26.7179934934
21
4.6206078095
31
0.0000000000
11
26.8618209337
21
4.4367338172
31
0.0000000000
11
26.9814195224
21
4.2223959102
31
0.0000000000
11
27.0605738701
21
4.0112692264
31
0.0000000000
11
27.1010907588
21
3.8257481307
31
0.0000000000
11
27.1130004650
21
3.6687068184
31
0.0000000000
0
SPLINE
5
359
100
AcDbEntity
8
0
100
AcDbSpline
62
7
6
CONTINUOUS
70
0
71
3
72
13
73
9
74
7
42
0.0000001000
43
0.0000001000
44
0.0000000001
12
-0.3246699513
22
0.6641074751
32
0.0000000000
13
-0.5220454355
23
0.5233716452
33
0.0000000000
40
0.0000000000
40
0.0000000000
40
0.0000000000
40
0.0000000000
40
0.1834821546
40
0.3622387962
40
0.5333018926
40
0.6950855840
40
0.8495656173
40
1.0000000000
40
1.0000000000
40
1.0000000000
40
1.0000000000
10
-37.6490195863
20
35.2533811902
30
0.0000000000
10
-37.6688766337
20
35.2939984803
30
0.0000000000
10
-37.7103467797
20
35.3730930682
30
0.0000000000
10
-37.7769672911
20
35.4864172256
30
0.0000000000
10
-37.8459201498
20
35.5920022525
30
0.0000000000
10
-37.9160765351
20
35.6895180986
30
0.0000000000
10
-37.9883543700
20
35.7790469372
30
0.0000000000
10
-38.0393645707
20
35.8343148558
30
0.0000000000
10
-38.0655424316
20
35.8605592192
30
0.0000000000
11
-37.6490195863
21
35.2533811902
31
0.0000000000
11
-37.7118578489
21
35.3735808244
31
0.0000000000
11
-37.7788287641
21
35.4874935255
31
0.0000000000
11
-37.8479782064
21
35.5933654909
31
0.0000000000
11
-37.9180308072
21
35.6902952448
31
0.0000000000
11
-37.9899531959
21
35.7789951916
31
0.0000000000
11
-38.0655424316
21
35.8605592192
31
0.0000000000
0
SPLINE
5
35A
100
AcDbEntity
8
0
100
AcDbSpline
62
7
6
CONTINUOUS
70
0
71
3
72
25
73
21
74
19
42
0.0000001000
43
0.0000001000
44
0.0000000001
12
65.2740022255
22
-28.9620048359
32
0.0000000000
13
62.5010041281
23
-34.5415340370
33
0.0000000000
40
0.0000000000
40
0.0000000000
40
0.0000000000
40
0.0000000000
40
0.0994648925
40
0.1911391044
40
0.2755343478
40
0.3532314853
40
0.4248690150
40
0.4911347212
40
0.5526070329
40
0.6094263144
40
0.6616578343
40
0.7093787355
40
0.7526809188
40
0.7920259512
40
0.8284545966
40
0.8630809488
40
0.8970212366
40
0.9313080784
40
0.9664044255
40
1.0000000000
40
1.0000000000
40
1.0000000000
40
1.0000000000
10
-38.0655424316
20
35.8605592192
30
0.0000000000
10
-35.9013852276
20
34.9003249871
30
0.0000000000
10
-31.7520081685
20
33.0337387199
30
0.0000000000
10
-25.7963959055
20
30.2863136452
30
0.0000000000
10
-20.3329388394
20
27.7095498188
30
0.0000000000
10
-15.3189987198
20
25.2981880131
30
0.0000000000
10
-10.7091957178
20
23.0425009812
30
0.0000000000
10
-6.4591620840
20
20.9304938343
30
0.0000000000
10
-2.5359250241
20
18.9536452213
30
0.0000000000
10
1.0797313929
20
17.1088891232
30
0.0000000000
10
4.3960460583
20
15.3977684012
30
0.0000000000
10
7.4199724831
20
13.8217487054
30
0.0000000000
10
10.1665751614
20
12.3773683203
30
0.0000000000
10
12.6709008226
20
11.0498211542
30
0.0000000000
10
14.9890719976
20
9.8120641482
30
0.0000000000
10
17.1904844141
20
8.6287989971
30
0.0000000000
10
19.3439167139
20
7.4639718657
30
0.0000000000
10
21.5041344316
20
6.2881919616
30
0.0000000000
10
23.6540660793
20
5.1106954622
30
0.0000000000
10
25.0861550363
20
4.3215668211
30
0.0000000000
10
25.7860740832
20
3.9347525944
30
0.0000000000
11
-38.0655424316
21
35.8605592192
31
0.0000000000
11
-31.5877432430
21
32.9470126983
31
0.0000000000
11
-25.6431349240
21
30.2050073080
31
0.0000000000
11
-20.1921422168
21
27.6343830117
31
0.0000000000
11
-15.1918635546
21
25.2297908223
31
0.0000000000
11
-10.5967403004
21
22.9814330372
31
0.0000000000
11
-6.3590166167
21
20.8756539641
31
0.0000000000
11
-2.4387454876
21
18.9003897272
31
0.0000000000
11
1.1755406084
21
17.0564004967
31
0.0000000000
11
4.4902337016
21
15.3461670835
31
0.0000000000
11
7.5122278479
21
13.7711916804
31
0.0000000000
11
10.2491117899
21
12.3319491459
31
0.0000000000
11
12.7315535153
21
11.0160238367
31
0.0000000000
11
15.0263346859
21
9.7907718948
31
0.0000000000
11
17.2043464509
21
8.6200982786
31
0.0000000000
11
19.3361617689
21
7.4669766322
31
0.0000000000
11
21.4867032345
21
6.2964759595
31
0.0000000000
11
23.6848706145
21
5.0925743623
31
0.0000000000
11
25.7860740832
21
3.9347525944
31
0.0000000000
0
SPLINE
5
35B
100
AcDbEntity
8
0
100
AcDbSpline
62
7
6
CONTINUOUS
70
0
71
3
72
10
73
6
74
4
42
0.0000001000
43
0.0000001000
44
0.0000000001
12
-0.1259540100
22
-0.0675083911
32
0.0000000000
13
0.0079563493
23
-0.1426831876
33
0.0000000000
40
0.0000000000
40
0.0000000000
40
0.0000000000
40
0.0000000000
40
0.3164464670
40
0.6652384608
40
1.0000000000
40
1.0000000000
40
1.0000000000
40
1.0000000000
10
-38.5714867687
20
37.3519273197
30
0.0000000000
10
-38.5847726692
20
37.3448063890
30
0.0000000000
10
-38.6087973582
20
37.3224963014
30
0.0000000000
10
-38.6311401812
20
37.2797212767
30
0.0000000000
10
-38.6364865853
20
37.2466927000
30
0.0000000000
10
-38.6355987587
20
37.2307710855
30
0.0000000000
11
-38.5714867687
21
37.3519273197
31
0.0000000000
11
-38.6055561827
21
37.3221904692
31
0.0000000000
11
-38.6288692173
21
37.2781344434
31
0.0000000000
11
-38.6355987587
21
37.2307710855
31
0.0000000000
0
SPLINE
5
35C
100
AcDbEntity
8
0
100
AcDbSpline
62
7
6
CONTINUOUS
70
0
71
3
72
8
73
4
74
2
42
0.0000001000
43
0.0000001000
44
0.0000000001
12
2.3599513680
22
-1.0448786364
32
0.0000000000
13
2.3560472037
23
-1.0536636784
33
0.0000000000
40
0.0000000000
40
0.0000000000
40
0.0000000000
40
0.0000000000
40
1.0000000000
40
1.0000000000
40
1.0000000000
40
1.0000000000
10
-38.6355987595
20
37.2307710852
30
0.0000000000
10
-37.8489483035
20
36.8824782063
30
0.0000000000
10
-37.0629499782
20
36.5327094469
30
0.0000000000
10
-36.2776009103
20
36.1814882208
30
0.0000000000
11
-38.6355987595
21
37.2307710852
31
0.0000000000
11
-36.2776009103
21
36.1814882208
31
0.0000000000
0
SPLINE
5
35D
100
AcDbEntity
8
0
100
AcDbSpline
62
7
6
CONTINUOUS
70
0
71
3
72
8
73
4
74
2
42
0.0000001000
43
0.0000001000
44
0.0000000001
12
0.0175683194
22
-0.0078568460
32
0.0000000000
13
0.0175681028
23
-0.0078573305
33
0.0000000000
40
0.0000000000
40
0.0000000000
40
0.0000000000
40
0.0000000000
40
1.0000000000
40
1.0000000000
40
1.0000000000
40
1.0000000000
10
-36.2776009103
20
36.1814882208
30
0.0000000000
10
-36.2717448039
20
36.1788692721
30
0.0000000000
10
-36.2658887335
20
36.1762502427
30
0.0000000000
10
-36.2600326992
20
36.1736311325
30
0.0000000000
11
-36.2776009103
21
36.1814882208
31
0.0000000000
11
-36.2600326992
21
36.1736311325
31
0.0000000000
0
SPLINE
5
35E
100
AcDbEntity
8
0
100
AcDbSpline
62
7
6
CONTINUOUS
70
0
71
3
72
10
73
6
74
4
42
0.0000001000
43
0.0000001000
44
0.0000000001
12
9.2998150243
22
-4.1593404448
32
0.0000000000
13
9.2398136432
23
-4.2909864118
33
0.0000000000
40
0.0000000000
40
0.0000000000
40
0.0000000000
40
0.0000000000
40
0.1312585729
40
0.5567517650
40
1.0000000000
40
1.0000000000
40
1.0000000000
40
1.0000000000
10
-36.2600326992
20
36.1736311325
30
0.0000000000
10
-35.8531392166
20
35.9916481023
30
0.0000000000
10
-34.1279823098
20
35.2180877752
30
0.0000000000
10
-31.0349907274
20
33.8161779242
30
0.0000000000
10
-28.3555171134
20
32.5817834376
30
0.0000000000
10
-26.9903400836
20
31.9477927197
30
0.0000000000
11
-36.2600326992
21
36.1736311325
31
0.0000000000
11
-35.0398746938
21
35.6265157397
31
0.0000000000
11
-31.0917147773
21
33.8371114239
31
0.0000000000
11
-26.9903400836
21
31.9477927197
31
0.0000000000
0
SPLINE
5
35F
100
AcDbEntity
8
0
100
AcDbSpline
62
7
6
CONTINUOUS
70
0
71
3
72
8
73
4
74
2
42
0.0000001000
43
0.0000001000
44
0.0000000001
12
0.2905238620
22
-0.1349198146
32
0.0000000000
13
0.2904652855
23
-0.1350458766
33
0.0000000000
40
0.0000000000
40
0.0000000000
40
0.0000000000
40
0.0000000000
40
1.0000000000
40
1.0000000000
40
1.0000000000
40
1.0000000000
10
-26.9903400836
20
31.9477927197
30
0.0000000000
10
-26.8934987963
20
31.9028194482
30
0.0000000000
10
-26.7966672754
20
31.8578251458
30
0.0000000000
10
-26.6998455136
20
31.8128098536
30
0.0000000000
11
-26.9903400836
21
31.9477927197
31
0.0000000000
11
-26.6998455136
21
31.8128098536
31
0.0000000000
0
SPLINE
5
360
100
AcDbEntity
8
0
100
AcDbSpline
62
7
6
CONTINUOUS
70
0
71
3
72
10
73
6
74
4
42
0.0000001000
43
0.0000001000
44
0.0000000001
12
15.6042923605
22
-7.2548956642
32
0.0000000000
13
15.4386966960
23
-7.6009747475
33
0.0000000000
40
0.0000000000
40
0.0000000000
40
0.0000000000
40
0.0000000000
40
0.3163037751
40
0.6742219861
40
1.0000000000
40
1.0000000000
40
1.0000000000
40
1.0000000000
10
-26.6998455136
20
31.8128098536
30
0.0000000000
10
-25.0546133200
20
31.0478928915
30
0.0000000000
10
-21.5537006877
20
29.4045042644
30
0.0000000000
10
-16.3799162434
20
26.9274957265
30
0.0000000000
10
-12.8554286201
20
25.2074874981
30
0.0000000000
10
-11.1788993047
20
24.3820773458
30
0.0000000000
11
-26.6998455136
21
31.8128098536
31
0.0000000000
11
-21.7725650742
21
29.5000690242
31
0.0000000000
11
-16.2171402638
21
26.8406252737
31
0.0000000000
11
-11.1788993047
21
24.3820773458
31
0.0000000000
0
SPLINE
5
361
100
AcDbEntity
8
0
100
AcDbSpline
62
7
6
CONTINUOUS
70
0
71
3
72
8
73
4
74
2
42
0.0000001000
43
0.0000001000
44
0.0000000001
12
0.2215882972
22
-0.1090951578
32
0.0000000000
13
0.2215548548
23
-0.1091630594
33
0.0000000000
40
0.0000000000
40
0.0000000000
40
0.0000000000
40
0.0000000000
40
1.0000000000
40
1.0000000000
40
1.0000000000
40
1.0000000000
10
-11.1788993047
20
24.3820773458
30
0.0000000000
10
-11.1050365389
20
24.3457122933
30
0.0000000000
10
-11.0311793485
20
24.3093359161
30
0.0000000000
10
-10.9573277302
20
24.2729482296
30
0.0000000000
11
-11.1788993047
21
24.3820773458
31
0.0000000000
11
-10.9573277302
21
24.2729482296
31
0.0000000000
0
SPLINE
5
362
100
AcDbEntity
8
0
100
AcDbSpline
62
7
6
CONTINUOUS
70
0
71
3
72
8
73
4
74
2
42
0.0000001000
43
0.0000001000
44
0.0000000001
12
0.0214274843
22
-0.0105576100
32
0.0000000000
13
0.0214271716
23
-0.0105582446
33
0.0000000000
40
0.0000000000
40
0.0000000000
40
0.0000000000
40
0.0000000000
40
1.0000000000
40
1.0000000000
40
1.0000000000
40
1.0000000000
10
-10.9573277302
20
24.2729482296
30
0.0000000000
10
-10.9501852354
20
24.2694290263
30
0.0000000000
10
-10.9430427927
20
24.2659097172
30
0.0000000000
10
-10.9359004022
20
24.2623903023
30
0.0000000000
11
-10.9573277302
21
24.2729482296
31
0.0000000000
11
-10.9359004022
21
24.2623903023
31
0.0000000000
0
SPLINE
5
363
100
AcDbEntity
8
0
100
AcDbSpline
62
7
6
CONTINUOUS
70
0
71
3
72
11
73
7
74
5
42
0.0000001000
43
0.0000001000
44
0.0000000001
12
15.8107598648
22
-7.7907562107
32
0.0000000000
13
15.6437336406
23
-8.1209041339
33
0.0000000000
40
0.0000000000
40
0.0000000000
40
0.0000000000
40
0.0000000000
40
0.0554690257
40
0.4658898894
40
0.8719486978
40
1.0000000000
40
1.0000000000
40
1.0000000000
40
1.0000000000
10
-10.9359004022
20
24.2623903023
30
0.0000000000
10
-10.6435645869
20
24.1183417500
30
0.0000000000
10
-8.1889401839
20
22.9069753477
30
0.0000000000
10
-3.6064244073
20
20.6165416069
30
0.0000000000
10
1.3360542964
20
18.0929194986
30
0.0000000000
10
4.1230812173
20
16.6506985835
30
0.0000000000
10
4.7908147053
20
16.3040678004
30
0.0000000000
11
-10.9359004022
21
24.2623903023
31
0.0000000000
11
-10.0591546931
21
23.8297140333
31
0.0000000000
11
-3.5881940899
21
20.5957940042
31
0.0000000000
11
2.7862684818
21
17.3413628339
31
0.0000000000
11
4.7908147053
21
16.3040678004
31
0.0000000000
0
SPLINE
5
364
100
AcDbEntity
8
0
100
AcDbSpline
62
7
6
CONTINUOUS
70
0
71
3
72
8
73
4
74
2
42
0.0000001000
43
0.0000001000
44
0.0000000001
12
0.0321381219
22
-0.0166833963
32
0.0000000000
13
0.0321374303
23
-0.0166847283
33
0.0000000000
40
0.0000000000
40
0.0000000000
40
0.0000000000
40
0.0000000000
40
1.0000000000
40
1.0000000000
40
1.0000000000
40
1.0000000000
10
4.7908147053
20
16.3040678004
30
0.0000000000
10
4.8015274126
20
16.2985066683
30
0.0000000000
10
4.8122400046
20
16.2929453142
30
0.0000000000
10
4.8229524814
20
16.2873837381
30
0.0000000000
11
4.7908147053
21
16.3040678004
31
0.0000000000
11
4.8229524814
21
16.2873837381
31
0.0000000000
0
SPLINE
5
365
100
AcDbEntity
8
0
100
AcDbSpline
62
7
6
CONTINUOUS
70
0
71
3
72
8
73
4
74
2
42
0.0000001000
43
0.0000001000
44
0.0000000001
12
0.0943724607
22
-0.0489951703
32
0.0000000000
13
0.0943664972
23
-0.0490066531
33
0.0000000000
40
0.0000000000
40
0.0000000000
40
0.0000000000
40
0.0000000000
40
1.0000000000
40
1.0000000000
40
1.0000000000
40
1.0000000000
10
4.8229524814
20
16.2873837381
30
0.0000000000
10
4.8544099683
20
16.2710520147
30
0.0000000000
10
4.8858664611
20
16.2547183769
30
0.0000000000
10
4.9173219602
20
16.2383828259
30
0.0000000000
11
4.8229524814
21
16.2873837381
31
0.0000000000
11
4.9173219602
21
16.2383828259
31
0.0000000000
0
SPLINE
5
366
100
AcDbEntity
8
0
100
AcDbSpline
62
7
6
CONTINUOUS
70
0
71
3
72
8
73
4
74
2
42
0.0000001000
43
0.0000001000
44
0.0000000001
12
0.0200328245
22
-0.0104034982
32
0.0000000000
13
0.0200325558
23
-0.0104040155
33
0.0000000000
40
0.0000000000
40
0.0000000000
40
0.0000000000
40
0.0000000000
40
1.0000000000
40
1.0000000000
40
1.0000000000
40
1.0000000000
10
4.9173219602
20
16.2383828259
30
0.0000000000
10
4.9239995684
20
16.2349149932
30
0.0000000000
10
4.9306771318
20
16.2314470742
30
0.0000000000
10
4.9373546504
20
16.2279790691
30
0.0000000000
11
4.9173219602
21
16.2383828259
31
0.0000000000
11
4.9373546504
21
16.2279790691
31
0.0000000000
0
SPLINE
5
367
100
AcDbEntity
8
0
100
AcDbSpline
62
7
6
CONTINUOUS
70
0
71
3
72
8
73
4
74
2
42
0.0000001000
43
0.0000001000
44
0.0000000001
12
0.0418069332
22
-0.0217126554
32
0.0000000000
13
0.0418057630
23
-0.0217149082
33
0.0000000000
40
0.0000000000
40
0.0000000000
40
0.0000000000
40
0.0000000000
40
1.0000000000
40
1.0000000000
40
1.0000000000
40
1.0000000000
10
4.9373546504
20
16.2279790691
30
0.0000000000
10
4.9512902948
20
16.2207415173
30
0.0000000000
10
4.9652257441
20
16.2135035900
30
0.0000000000
10
4.9791609985
20
16.2062652872
30
0.0000000000
11
4.9373546504
21
16.2279790691
31
0.0000000000
11
4.9791609985
21
16.2062652872
31
0.0000000000
0
SPLINE
5
368
100
AcDbEntity
8
0
100
AcDbSpline
62
7
6
CONTINUOUS
70
0
71
3
72
12
73
8
74
6
42
0.0000001000
43
0.0000001000
44
0.0000000001
12
21.5420891846
22
-11.1894737680
32
0.0000000000
13
21.2386767179
23
-11.7550727150
33
0.0000000000
40
0.0000000000
40
0.0000000000
40
0.0000000000
40
0.0000000000
40
0.1684740492
40
0.4093855315
40
0.6252026948
40
0.8204626232
40
1.0000000000
40
1.0000000000
40
1.0000000000
40
1.0000000000
10
4.9791609985
20
16.2062652872
30
0.0000000000
10
6.1889219960
20
15.5778866359
30
0.0000000000
10
9.1250235050
20
14.0440752932
30
0.0000000000
10
13.5958182216
20
11.6766715921
30
0.0000000000
10
18.2430387609
20
9.1795149549
30
0.0000000000
10
22.4405935528
20
6.8948692382
30
0.0000000000
10
25.0973198403
20
5.4322807076
30
0.0000000000
10
26.3683652750
20
4.7287890679
30
0.0000000000
11
4.9791609985
21
16.2062652872
31
0.0000000000
11
8.6040469539
21
14.3126974628
31
0.0000000000
11
13.7723198302
21
11.5761283806
31
0.0000000000
11
18.3872243186
21
9.0964523310
31
0.0000000000
11
22.5504367693
21
6.8305822980
31
0.0000000000
11
26.3683652750
21
4.7287890679
31
0.0000000000
0
SPLINE
5
369
100
AcDbEntity
8
0
100
AcDbSpline
62
7
6
CONTINUOUS
70
0
71
3
72
8
73
4
74
2
42
0.0000001000
43
0.0000001000
44
0.0000000001
12
2.3693754695
22
-1.0490213278
32
0.0000000000
13
2.3654396854
23
-1.0578775637
33
0.0000000000
40
0.0000000000
40
0.0000000000
40
0.0000000000
40
0.0000000000
40
1.0000000000
40
1.0000000000
40
1.0000000000
40
1.0000000000
10
-38.5714867687
20
37.3519273197
30
0.0000000000
10
-37.7816949456
20
37.0022535437
30
0.0000000000
10
-36.9925605407
20
36.6510918777
30
0.0000000000
10
-36.2040806455
20
36.2984660231
30
0.0000000000
11
-38.5714867687
21
37.3519273197
31
0.0000000000
11
-36.2040806455
21
36.2984660231
31
0.0000000000
0
SPLINE
5
36A
100
AcDbEntity
8
0
100
AcDbSpline
62
7
6
CONTINUOUS
70
0
71
3
72
10
73
6
74
4
42
0.0000001000
43
0.0000001000
44
0.0000000001
12
9.3014917801
22
-4.1598352830
32
0.0000000000
13
9.2414617253
23
-4.2915513170
33
0.0000000000
40
0.0000000000
40
0.0000000000
40
0.0000000000
40
0.0000000000
40
0.1321496954
40
0.5576082274
40
1.0000000000
40
1.0000000000
40
1.0000000000
40
1.0000000000
10
-36.2040806455
20
36.2984660231
30
0.0000000000
10
-35.7943508770
20
36.1152257013
30
0.0000000000
10
-34.0662338451
20
35.3403712764
30
0.0000000000
10
-30.9727041787
20
33.9382495152
30
0.0000000000
10
-28.2955078187
20
32.7049463281
30
0.0000000000
10
-26.9327256075
20
32.0720973301
30
0.0000000000
11
-36.2040806455
21
36.2984660231
31
0.0000000000
11
-34.9754211459
21
35.7475622540
31
0.0000000000
11
-31.0268960465
21
33.9580332576
31
0.0000000000
11
-26.9327256075
21
32.0720973301
31
0.0000000000
0
SPLINE
5
36B
100
AcDbEntity
8
0
100
AcDbSpline
62
7
6
CONTINUOUS
70
0
71
3
72
8
73
4
74
2
42
0.0000001000
43
0.0000001000
44
0.0000000001
12
0.2981326907
22
-0.1384469015
32
0.0000000000
13
0.2980709987
23
-0.1385796728
33
0.0000000000
40
0.0000000000
40
0.0000000000
40
0.0000000000
40
0.0000000000
40
1.0000000000
40
1.0000000000
40
1.0000000000
40
1.0000000000
10
-26.9327256075
20
32.0720973301
30
0.0000000000
10
-26.8333480439
20
32.0259483629
30
0.0000000000
10
-26.7339807664
20
31.9797772450
30
0.0000000000
10
-26.6346237669
20
31.9335840207
30
0.0000000000
11
-26.9327256075
21
32.0720973301
31
0.0000000000
11
-26.6346237669
21
31.9335840207
31
0.0000000000
0
SPLINE
5
36C
100
AcDbEntity
8
0
100
AcDbSpline
62
7
6
CONTINUOUS
70
0
71
3
72
10
73
6
74
4
42
0.0000001000
43
0.0000001000
44
0.0000000001
12
15.8452987402
22
-7.3668230852
32
0.0000000000
13
15.6745781355
23
-7.7234655979
33
0.0000000000
40
0.0000000000
40
0.0000000000
40
0.0000000000
40
0.0000000000
40
0.3115212151
40
0.6640275591
40
1.0000000000
40
1.0000000000
40
1.0000000000
40
1.0000000000
10
-26.6346237669
20
31.9335840207
30
0.0000000000
10
-24.9892415280
20
31.1686101278
30
0.0000000000
10
-21.4880113375
20
29.5250962948
30
0.0000000000
10
-16.2343243426
20
27.0098584652
30
0.0000000000
10
-12.6306674165
20
25.2504721301
30
0.0000000000
10
-10.8752586580
20
24.3855149339
30
0.0000000000
11
-26.6346237669
21
31.9335840207
31
0.0000000000
11
-21.7068957203
21
29.6206667188
31
0.0000000000
11
-16.1509719423
21
26.9610105693
31
0.0000000000
11
-10.8752586580
21
24.3855149339
31
0.0000000000
0
SPLINE
5
36D
100
AcDbEntity
8
0
100
AcDbSpline
62
7
6
CONTINUOUS
70
0
71
3
72
11
73
7
74
5
42
0.0000001000
43
0.0000001000
44
0.0000000001
12
15.8183667976
22
-7.7943157844
32
0.0000000000
13
15.6511566987
23
-8.1248296155
33
0.0000000000
40
0.0000000000
40
0.0000000000
40
0.0000000000
40
0.0000000000
40
0.0558264785
40
0.4660878037
40
0.8719887507
40
1.0000000000
40
1.0000000000
40
1.0000000000
40
1.0000000000
10
-10.8752586580
20
24.3855149339
30
0.0000000000
10
-10.5808974199
20
24.2404718663
30
0.0000000000
10
-8.1240539796
20
23.0280265541
30
0.0000000000
10
-3.5391444428
20
20.7363965498
30
0.0000000000
10
1.4038126696
20
18.2125182769
30
0.0000000000
10
4.1911294117
20
16.7701359466
30
0.0000000000
10
4.8589707859
20
16.4234460833
30
0.0000000000
11
-10.8752586580
21
24.3855149339
31
0.0000000000
11
-9.9924403561
21
23.9498476581
31
0.0000000000
11
-3.5209135024
21
20.7156449887
31
0.0000000000
11
2.8541002688
21
17.4609171538
31
0.0000000000
11
4.8589707859
21
16.4234460833
31
0.0000000000
0
SPLINE
5
36E
100
AcDbEntity
8
0
100
AcDbSpline
62
7
6
CONTINUOUS
70
0
71
3
72
8
73
4
74
2
42
0.0000001000
43
0.0000001000
44
0.0000000001
12
0.1418022658
22
-0.0736124026
32
0.0000000000
13
0.1417888002
23
-0.0736383317
33
0.0000000000
40
0.0000000000
40
0.0000000000
40
0.0000000000
40
0.0000000000
40
1.0000000000
40
1.0000000000
40
1.0000000000
40
1.0000000000
10
4.8589707859
20
16.4234460833
30
0.0000000000
10
4.9062382078
20
16.3989086158
30
0.0000000000
10
4.9535033851
20
16.3743668251
30
0.0000000000
10
5.0007663185
20
16.3498207145
30
0.0000000000
11
4.8589707859
21
16.4234460833
31
0.0000000000
11
5.0007663185
21
16.3498207145
31
0.0000000000
0
SPLINE
5
36F
100
AcDbEntity
8
0
100
AcDbSpline
62
7
6
CONTINUOUS
70
0
71
3
72
12
73
8
74
6
42
0.0000001000
43
0.0000001000
44
0.0000000001
12
21.5910298753
22
-11.2133498361
32
0.0000000000
13
21.2861934402
23
-11.7816352556
33
0.0000000000
40
0.0000000000
40
0.0000000000
40
0.0000000000
40
0.0000000000
40
0.1702615592
40
0.4106550588
40
0.6260082115
40
0.8208483237
40
1.0000000000
40
1.0000000000
40
1.0000000000
40
1.0000000000
10
5.0007663185
20
16.3498207145
30
0.0000000000
10
6.2261404554
20
15.7134199057
30
0.0000000000
10
9.1779910291
20
14.1714766551
30
0.0000000000
10
13.6645722167
20
11.7956832834
30
0.0000000000
10
18.3121834844
20
9.2982768430
30
0.0000000000
10
22.5100905446
20
7.0133965964
30
0.0000000000
10
25.1670388707
20
5.5506548625
30
0.0000000000
10
26.4381912829
20
4.8470882940
30
0.0000000000
11
5.0007663185
21
16.3498207145
31
0.0000000000
11
8.6723767397
21
14.4319652233
31
0.0000000000
11
13.8410879664
21
11.6951291509
31
0.0000000000
11
18.4563806302
21
9.2152049845
31
0.0000000000
11
22.6199402382
21
6.9491035895
31
0.0000000000
11
26.4381912829
21
4.8470882940
31
0.0000000000
0
SPLINE
5
370
100
AcDbEntity
8
0
100
AcDbSpline
62
7
6
CONTINUOUS
70
0
71
3
72
9
73
5
74
3
42
0.0000001000
43
0.0000001000
44
0.0000000001
12
-0.0000003268
22
0.1779202570
32
0.0000000000
13
0.0378250361
23
0.1741638023
33
0.0000000000
40
0.0000000000
40
0.0000000000
40
0.0000000000
40
0.0000000000
40
0.7467582508
40
1.0000000000
40
1.0000000000
40
1.0000000000
40
1.0000000000
10
-39.2046021897
20
36.7605406258
30
0.0000000000
10
-39.2046022711
20
36.8048284325
30
0.0000000000
10
-39.2006418316
20
36.8642549786
30
0.0000000000
10
-39.1899268777
20
36.9227272979
30
0.0000000000
10
-39.1867339183
20
36.9374291465
30
0.0000000000
11
-39.2046021897
21
36.7605406258
31
0.0000000000
11
-39.1949206487
21
36.8930508372
31
0.0000000000
11
-39.1867339183
21
36.9374291465
31
0.0000000000
0
SPLINE
5
371
100
AcDbEntity
8
0
100
AcDbSpline
62
7
6
CONTINUOUS
70
0
71
3
72
8
73
4
74
2
42
0.0000001000
43
0.0000001000
44
0.0000000001
12
0.0096756413
22
0.0445510872
32
0.0000000000
13
0.0127541541
23
0.0437656383
33
0.0000000000
40
0.0000000000
40
0.0000000000
40
0.0000000000
40
0.0000000000
40
1.0000000000
40
1.0000000000
40
1.0000000000
40
1.0000000000
10
-39.1867339183
20
36.9374291465
30
0.0000000000
10
-39.1835087045
20
36.9522795089
30
0.0000000000
10
-39.1797942688
20
36.9670219396
30
0.0000000000
10
-39.1755428841
20
36.9816104857
30
0.0000000000
11
-39.1867339183
21
36.9374291465
31
0.0000000000
11
-39.1755428841
21
36.9816104857
31
0.0000000000
0
SPLINE
5
372
100
AcDbEntity
8
0
100
AcDbSpline
62
7
6
CONTINUOUS
70
0
71
3
72
10
73
6
74
4
42
0.0000001000
43
0.0000001000
44
0.0000000001
12
0.0631934090
22
0.2168469867
32
0.0000000000
13
0.1591943175
23
0.1620316580
33
0.0000000000
40
0.0000000000
40
0.0000000000
40
0.0000000000
40
0.0000000000
40
0.2003161844
40
0.8031927465
40
1.0000000000
40
1.0000000000
40
1.0000000000
40
1.0000000000
10
-39.1755428841
20
36.9816104857
30
0.0000000000
10
-39.1713233299
20
36.9960898060
30
0.0000000000
10
-39.1522836549
20
37.0535386337
30
0.0000000000
10
-39.1170571454
20
37.1211306312
30
0.0000000000
10
-39.0772836741
20
37.1669540543
30
0.0000000000
10
-39.0668401420
20
37.1775837229
30
0.0000000000
11
-39.1755428841
21
36.9816104857
31
0.0000000000
11
-39.1612507424
21
37.0245487516
31
0.0000000000
11
-39.0961578820
21
37.1439007800
31
0.0000000000
11
-39.0668401420
21
37.1775837229
31
0.0000000000
0
SPLINE
5
373
100
AcDbEntity
8
0
100
AcDbSpline
62
7
6
CONTINUOUS
70
0
71
3
72
10
73
6
74
4
42
0.0000001000
43
0.0000001000
44
0.0000000001
12
0.1815421055
22
0.1847777535
32
0.0000000000
13
0.2581011281
23
0.0029884557
33
0.0000000000
40
0.0000000000
40
0.0000000000
40
0.0000000000
40
0.0000000000
40
0.3418135362
40
0.8387245976
40
1.0000000000
40
1.0000000000
40
1.0000000000
40
1.0000000000
10
-39.0668401420
20
37.1775837229
30
0.0000000000
10
-39.0461556256
20
37.1986369020
30
0.0000000000
10
-38.9890959956
20
37.2440610043
30
0.0000000000
10
-38.9052831117
20
37.2716477389
30
0.0000000000
10
-38.8487054573
20
37.2754734251
30
0.0000000000
10
-38.8348303362
20
37.2756340799
30
0.0000000000
11
-39.0668401420
21
37.1775837229
31
0.0000000000
11
-38.9974491036
21
37.2319596270
31
0.0000000000
11
-38.8763470530
21
37.2727381492
31
0.0000000000
11
-38.8348303362
21
37.2756340799
31
0.0000000000
0
SPLINE
5
374
100
AcDbEntity
8
0
100
AcDbSpline
62
7
6
CONTINUOUS
70
0
71
3
72
9
73
5
74
3
42
0.0000001000
43
0.0000001000
44
0.0000000001
12
0.1655960248
22
0.0019173740
32
0.0000000000
13
0.1552748102
23
-0.0566815732
33
0.0000000000
40
0.0000000000
40
0.0000000000
40
0.0000000000
40
0.0000000000
40
0.5030985843
40
1.0000000000
40
1.0000000000
40
1.0000000000
40
1.0000000000
10
-38.8348303362
20
37.2756340799
30
0.0000000000
10
-38.8070599609
20
37.2759556227
30
0.0000000000
10
-38.7517665291
20
37.2704100316
30
0.0000000000
10
-38.6985953247
20
37.2552227007
30
0.0000000000
10
-38.6728765670
20
37.2458343160
30
0.0000000000
11
-38.8348303362
21
37.2756340799
31
0.0000000000
11
-38.7519610195
21
37.2679352613
31
0.0000000000
11
-38.6728765670
21
37.2458343160
31
0.0000000000
0
SPLINE
5
375
100
AcDbEntity
8
0
100
AcDbSpline
62
7
6
CONTINUOUS
70
0
71
3
72
8
73
4
74
2
42
0.0000001000
43
0.0000001000
44
0.0000000001
12
0.0378044127
22
-0.0138001366
32
0.0000000000
13
0.0367302540
23
-0.0162629382
33
0.0000000000
40
0.0000000000
40
0.0000000000
40
0.0000000000
40
0.0000000000
40
1.0000000000
40
1.0000000000
40
1.0000000000
40
1.0000000000
10
-38.6728765670
20
37.2458343160
30
0.0000000000
10
-38.6602750961
20
37.2412342705
30
0.0000000000
10
-38.6478421775
20
37.2361920645
30
0.0000000000
10
-38.6355987595
20
37.2307710852
30
0.0000000000
11
-38.6728765670
21
37.2458343160
31
0.0000000000
11
-38.6355987595
21
37.2307710852
31
0.0000000000
0
SPLINE
5
376
100
AcDbEntity
8
0
100
AcDbSpline
62
7
6
CONTINUOUS
70
0
71
3
72
8
73
4
74
2
42
0.0000001000
43
0.0000001000
44
0.0000000001
12
-0.1187129172
22
0.0745247853
32
0.0000000000
13
-0.1059089781
23
0.0920981586
33
0.0000000000
40
0.0000000000
40
0.0000000000
40
0.0000000000
40
0.0000000000
40
1.0000000000
40
1.0000000000
40
1.0000000000
40
1.0000000000
10
-38.6355987595
20
-6.6257308776
30
0.0000000000
10
-38.6751697319
20
-6.6008892825
30
0.0000000000
10
-38.7126001909
20
-6.5725588344
30
0.0000000000
10
-38.7479031836
20
-6.5418594482
30
0.0000000000
11
-38.6355987595
21
-6.6257308776
31
0.0000000000
11
-38.7479031836
21
-6.5418594482
31
0.0000000000
0
SPLINE
5
377
100
AcDbEntity
8
0
100
AcDbSpline
62
7
6
CONTINUOUS
70
0
71
3
72
9
73
5
74
3
42
0.0000001000
43
0.0000001000
44
0.0000000001
12
-0.2314721202
22
0.2012875247
32
0.0000000000
13
-0.1741701985
23
0.2523898177
33
0.0000000000
40
0.0000000000
40
0.0000000000
40
0.0000000000
40
0.0000000000
40
0.5609568731
40
1.0000000000
40
1.0000000000
40
1.0000000000
40
1.0000000000
10
-38.7479031836
20
-6.5418594482
30
0.0000000000
10
-38.7911851425
20
-6.5042215747
30
0.0000000000
10
-38.8626418710
20
-6.4307780532
30
0.0000000000
10
-38.9247251564
20
-6.3494433161
30
0.0000000000
10
-38.9502145659
20
-6.3125066445
30
0.0000000000
11
-38.7479031836
21
-6.5418594482
31
0.0000000000
11
-38.8684038626
21
-6.4193411289
31
0.0000000000
11
-38.9502145659
21
-6.3125066445
31
0.0000000000
0
SPLINE
5
378
100
AcDbEntity
8
0
100
AcDbSpline
62
7
6
CONTINUOUS
70
0
71
3
72
10
73
6
74
4
42
0.0000001000
43
0.0000001000
44
0.0000000001
12
-0.2834876934
22
0.4108016633
32
0.0000000000
13
-0.1313842686
23
0.4813886098
33
0.0000000000
40
0.0000000000
40
0.0000000000
40
0.0000000000
40
0.0000000000
40
0.1418148083
40
0.5848665567
40
1.0000000000
40
1.0000000000
40
1.0000000000
40
1.0000000000
10
-38.9502145659
20
-6.3125066445
30
0.0000000000
10
-38.9636154835
20
-6.2930873915
30
0.0000000000
10
-39.0168677408
20
-6.2116003805
30
0.0000000000
10
-39.0938724449
20
-6.0636518631
30
0.0000000000
10
-39.1415444918
20
-5.9287187612
30
0.0000000000
10
-39.1597251597
20
-5.8621052575
30
0.0000000000
11
-38.9502145659
21
-6.3125066445
31
0.0000000000
11
-38.9889570604
21
-6.2532739600
31
0.0000000000
11
-39.0911148600
21
-6.0573982428
31
0.0000000000
11
-39.1597251597
21
-5.8621052575
31
0.0000000000
0
SPLINE
5
379
100
AcDbEntity
8
0
100
AcDbSpline
62
7
6
CONTINUOUS
70
0
71
3
72
9
73
5
74
3
42
0.0000001000
43
0.0000001000
44
0.0000000001
12
-0.0843123948
22
0.3089184643
32
0.0000000000
13
0.0000039074
23
0.3199772805
33
0.0000000000
40
0.0000000000
40
0.0000000000
40
0.0000000000
40
0.0000000000
40
0.5479387733
40
1.0000000000
40
1.0000000000
40
1.0000000000
40
1.0000000000
10
-39.1597251597
20
-5.8621052575
30
0.0000000000
10
-39.1751245031
20
-5.8056824560
30
0.0000000000
10
-39.1968391473
20
-5.7009528124
30
0.0000000000
10
-39.2046027785
20
-5.5942119859
30
0.0000000000
10
-39.2046021897
20
-5.5459955453
30
0.0000000000
11
-39.1597251597
21
-5.8621052575
31
0.0000000000
11
-39.1947324852
21
-5.6903077598
31
0.0000000000
11
-39.2046021897
21
-5.5459955453
31
0.0000000000
0
SPLINE
5
37A
100
AcDbEntity
8
0
100
AcDbSpline
62
7
6
CONTINUOUS
70
0
71
3
72
14
73
10
74
8
42
0.0000001000
43
0.0000001000
44
0.0000000001
12
-30.6557288658
22
11.6692077034
32
0.0000000000
13
-29.4701673506
23
14.4044197160
33
0.0000000000
40
0.0000000000
40
0.0000000000
40
0.0000000000
40
0.0000000000
40
0.1252389610
40
0.2622842607
40
0.4141893709
40
0.5839794160
40
0.7746738597
40
0.9852742336
40
1.0000000000
40
1.0000000000
40
1.0000000000
40
1.0000000000
10
26.3683652750
20
-39.1277128948
30
0.0000000000
10
25.0886013979
20
-38.6405664120
30
0.0000000000
10
22.4143033549
20
-37.6048455411
30
0.0000000000
10
18.2112021422
20
-35.9184265982
30
0.0000000000
10
13.5811187454
20
-33.9891109008
30
0.0000000000
10
8.4416921269
20
-31.7584971705
30
0.0000000000
10
2.7548791168
20
-29.1790403246
30
0.0000000000
10
-1.3532224277
20
-27.2253882824
30
0.0000000000
10
-3.5674001644
20
-26.1449463903
30
0.0000000000
10
-3.7120570977
20
-26.0742410170
30
0.0000000000
11
26.3683652750
21
-39.1277128948
31
0.0000000000
11
22.5375776075
21
-37.6441255740
31
0.0000000000
11
18.3655543270
21
-35.9702158117
31
0.0000000000
11
13.7661312491
21
-34.0537365404
31
0.0000000000
11
8.6571595287
21
-31.8364330973
31
0.0000000000
11
2.9606360997
21
-29.2527048078
31
0.0000000000
11
-3.2779469204
21
-26.2860716452
31
0.0000000000
11
-3.7120570977
21
-26.0742410170
31
0.0000000000
0
SPLINE
5
37B
100
AcDbEntity
8
0
100
AcDbSpline
62
7
6
CONTINUOUS
70
0
71
3
72
14
73
10
74
8
42
0.0000001000
43
0.0000001000
44
0.0000000001
12
-35.8909448800
22
17.5427654653
32
0.0000000000
13
-33.8363221584
23
21.2358667166
33
0.0000000000
40
0.0000000000
40
0.0000000000
40
0.0000000000
40
0.0000000000
40
0.1690554721
40
0.3470239178
40
0.5089772588
40
0.6524622117
40
0.7803269184
40
0.8955228628
40
1.0000000000
40
1.0000000000
40
1.0000000000
40
1.0000000000
10
-3.7120570977
20
-26.0742410170
30
0.0000000000
10
-5.7345773084
20
-25.0856741843
30
0.0000000000
10
-9.8675939051
20
-23.0182506069
30
0.0000000000
10
-15.8716738196
20
-19.8730696795
30
0.0000000000
10
-21.5188801422
20
-16.7829087921
30
0.0000000000
10
-26.5352829413
20
-13.9316164366
30
0.0000000000
10
-30.9736581222
20
-11.3245560382
30
0.0000000000
10
-34.9341238192
20
-8.9302811342
30
0.0000000000
10
-37.4201252136
20
-7.3885718439
30
0.0000000000
10
-38.5984992374
20
-6.6490176573
30
0.0000000000
11
-3.7120570977
21
-26.0742410170
31
0.0000000000
11
-9.7520915875
21
-23.0530810996
31
0.0000000000
11
-16.0499473430
21
-19.7542542579
31
0.0000000000
11
-21.7256150840
21
-16.6487146828
31
0.0000000000
11
-26.7089146504
21
-13.8163755718
31
0.0000000000
11
-31.1133133172
21
-11.2293754841
31
0.0000000000
11
-35.0515031068
21
-8.8486470431
31
0.0000000000
11
-38.5984992374
21
-6.6490176573
31
0.0000000000
0
SPLINE
5
37C
100
AcDbEntity
8
0
100
AcDbSpline
62
7
6
CONTINUOUS
70
0
71
3
72
8
73
4
74
2
42
0.0000001000
43
0.0000001000
44
0.0000000001
12
-0.0371008357
22
0.0232846939
32
0.0000000000
13
-0.0370982085
23
0.0232888655
33
0.0000000000
40
0.0000000000
40
0.0000000000
40
0.0000000000
40
0.0000000000
40
1.0000000000
40
1.0000000000
40
1.0000000000
40
1.0000000000
10
-38.5984992374
20
-6.6490176573
30
0.0000000000
10
-38.6108661826
20
-6.6412560927
30
0.0000000000
10
-38.6232326900
20
-6.6334938327
30
0.0000000000
10
-38.6355987595
20
-6.6257308776
30
0.0000000000
11
-38.5984992374
21
-6.6490176573
31
0.0000000000
11
-38.6355987595
21
-6.6257308776
31
0.0000000000
0
SPLINE
5
37D
100
AcDbEntity
8
0
100
AcDbSpline
62
7
6
CONTINUOUS
70
0
71
3
72
10
73
6
74
4
42
0.0000001000
43
0.0000001000
44
0.0000000001
12
-0.1260276382
22
-0.0567379164
32
0.0000000000
13
-0.1252527202
23
0.0584286986
33
0.0000000000
40
0.0000000000
40
0.0000000000
40
0.0000000000
40
0.0000000000
40
0.3239747992
40
0.6781818743
40
1.0000000000
40
1.0000000000
40
1.0000000000
40
1.0000000000
10
27.1130009368
20
-38.6378296147
30
0.0000000000
10
27.0993910105
20
-38.6439568331
30
0.0000000000
10
27.0684289037
20
-38.6512860252
30
0.0000000000
10
27.0221150630
20
-38.6510984439
30
0.0000000000
10
26.9913063465
20
-38.6434995189
30
0.0000000000
10
26.9778701480
20
-38.6372317141
30
0.0000000000
11
27.1130009368
21
-38.6378296147
31
0.0000000000
11
27.0697071138
21
-38.6492576928
31
0.0000000000
11
27.0207524377
21
-38.6490410538
31
0.0000000000
11
26.9778701480
21
-38.6372317141
31
0.0000000000
0
SPLINE
5
37E
100
AcDbEntity
8
0
100
AcDbSpline
62
7
6
CONTINUOUS
70
0
71
3
72
9
73
5
74
3
42
0.0000001000
43
0.0000001000
44
0.0000000001
12
0.0000003544
22
-0.1787160626
32
0.0000000000
13
-0.0403001069
23
-0.1744605624
33
0.0000000000
40
0.0000000000
40
0.0000000000
40
0.0000000000
40
0.0000000000
40
0.7456664194
40
1.0000000000
40
1.0000000000
40
1.0000000000
40
1.0000000000
10
26.9778701480
20
-38.6372317141
30
0.0000000000
10
26.9778702361
20
-38.6816525696
30
0.0000000000
10
26.9735826490
20
-38.7413590846
30
0.0000000000
10
26.9621319007
20
-38.7999771271
30
0.0000000000
10
26.9587153439
20
-38.8147675203
30
0.0000000000
11
26.9778701480
21
-38.6372317141
31
0.0000000000
11
26.9674931672
21
-38.7700896454
31
0.0000000000
11
26.9587153439
21
-38.8147675203
31
0.0000000000
0
SPLINE
5
37F
100
AcDbEntity
8
0
100
AcDbSpline
62
7
6
CONTINUOUS
70
0
71
3
72
10
73
6
74
4
42
0.0000001000
43
0.0000001000
44
0.0000000001
12
-0.0735341971
22
-0.3183320932
32
0.0000000000
13
-0.2605068364
23
-0.1991572387
33
0.0000000000
40
0.0000000000
40
0.0000000000
40
0.0000000000
40
0.0000000000
40
0.2823450977
40
0.7124669261
40
1.0000000000
40
1.0000000000
40
1.0000000000
40
1.0000000000
10
26.9587153439
20
-38.8147675203
30
0.0000000000
10
26.9517946705
20
-38.8447273556
30
0.0000000000
10
26.9291101875
20
-38.9191044728
30
0.0000000000
10
26.8757418848
20
-39.0156199566
30
0.0000000000
10
26.8193925141
20
-39.0712396574
30
0.0000000000
10
26.7944244036
20
-39.0903277551
30
0.0000000000
11
26.9587153439
21
-38.8147675203
31
0.0000000000
11
26.9314064026
21
-38.9027959889
31
0.0000000000
11
26.8616486109
21
-39.0244804830
31
0.0000000000
11
26.7944244036
21
-39.0903277551
31
0.0000000000
0
SPLINE
5
380
100
AcDbEntity
8
0
100
AcDbSpline
62
7
6
CONTINUOUS
70
0
71
3
72
11
73
7
74
5
42
0.0000001000
43
0.0000001000
44
0.0000000001
12
-0.2873357699
22
-0.2196679340
32
0.0000000000
13
-0.3514843249
23
0.0803430893
33
0.0000000000
40
0.0000000000
40
0.0000000000
40
0.0000000000
40
0.0000000000
40
0.1282909256
40
0.5101289169
40
0.8804840296
40
1.0000000000
40
1.0000000000
40
1.0000000000
40
1.0000000000
10
26.7944244036
20
-39.0903277551
30
0.0000000000
10
26.7821368796
20
-39.0997215560
30
0.0000000000
10
26.7309744809
20
-39.1339964053
30
0.0000000000
10
26.6285082311
20
-39.1687571456
30
0.0000000000
10
26.5225027849
20
-39.1669569606
30
0.0000000000
10
26.4645928002
20
-39.1560209684
30
0.0000000000
10
26.4505901368
20
-39.1528202076
30
0.0000000000
11
26.7944244036
21
-39.0903277551
31
0.0000000000
11
26.7558846395
21
-39.1160669265
31
0.0000000000
11
26.6261578642
21
-39.1611578110
31
0.0000000000
11
26.4929487981
21
-39.1607664394
31
0.0000000000
11
26.4505901368
21
-39.1528202076
31
0.0000000000
0
SPLINE
5
381
100
AcDbEntity
8
0
100
AcDbSpline
62
7
6
CONTINUOUS
70
0
71
3
72
8
73
4
74
2
42
0.0000001000
43
0.0000001000
44
0.0000000001
12
-0.0418615778
22
0.0095688150
32
0.0000000000
13
-0.0410313938
23
0.0125701302
33
0.0000000000
40
0.0000000000
40
0.0000000000
40
0.0000000000
40
0.0000000000
40
1.0000000000
40
1.0000000000
40
1.0000000000
40
1.0000000000
10
26.4505901368
20
-39.1528202076
30
0.0000000000
10
26.4366362776
20
-39.1496306026
30
0.0000000000
10
26.4228074288
20
-39.1459120448
30
0.0000000000
10
26.4091302976
20
-39.1417220014
30
0.0000000000
11
26.4505901368
21
-39.1528202076
31
0.0000000000
11
26.4091302976
21
-39.1417220014
31
0.0000000000
0
SPLINE
5
382
100
AcDbEntity
8
0
100
AcDbSpline
62
7
6
CONTINUOUS
70
0
71
3
72
8
73
4
74
2
42
0.0000001000
43
0.0000001000
44
0.0000000001
12
-0.0412522283
22
0.0126377837
32
0.0000000000
13
-0.0402506763
23
0.0153220294
33
0.0000000000
40
0.0000000000
40
0.0000000000
40
0.0000000000
40
0.0000000000
40
1.0000000000
40
1.0000000000
40
1.0000000000
40
1.0000000000
10
26.4091302976
20
-39.1417220014
30
0.0000000000
10
26.3953795548
20
-39.1375094069
30
0.0000000000
10
26.3817821671
20
-39.1328202379
30
0.0000000000
10
26.3683652750
20
-39.1277128948
30
0.0000000000
11
26.4091302976
21
-39.1417220014
31
0.0000000000
11
26.3683652750
21
-39.1277128948
31
0.0000000000
0
SPLINE
5
383
100
AcDbEntity
8
0
100
AcDbSpline
62
7
6
CONTINUOUS
70
0
71
3
72
10
73
6
74
4
42
0.0000001000
43
0.0000001000
44
0.0000000001
12
-0.0014654694
22
-0.3531566022
32
0.0000000000
13
-0.1600748454
23
-0.3163030973
33
0.0000000000
40
0.0000000000
40
0.0000000000
40
0.0000000000
40
0.0000000000
40
0.4198237890
40
0.8530108898
40
1.0000000000
40
1.0000000000
40
1.0000000000
40
1.0000000000
10
27.1130004023
20
-38.6378293179
30
0.0000000000
10
27.1127953227
20
-38.6872504989
30
0.0000000000
10
27.1052165171
20
-38.7878587842
30
0.0000000000
10
27.0750921700
20
-38.9025160508
30
0.0000000000
10
27.0469804567
20
-38.9651356472
30
0.0000000000
10
27.0391373703
20
-38.9806333508
30
0.0000000000
11
27.1130004023
21
-38.6378293179
31
0.0000000000
11
27.1009466533
21
-38.7856033474
31
0.0000000000
11
27.0605422159
21
-38.9331555328
31
0.0000000000
11
27.0391373703
21
-38.9806333508
31
0.0000000000
0
SPLINE
5
384
100
AcDbEntity
8
0
100
AcDbSpline
62
7
6
CONTINUOUS
70
0
71
3
72
10
73
6
74
4
42
0.0000001000
43
0.0000001000
44
0.0000000001
12
-0.1429317535
22
-0.2824288615
32
0.0000000000
13
-0.2945024104
23
-0.1179023599
33
0.0000000000
40
0.0000000000
40
0.0000000000
40
0.0000000000
40
0.0000000000
40
0.3297357841
40
0.8217438621
40
1.0000000000
40
1.0000000000
40
1.0000000000
40
1.0000000000
10
27.0391373703
20
-38.9806333508
30
0.0000000000
10
27.0234274657
20
-39.0116756515
30
0.0000000000
10
26.9770681795
20
-39.0853662287
30
0.0000000000
10
26.8964641645
20
-39.1568224303
30
0.0000000000
10
26.8325380533
20
-39.1877262470
30
0.0000000000
10
26.8150390992
20
-39.1947318535
30
0.0000000000
11
27.0391373703
21
-38.9806333508
31
0.0000000000
11
26.9830225175
21
-39.0684036651
31
0.0000000000
11
26.8658400067
21
-39.1700868302
31
0.0000000000
11
26.8150390992
21
-39.1947318535
31
0.0000000000
0
SPLINE
5
385
100
AcDbEntity
8
0
100
AcDbSpline
62
7
6
CONTINUOUS
70
0
71
3
72
10
73
6
74
4
42
0.0000001000
43
0.0000001000
44
0.0000000001
12
-0.0029890914
22
0.0352818404
32
0.0000000000
13
-0.0491973729
23
-0.0245103421
33
0.0000000000
40
0.0000000000
40
0.0000000000
40
0.0000000000
40
0.0000000000
40
0.2154070884
40
0.5426468400
40
1.0000000000
40
1.0000000000
40
1.0000000000
40
1.0000000000
10
9.4655463007
20
-25.5767223355
30
0.0000000000
10
9.4653316769
20
-25.5741890160
30
0.0000000000
10
9.4486797718
20
-25.5773521922
30
0.0000000000
10
9.4360326664
20
-25.5840067630
30
0.0000000000
10
9.4216783518
20
-25.5903358268
30
0.0000000000
10
9.4141781605
20
-25.5940724543
30
0.0000000000
11
9.4655463007
21
-25.5767223355
31
0.0000000000
11
9.4536540131
21
-25.5767708799
31
0.0000000000
11
9.4369073339
21
-25.5833336477
31
0.0000000000
11
9.4141781605
21
-25.5940724543
31
0.0000000000
0
SPLINE
5
386
100
AcDbEntity
8
0
100
AcDbSpline
62
7
6
CONTINUOUS
70
0
71
3
72
10
73
6
74
4
42
0.0000001000
43
0.0000001000
44
0.0000000001
12
-0.0029890914
22
0.0352818404
32
0.0000000000
13
-0.0491973729
23
-0.0245103421
33
0.0000000000
40
0.0000000000
40
0.0000000000
40
0.0000000000
40
0.0000000000
40
0.2154070884
40
0.5426468400
40
1.0000000000
40
1.0000000000
40
1.0000000000
40
1.0000000000
10
-6.4443562760
20
-17.6217710471
30
0.0000000000
10
-6.4445708998
20
-17.6192377276
30
0.0000000000
10
-6.4612228049
20
-17.6224009038
30
0.0000000000
10
-6.4738699103
20
-17.6290554746
30
0.0000000000
10
-6.4882242249
20
-17.6353845385
30
0.0000000000
10
-6.4957244162
20
-17.6391211660
30
0.0000000000
11
-6.4443562760
21
-17.6217710471
31
0.0000000000
11
-6.4562485636
21
-17.6218195916
31
0.0000000000
11
-6.4729952427
21
-17.6283823594
31
0.0000000000
11
-6.4957244162
21
-17.6391211660
31
0.0000000000
0
SPLINE
5
387
100
AcDbEntity
8
0
100
AcDbSpline
62
7
6
CONTINUOUS
70
0
71
3
72
11
73
7
74
5
42
0.0000001000
43
0.0000001000
44
0.0000000001
12
0.0486381362
22
0.0242064969
32
0.0000000000
13
0.0142694983
23
-0.0239752195
33
0.0000000000
40
0.0000000000
40
0.0000000000
40
0.0000000000
40
0.0000000000
40
0.4603947757
40
0.7978252022
40
0.9795438922
40
1.0000000000
40
1.0000000000
40
1.0000000000
40
1.0000000000
10
25.3240807372
20
-33.0368976078
30
0.0000000000
10
25.3315449851
20
-33.0331827595
30
0.0000000000
10
25.3454995885
20
-33.0268634153
30
0.0000000000
10
25.3594937589
20
-33.0211073397
30
0.0000000000
10
25.3727358902
20
-33.0174740294
30
0.0000000000
10
25.3740393696
20
-33.0188399001
30
0.0000000000
10
25.3741366691
20
-33.0190033800
30
0.0000000000
11
25.3240807372
21
-33.0368976078
31
0.0000000000
11
25.3467990033
21
-33.0264326072
31
0.0000000000
11
25.3639672170
21
-33.0200043787
31
0.0000000000
11
25.3737381484
21
-33.0185914209
31
0.0000000000
11
25.3741366691
21
-33.0190033800
31
0.0000000000
0
SPLINE
5
388
100
AcDbEntity
8
0
100
AcDbSpline
62
7
6
CONTINUOUS
70
0
71
3
72
10
73
6
74
4
42
0.0000001000
43
0.0000001000
44
0.0000000001
12
-0.0029900526
22
0.0352809032
32
0.0000000000
13
-0.0491973453
23
-0.0245103284
33
0.0000000000
40
0.0000000000
40
0.0000000000
40
0.0000000000
40
0.0000000000
40
0.2154068566
40
0.5426168668
40
1.0000000000
40
1.0000000000
40
1.0000000000
40
1.0000000000
10
25.3754488749
20
-33.5316736253
30
0.0000000000
10
25.3752341823
20
-33.5291403758
30
0.0000000000
10
25.3585831814
20
-33.5323032713
30
0.0000000000
10
25.3459357669
20
-33.5389578259
30
0.0000000000
10
25.3315814158
20
-33.5452868724
30
0.0000000000
10
25.3240807372
20
-33.5490237427
30
0.0000000000
11
25.3754488749
21
-33.5316736253
31
0.0000000000
11
25.3635565783
21
-33.5317221720
31
0.0000000000
11
25.3468114068
21
-33.5382842792
31
0.0000000000
11
25.3240807372
21
-33.5490237427
31
0.0000000000
0
SPLINE
5
389
100
AcDbEntity
8
0
100
AcDbSpline
62
7
6
CONTINUOUS
70
0
71
3
72
10
73
6
74
4
42
0.0000001000
43
0.0000001000
44
0.0000000001
12
-0.0029900526
22
0.0352809032
32
0.0000000000
13
-0.0491973453
23
-0.0245103284
33
0.0000000000
40
0.0000000000
40
0.0000000000
40
0.0000000000
40
0.0000000000
40
0.2154068566
40
0.5426168668
40
1.0000000000
40
1.0000000000
40
1.0000000000
40
1.0000000000
10
-22.3542588552
20
-9.6668197602
30
0.0000000000
10
-22.3544735478
20
-9.6642865107
30
0.0000000000
10
-22.3711245487
20
-9.6674494063
30
0.0000000000
10
-22.3837719632
20
-9.6741039609
30
0.0000000000
10
-22.3981263142
20
-9.6804330073
30
0.0000000000
10
-22.4056269929
20
-9.6841698776
30
0.0000000000
11
-22.3542588552
21
-9.6668197602
31
0.0000000000
11
-22.3661511518
21
-9.6668683069
31
0.0000000000
11
-22.3828963233
21
-9.6734304141
31
0.0000000000
11
-22.4056269929
21
-9.6841698776
31
0.0000000000
0
SPLINE
5
38A
100
AcDbEntity
8
0
100
AcDbSpline
62
7
6
CONTINUOUS
70
0
71
3
72
10
73
6
74
4
42
0.0000001000
43
0.0000001000
44
0.0000000001
12
0.0646086345
22
0.0367341667
32
0.0000000000
13
0.0409785199
23
0.0620035125
33
0.0000000000
40
0.0000000000
40
0.0000000000
40
0.0000000000
40
0.0000000000
40
0.4012288228
40
0.7365219592
40
1.0000000000
40
1.0000000000
40
1.0000000000
40
1.0000000000
10
25.7860742105
20
-37.7636228876
30
0.0000000000
10
25.7947151593
20
-37.7587099521
30
0.0000000000
10
25.8102536819
20
-37.7490702867
30
0.0000000000
10
25.8297794005
20
-37.7337641223
30
0.0000000000
10
25.8399350890
20
-37.7227361725
30
0.0000000000
10
25.8435340690
20
-37.7172906512
30
0.0000000000
11
25.7860742105
21
-37.7636228876
31
0.0000000000
11
25.8113012612
21
-37.7477225010
31
0.0000000000
11
25.8307000847
21
-37.7320807184
31
0.0000000000
11
25.8435340690
21
-37.7172906512
31
0.0000000000
0
SPLINE
5
38B
100
AcDbEntity
8
0
100
AcDbSpline
62
7
6
CONTINUOUS
70
0
71
3
72
9
73
5
74
3
42
0.0000001000
43
0.0000001000
44
0.0000000001
12
0.0003140317
22
-0.0461734328
32
0.0000000000
13
0.0392387994
23
-0.0210289189
33
0.0000000000
40
0.0000000000
40
0.0000000000
40
0.0000000000
40
0.0000000000
40
0.2834603285
40
1.0000000000
40
1.0000000000
40
1.0000000000
40
1.0000000000
10
-39.2308984121
20
36.7945857492
30
0.0000000000
10
-39.2308687403
20
36.7902229704
30
0.0000000000
10
-39.2276921218
20
36.7748131413
30
0.0000000000
10
-39.2139742419
20
36.7655633107
30
0.0000000000
10
-39.2046021897
20
36.7605406258
30
0.0000000000
11
-39.2308984121
21
36.7945857492
31
0.0000000000
11
-39.2282208618
21
36.7819817743
31
0.0000000000
11
-39.2046021897
21
36.7605406258
31
0.0000000000
0
SPLINE
5
38C
100
AcDbEntity
8
0
100
AcDbSpline
62
7
6
CONTINUOUS
70
0
71
3
72
11
73
7
74
5
42
0.0000001000
43
0.0000001000
44
0.0000000001
12
0.3652061340
22
0.2247435683
32
0.0000000000
13
0.3914087292
23
-0.1699645511
33
0.0000000000
40
0.0000000000
40
0.0000000000
40
0.0000000000
40
0.0000000000
40
0.0194247729
40
0.3541639190
40
0.6803149045
40
1.0000000000
40
1.0000000000
40
1.0000000000
40
1.0000000000
10
-38.9832518341
20
37.3473502179
30
0.0000000000
10
-38.9808871520
20
37.3488054155
30
0.0000000000
10
-38.9374507346
20
37.3748159893
30
0.0000000000
10
-38.8428991294
20
37.4060265468
30
0.0000000000
10
-38.7013301301
20
37.3987379170
30
0.0000000000
10
-38.6131958510
20
37.3700380916
30
0.0000000000
10
-38.5714866720
20
37.3519263804
30
0.0000000000
11
-38.9832518341
21
37.3473502179
31
0.0000000000
11
-38.9761050459
21
37.3516292432
31
0.0000000000
11
-38.8407914627
21
37.3973821844
31
0.0000000000
11
-38.7016991428
21
37.3925947920
31
0.0000000000
11
-38.5714866720
21
37.3519263804
31
0.0000000000
0
SPLINE
5
38D
100
AcDbEntity
8
0
100
AcDbSpline
62
7
6
CONTINUOUS
70
0
71
3
72
8
73
4
74
2
42
0.0000001000
43
0.0000001000
44
0.0000000001
12
-0.0093888688
22
0.0376190654
32
0.0000000000
13
-0.0161700221
23
0.0353129946
33
0.0000000000
40
0.0000000000
40
0.0000000000
40
0.0000000000
40
0.0000000000
40
1.0000000000
40
1.0000000000
40
1.0000000000
40
1.0000000000
10
25.8435324763
20
3.8346852352
30
0.0000000000
10
25.8404028533
20
3.8472249237
30
0.0000000000
10
25.8360885339
20
3.8595015937
30
0.0000000000
10
25.8306985265
20
3.8712725919
30
0.0000000000
11
25.8435324763
21
3.8346852352
31
0.0000000000
11
25.8306985265
21
3.8712725919
31
0.0000000000
0
SPLINE
5
38E
100
AcDbEntity
8
0
100
AcDbSpline
62
7
6
CONTINUOUS
70
0
71
3
72
9
73
5
74
3
42
0.0000001000
43
0.0000001000
44
0.0000000001
12
-0.0324964795
22
0.0709676212
32
0.0000000000
13
-0.0556718161
23
0.0545192184
33
0.0000000000
40
0.0000000000
40
0.0000000000
40
0.0000000000
40
0.0000000000
40
0.4999470126
40
1.0000000000
40
1.0000000000
40
1.0000000000
40
1.0000000000
10
25.8306985265
20
3.8712725919
30
0.0000000000
10
25.8252830206
20
3.8830992753
30
0.0000000000
10
25.8122788515
20
3.9057341059
30
0.0000000000
10
25.7953532008
20
3.9256645561
30
0.0000000000
10
25.7860735815
20
3.9347520554
30
0.0000000000
11
25.8306985265
21
3.8712725919
31
0.0000000000
11
25.8113000670
21
3.9050557554
31
0.0000000000
11
25.7860735815
21
3.9347520554
31
0.0000000000
0
SPLINE
5
38F
100
AcDbEntity
8
0
100
AcDbSpline
62
7
6
CONTINUOUS
70
0
71
3
72
8
73
4
74
2
42
0.0000001000
43
0.0000001000
44
0.0000000001
12
-0.0500988873
22
0.0242795127
32
0.0000000000
13
-0.0562181606
23
0.0059129292
33
0.0000000000
40
0.0000000000
40
0.0000000000
40
0.0000000000
40
0.0000000000
40
1.0000000000
40
1.0000000000
40
1.0000000000
40
1.0000000000
10
-37.4830450345
20
34.9138837725
30
0.0000000000
10
-37.4997446636
20
34.9219769434
30
0.0000000000
10
-37.5180972394
20
34.9266305834
30
0.0000000000
10
-37.5368366262
20
34.9286015598
30
0.0000000000
11
-37.4830450345
21
34.9138837725
31
0.0000000000
11
-37.5368366262
21
34.9286015598
31
0.0000000000
0
SPLINE
5
390
100
AcDbEntity
8
0
100
AcDbSpline
62
7
6
CONTINUOUS
70
0
71
3
72
10
73
6
74
4
42
0.0000001000
43
0.0000001000
44
0.0000000001
12
-0.2298050701
22
0.0241705009
32
0.0000000000
13
-0.1613730234
23
-0.1604629432
33
0.0000000000
40
0.0000000000
40
0.0000000000
40
0.0000000000
40
0.0000000000
40
0.1320502691
40
0.5629828573
40
1.0000000000
40
1.0000000000
40
1.0000000000
40
1.0000000000
10
-37.5368366262
20
34.9286015598
30
0.0000000000
10
-37.5469519000
20
34.9296654668
30
0.0000000000
10
-37.5905578448
20
34.9308688531
30
0.0000000000
10
-37.6652225512
20
34.9116132642
30
0.0000000000
10
-37.7215348396
20
34.8742880056
30
0.0000000000
10
-37.7450424322
20
34.8509129867
30
0.0000000000
11
-37.5368366262
21
34.9286015598
31
0.0000000000
11
-37.5673214280
21
34.9295673777
31
0.0000000000
11
-37.6626746834
21
34.9066493279
31
0.0000000000
11
-37.7450424322
21
34.8509129867
31
0.0000000000
0
SPLINE
5
391
100
AcDbEntity
8
0
100
AcDbSpline
62
7
6
CONTINUOUS
70
0
71
3
72
10
73
6
74
4
42
0.0000001000
43
0.0000001000
44
0.0000000001
12
-0.2548899785
22
0.1235278068
32
0.0000000000
13
-0.2008503613
23
-0.1997176821
33
0.0000000000
40
0.0000000000
40
0.0000000000
40
0.0000000000
40
0.0000000000
40
0.3026420318
40
0.6488744798
40
1.0000000000
40
1.0000000000
40
1.0000000000
40
1.0000000000
10
-37.6490195863
20
35.2533811902
30
0.0000000000
10
-37.6747330599
20
35.2658427590
30
0.0000000000
10
-37.7382659111
20
35.2750768595
30
0.0000000000
10
-37.8311963024
20
35.2511111332
30
0.0000000000
10
-37.8875090881
20
35.2137857294
30
0.0000000000
10
-37.9110169840
20
35.1904104044
30
0.0000000000
11
-37.6490195863
21
35.2533811902
31
0.0000000000
11
-37.7332946328
21
35.2690648556
31
0.0000000000
11
-37.8286480378
21
35.2461472826
31
0.0000000000
11
-37.9110169840
21
35.1904104044
31
0.0000000000
0
SPLINE
5
392
100
AcDbEntity
8
0
100
AcDbSpline
62
7
6
CONTINUOUS
70
0
71
3
72
10
73
6
74
4
42
0.0000001000
43
0.0000001000
44
0.0000000001
12
-0.0580633138
22
-0.0387232237
32
0.0000000000
13
-0.0517149277
23
-0.0468657948
33
0.0000000000
40
0.0000000000
40
0.0000000000
40
0.0000000000
40
0.0000000000
40
0.2457060772
40
0.5831103611
40
1.0000000000
40
1.0000000000
40
1.0000000000
40
1.0000000000
10
-38.0655451555
20
35.8605624442
30
0.0000000000
10
-38.0703006585
20
35.8573909337
30
0.0000000000
10
-38.0811116247
20
35.8491675698
30
0.0000000000
10
-38.0989724810
20
35.8342628396
30
0.0000000000
10
-38.1120935899
20
35.8226052821
30
0.0000000000
10
-38.1192800624
20
35.8160926607
30
0.0000000000
11
-38.0655451555
21
35.8605624442
31
0.0000000000
11
-38.0793411923
21
35.8503777028
31
0.0000000000
11
-38.0974825285
21
35.8353645091
31
0.0000000000
11
-38.1192800624
21
35.8160926607
31
0.0000000000
0
SPLINE
5
393
100
AcDbEntity
8
0
100
AcDbSpline
62
7
6
CONTINUOUS
70
0
71
3
72
9
73
5
74
3
42
0.0000001000
43
0.0000001000
44
0.0000000001
12
0.0002206121
22
-0.0462392603
32
0.0000000000
13
0.0392953434
23
-0.0210592157
33
0.0000000000
40
0.0000000000
40
0.0000000000
40
0.0000000000
40
0.0000000000
40
0.2844897124
40
1.0000000000
40
1.0000000000
40
1.0000000000
40
1.0000000000
10
-39.2308987972
20
-5.5118838915
30
0.0000000000
10
-39.2308778766
20
-5.5162687561
30
0.0000000000
10
-39.2277119217
20
-5.5317096753
30
0.0000000000
10
-39.2139742639
20
-5.5409728501
30
0.0000000000
10
-39.2046021897
20
-5.5459955453
30
0.0000000000
11
-39.2308987972
21
-5.5118838915
31
0.0000000000
11
-39.2282208990
21
-5.5245543294
31
0.0000000000
11
-39.2046021897
21
-5.5459955453
31
0.0000000000
0
SPLINE
5
394
100
AcDbEntity
8
0
100
AcDbSpline
62
7
6
CONTINUOUS
70
0
71
3
72
12
73
8
74
6
42
0.0000001000
43
0.0000001000
44
0.0000000001
12
1.0474762736
22
-0.7855740582
32
0.0000000000
13
-0.0000000000
23
-1.3036938977
33
0.0000000000
40
0.0000000000
40
0.0000000000
40
0.0000000000
40
0.0000000000
40
0.0758813101
40
0.3054587880
40
0.5417814796
40
0.7805472627
40
1.0000000000
40
1.0000000000
40
1.0000000000
40
1.0000000000
10
48.4317576395
20
13.1486030398
30
0.0000000000
10
48.4582522635
20
13.1287329102
30
0.0000000000
10
48.5612391743
20
13.0436472068
30
0.0000000000
10
48.7171036329
20
12.8651639154
30
0.0000000000
10
48.8711744360
20
12.5983538692
30
0.0000000000
10
48.9713153388
20
12.3117951108
30
0.0000000000
10
48.9977327979
20
12.1123477383
30
0.0000000000
10
48.9977327979
20
12.0169813402
30
0.0000000000
11
48.4317576395
21
13.1486030398
31
0.0000000000
11
48.5084873191
21
13.0855001163
31
0.0000000000
11
48.7073522621
21
12.8618207020
31
0.0000000000
11
48.8618871097
21
12.5952875160
31
0.0000000000
11
48.9633343137
21
12.3010050951
31
0.0000000000
11
48.9977327979
21
12.0169813402
31
0.0000000000
0
SPLINE
5
395
100
AcDbEntity
8
0
100
AcDbSpline
62
7
6
CONTINUOUS
70
0
71
3
72
10
73
6
74
4
42
0.0000001000
43
0.0000001000
44
0.0000000001
12
0.0133021664
22
-0.2902074439
32
0.0000000000
13
0.2536155305
23
-0.1416914634
33
0.0000000000
40
0.0000000000
40
0.0000000000
40
0.0000000000
40
0.0000000000
40
0.3338743875
40
0.6885039820
40
1.0000000000
40
1.0000000000
40
1.0000000000
40
1.0000000000
10
-37.3001954618
20
-4.0347971083
30
0.0000000000
10
-37.2987150443
20
-4.0670947191
30
0.0000000000
10
-37.2818190584
20
-4.1331449243
30
0.0000000000
10
-37.2333167147
20
-4.2177660901
30
0.0000000000
10
-37.1853013279
20
-4.2636664802
30
0.0000000000
10
-37.1589679186
20
-4.2783785891
30
0.0000000000
11
-37.3001954618
21
-4.0347971083
31
0.0000000000
11
-37.2784487985
21
-4.1293223872
31
0.0000000000
11
-37.2267729590
21
-4.2184492321
31
0.0000000000
11
-37.1589679186
21
-4.2783785891
31
0.0000000000
0
SPLINE
5
396
100
AcDbEntity
8
0
100
AcDbSpline
62
7
6
CONTINUOUS
70
0
71
3
72
10
73
6
74
4
42
0.0000001000
43
0.0000001000
44
0.0000000001
12
0.2749364005
22
-0.0258320204
32
0.0000000000
13
0.2435649903
23
-0.1301284485
33
0.0000000000
40
0.0000000000
40
0.0000000000
40
0.0000000000
40
0.0000000000
40
0.3035295025
40
0.6659119443
40
1.0000000000
40
1.0000000000
40
1.0000000000
40
1.0000000000
10
-37.7450424322
20
-4.5842563906
30
0.0000000000
10
-37.7172253292
20
-4.5868699840
30
0.0000000000
10
-37.6569599843
20
-4.5997052059
30
0.0000000000
10
-37.5692674284
20
-4.6277592746
30
0.0000000000
10
-37.5101690858
20
-4.6531934116
30
0.0000000000
10
-37.4830450345
20
-4.6676848651
30
0.0000000000
11
-37.7450424322
21
-4.5842563906
31
0.0000000000
11
-37.6626746834
21
-4.5997854844
31
0.0000000000
11
-37.5673214278
21
-4.6301490557
31
0.0000000000
11
-37.4830450345
21
-4.6676848651
31
0.0000000000
0
SPLINE
5
397
100
AcDbEntity
8
0
100
AcDbSpline
62
7
6
CONTINUOUS
70
0
71
3
72
10
73
6
74
4
42
0.0000001000
43
0.0000001000
44
0.0000000001
12
0.2749364000
22
-0.0258320243
32
0.0000000000
13
0.2435649914
23
-0.1301284461
33
0.0000000000
40
0.0000000000
40
0.0000000000
40
0.0000000000
40
0.0000000000
40
0.3035298335
40
0.6659123389
40
1.0000000000
40
1.0000000000
40
1.0000000000
40
1.0000000000
10
-37.9110169840
20
-5.0731979660
30
0.0000000000
10
-37.8831998507
20
-5.0758115627
30
0.0000000000
10
-37.8229344711
20
-5.0886467986
30
0.0000000000
10
-37.7352419178
20
-5.1167008750
30
0.0000000000
10
-37.6761436057
20
-5.1421350044
30
0.0000000000
10
-37.6490195863
20
-5.1566264405
30
0.0000000000
11
-37.9110169840
21
-5.0731979660
31
0.0000000000
11
-37.8286491467
21
-5.0887270833
31
0.0000000000
11
-37.7332958777
21
-5.1190906702
31
0.0000000000
11
-37.6490195863
21
-5.1566264405
31
0.0000000000
0
SPLINE
5
398
100
AcDbEntity
8
0
100
AcDbSpline
62
7
6
CONTINUOUS
70
0
71
3
72
10
73
6
74
4
42
0.0000001000
43
0.0000001000
44
0.0000000001
12
0.0703041719
22
-0.0919037255
32
0.0000000000
13
0.0355077039
23
-0.1101279906
33
0.0000000000
40
0.0000000000
40
0.0000000000
40
0.0000000000
40
0.0000000000
40
0.3353699874
40
0.6715625991
40
1.0000000000
40
1.0000000000
40
1.0000000000
40
1.0000000000
10
-38.1192807021
20
-5.7358844438
30
0.0000000000
10
-38.1114213991
20
-5.7461583609
30
0.0000000000
10
-38.0968535918
20
-5.7676545089
30
0.0000000000
10
-38.0788146237
20
-5.8018245425
30
0.0000000000
10
-38.0694331395
20
-5.8257565140
30
0.0000000000
10
-38.0655457868
20
-5.8378132310
30
0.0000000000
11
-38.1192807021
21
-5.7358844438
31
0.0000000000
11
-38.0974833124
21
-5.7679900813
31
0.0000000000
11
-38.0793419696
21
-5.8024020921
31
0.0000000000
11
-38.0655457868
21
-5.8378132310
31
0.0000000000
0
SPLINE
5
399
100
AcDbEntity
8
0
100
AcDbSpline
62
7
6
CONTINUOUS
70
0
71
3
72
11
73
7
74
5
42
0.0000001000
43
0.0000001000
44
0.0000000001
12
-0.4647684789
22
-0.2284434449
32
0.0000000000
13
-0.1699741477
23
-0.4891880370
33
0.0000000000
40
0.0000000000
40
0.0000000000
40
0.0000000000
40
0.0000000000
40
0.2111225188
40
0.4662634904
40
0.7417769585
40
1.0000000000
40
1.0000000000
40
1.0000000000
40
1.0000000000
10
-37.1589679186
20
-4.2783785891
30
0.0000000000
10
-37.1916756160
20
-4.2944551076
30
0.0000000000
10
-37.2598164562
20
-4.3385654528
30
0.0000000000
10
-37.3518571119
20
-4.4287240851
30
0.0000000000
10
-37.4299865535
20
-4.5412111001
30
0.0000000000
10
-37.4684146207
20
-4.6255783241
30
0.0000000000
10
-37.4830450345
20
-4.6676848651
30
0.0000000000
11
-37.1589679186
21
-4.2783785891
31
0.0000000000
11
-37.2512745591
21
-4.3369765012
31
0.0000000000
11
-37.3462572231
21
-4.4288298376
31
0.0000000000
11
-37.4278532852
21
-4.5458778087
31
0.0000000000
11
-37.4830450345
21
-4.6676848651
31
0.0000000000
0
SPLINE
5
39A
100
AcDbEntity
8
0
100
AcDbSpline
62
7
6
CONTINUOUS
70
0
71
3
72
12
73
8
74
6
42
0.0000001000
43
0.0000001000
44
0.0000000001
12
65.5150521528
22
-29.0565604814
32
0.0000000000
13
62.7230418777
23
-34.6745696902
33
0.0000000000
40
0.0000000000
40
0.0000000000
40
0.0000000000
40
0.0000000000
40
0.1912061881
40
0.3867463593
40
0.5866819835
40
0.7910800812
40
1.0000000000
40
1.0000000000
40
1.0000000000
40
1.0000000000
10
-38.1909303389
20
35.9772208584
30
0.0000000000
10
-34.0153025433
20
34.1252894686
30
0.0000000000
10
-25.6062216561
20
30.2958872349
30
0.0000000000
10
-12.9608488367
20
24.2497783221
30
0.0000000000
10
-0.1434986550
20
17.8380070261
30
0.0000000000
10
12.8458344958
20
11.0605674067
30
0.0000000000
10
21.5245393389
20
6.3502074651
30
0.0000000000
10
25.8925702770
20
3.9354713706
30
0.0000000000
11
-38.1909303389
21
35.9772208584
31
0.0000000000
11
-25.7183312278
21
30.3006085188
31
0.0000000000
11
-13.0736983177
21
24.2580527607
31
0.0000000000
11
-0.2572091228
21
17.8498088622
31
0.0000000000
11
12.7315227302
21
11.0756835250
31
0.0000000000
11
25.8925702770
21
3.9354713706
31
0.0000000000
0
SPLINE
5
39B
100
AcDbEntity
8
0
100
AcDbSpline
62
7
6
CONTINUOUS
70
0
71
3
72
9
73
5
74
3
42
0.0000001000
43
0.0000001000
44
0.0000000001
12
-0.1351898420
22
0.1053673533
32
0.0000000000
13
-0.1153480116
23
0.1267809478
33
0.0000000000
40
0.0000000000
40
0.0000000000
40
0.0000000000
40
0.0000000000
40
0.4796076752
40
1.0000000000
40
1.0000000000
40
1.0000000000
40
1.0000000000
10
-38.0655452884
20
35.8605623018
30
0.0000000000
10
-38.0871579837
20
35.8774072989
30
0.0000000000
10
-38.1306928705
20
35.9145262407
30
0.0000000000
10
-38.1709054041
20
35.9552233497
30
0.0000000000
10
-38.1909141440
20
35.9772152938
30
0.0000000000
11
-38.0655452884
21
35.8605623018
31
0.0000000000
11
-38.1281530960
21
35.9138354203
31
0.0000000000
11
-38.1909141440
21
35.9772152938
31
0.0000000000
0
SPLINE
5
39C
100
AcDbEntity
8
0
100
AcDbSpline
62
7
6
CONTINUOUS
70
0
71
3
72
10
73
6
74
4
42
0.0000001000
43
0.0000001000
44
0.0000000001
12
0.1062681428
22
-0.0079210789
32
0.0000000000
13
0.1063571799
23
0.0066190601
33
0.0000000000
40
0.0000000000
40
0.0000000000
40
0.0000000000
40
0.0000000000
40
0.3001366678
40
0.6341209119
40
1.0000000000
40
1.0000000000
40
1.0000000000
40
1.0000000000
10
25.7860740783
20
3.9347525876
30
0.0000000000
10
25.7967057338
20
3.9339601189
30
0.0000000000
10
25.8192295966
20
3.9331036607
30
0.0000000000
10
25.8547575513
20
3.9334475246
30
0.0000000000
10
25.8795933842
20
3.9346680436
30
0.0000000000
10
25.8925646735
20
3.9354753022
30
0.0000000000
11
25.7860740783
21
3.9347525876
31
0.0000000000
11
25.8180284918
21
3.9333900916
31
0.0000000000
11
25.8536178158
21
3.9336597036
31
0.0000000000
11
25.8925646735
21
3.9354753022
31
0.0000000000
0
SPLINE
5
39D
100
AcDbEntity
8
0
100
AcDbSpline
62
7
6
CONTINUOUS
70
0
71
3
72
16
73
12
74
10
42
0.0000001000
43
0.0000001000
44
0.0000000001
12
-0.1262121103
22
-0.6867674797
32
0.0000000000
13
-0.4134295652
23
-0.5627211233
33
0.0000000000
40
0.0000000000
40
0.0000000000
40
0.0000000000
40
0.0000000000
40
0.1413815262
40
0.2677357146
40
0.3840643115
40
0.4944232570
40
0.6013842516
40
0.7069546906
40
0.8112945920
40
0.9103264960
40
1.0000000000
40
1.0000000000
40
1.0000000000
40
1.0000000000
10
-37.9110169840
20
-5.0731979660
30
0.0000000000
10
-37.9169650042
20
-5.1055633775
30
0.0000000000
10
-37.9289065304
20
-5.1667322401
30
0.0000000000
10
-37.9479832433
20
-5.2540732091
30
0.0000000000
10
-37.9672924202
20
-5.3339523588
30
0.0000000000
10
-37.9873094820
20
-5.4089945294
30
0.0000000000
10
-38.0085963695
20
-5.4810842057
30
0.0000000000
10
-38.0317627512
20
-5.5511152411
30
0.0000000000
10
-38.0571635130
20
-5.6184407204
30
0.0000000000
10
-38.0852105988
20
-5.6806131936
30
0.0000000000
10
-38.1069219432
20
-5.7190629720
30
0.0000000000
10
-38.1192798357
20
-5.7358833636
30
0.0000000000
11
-37.9110169840
21
-5.0731979660
31
0.0000000000
11
-37.9299552001
21
-5.1700867332
31
0.0000000000
11
-37.9488116775
21
-5.2562773291
31
0.0000000000
11
-37.9679353536
21
-5.3352227022
31
0.0000000000
11
-37.9878457602
21
-5.4096662943
31
0.0000000000
11
-38.0090747444
21
-5.4812732340
31
0.0000000000
11
-38.0323363408
21
-5.5512233890
31
0.0000000000
11
-38.0583220996
21
-5.6192889711
31
0.0000000000
11
-38.0871116792
21
-5.6821618832
31
0.0000000000
11
-38.1192798357
21
-5.7358833636
31
0.0000000000
0
SPLINE
5
39E
100
AcDbEntity
8
0
100
AcDbSpline
62
7
6
CONTINUOUS
70
0
71
3
72
9
73
5
74
3
42
0.0000001000
43
0.0000001000
44
0.0000000001
12
-0.0479311475
22
0.0313776581
32
0.0000000000
13
0.0033083507
23
0.0557933531
33
0.0000000000
40
0.0000000000
40
0.0000000000
40
0.0000000000
40
0.0000000000
40
0.3401779005
40
1.0000000000
40
1.0000000000
40
1.0000000000
40
1.0000000000
10
-38.6155109928
20
-6.6760192486
30
0.0000000000
10
-38.6209460319
20
-6.6724612533
30
0.0000000000
10
-38.6346305466
20
-6.6580183605
30
0.0000000000
10
-38.6363263966
20
-6.6380021049
30
0.0000000000
10
-38.6355987556
20
-6.6257308758
30
0.0000000000
11
-38.6155109928
21
-6.6760192486
31
0.0000000000
11
-38.6288690305
21
-6.6619899923
31
0.0000000000
11
-38.6355987556
21
-6.6257308758
31
0.0000000000
0
SPLINE
5
39F
100
AcDbEntity
8
0
100
AcDbSpline
62
7
6
CONTINUOUS
70
0
71
3
72
13
73
9
74
7
42
0.0000001000
43
0.0000001000
44
0.0000000001
12
-0.1422184796
22
0.6457585978
32
0.0000000000
13
-0.3252231647
23
0.5757257644
33
0.0000000000
40
0.0000000000
40
0.0000000000
40
0.0000000000
40
0.0000000000
40
0.2049049013
40
0.3960988012
40
0.5712174646
40
0.7292631294
40
0.8716348698
40
1.0000000000
40
1.0000000000
40
1.0000000000
40
1.0000000000
10
-37.9110169840
20
35.1904104044
30
0.0000000000
10
-37.9207307385
20
35.2345167716
30
0.0000000000
10
-37.9409829321
20
35.3194605849
30
0.0000000000
10
-37.9742634415
20
35.4409097440
30
0.0000000000
10
-38.0086627629
20
35.5512684981
30
0.0000000000
10
-38.0435749746
20
35.6501379025
30
0.0000000000
10
-38.0793727479
20
35.7376277280
30
0.0000000000
10
-38.1053640637
20
35.7914585734
30
0.0000000000
10
-38.1192798350
20
35.8160929443
30
0.0000000000
11
-37.9110169840
21
35.1904104044
31
0.0000000000
11
-37.9424400823
21
35.3222062572
31
0.0000000000
11
-37.9759325272
21
35.4441130057
31
0.0000000000
11
-38.0105020317
21
35.5546267670
31
0.0000000000
11
-38.0455630172
21
35.6530749958
31
0.0000000000
11
-38.0814791081
21
35.7400954883
31
0.0000000000
11
-38.1192798350
21
35.8160929443
31
0.0000000000
0
SPLINE
5
3A0
100
AcDbEntity
8
0
100
AcDbSpline
62
7
6
CONTINUOUS
70
0
71
3
72
9
73
5
74
3
42
0.0000001000
43
0.0000001000
44
0.0000000001
12
-0.0866951523
22
0.1537587017
32
0.0000000000
13
-0.0575151055
23
0.1668825948
33
0.0000000000
40
0.0000000000
40
0.0000000000
40
0.0000000000
40
0.0000000000
40
0.4732911744
40
1.0000000000
40
1.0000000000
40
1.0000000000
40
1.0000000000
10
-38.1192798350
20
35.8160929443
30
0.0000000000
10
-38.1329571852
20
35.8403504898
30
0.0000000000
10
-38.1592301278
20
35.8931011284
30
0.0000000000
10
-38.1808324343
20
35.9479206191
30
0.0000000000
10
-38.1909303389
20
35.9772201310
30
0.0000000000
11
-38.1192798350
21
35.8160929443
31
0.0000000000
11
-38.1567804452
21
35.8907467455
31
0.0000000000
11
-38.1909303389
21
35.9772201310
31
0.0000000000
0
SPLINE
5
3A1
100
AcDbEntity
8
0
100
AcDbSpline
62
7
6
CONTINUOUS
70
0
71
3
72
9
73
5
74
3
42
0.0000001000
43
0.0000001000
44
0.0000000001
12
-0.0637060316
22
0.0254942621
32
0.0000000000
13
-0.0040699004
23
0.0680447113
33
0.0000000000
40
0.0000000000
40
0.0000000000
40
0.0000000000
40
0.0000000000
40
0.4129357858
40
1.0000000000
40
1.0000000000
40
1.0000000000
40
1.0000000000
10
26.4010602837
20
-39.1845809364
30
0.0000000000
10
26.3922914503
20
-39.1810717720
30
0.0000000000
10
26.3739796221
20
-39.1643977978
30
0.0000000000
10
26.3691617066
20
-39.1410284328
30
0.0000000000
10
26.3683652757
20
-39.1277128944
30
0.0000000000
11
26.4010602837
21
-39.1845809364
31
0.0000000000
11
26.3794691595
21
-39.1661595397
31
0.0000000000
11
26.3683652757
21
-39.1277128944
31
0.0000000000
0
SPLINE
5
3A2
100
AcDbEntity
8
0
100
AcDbSpline
62
7
6
CONTINUOUS
70
0
71
3
72
10
73
6
74
4
42
0.0000001000
43
0.0000001000
44
0.0000000001
12
-0.0783925318
22
-0.1075838269
32
0.0000000000
13
-0.0638815846
23
-0.1167853245
33
0.0000000000
40
0.0000000000
40
0.0000000000
40
0.0000000000
40
0.0000000000
40
0.3523577639
40
0.6870102625
40
1.0000000000
40
1.0000000000
40
1.0000000000
40
1.0000000000
10
-38.1192798357
20
-5.7358833636
30
0.0000000000
10
-38.1284872415
20
-5.7485193625
30
0.0000000000
10
-38.1459397399
20
-5.7735257783
30
0.0000000000
10
-38.1698250609
20
-5.8109328872
30
0.0000000000
10
-38.1842655787
20
-5.8357920970
30
0.0000000000
10
-38.1909303389
20
-5.8479762996
30
0.0000000000
11
-38.1192798357
21
-5.7358833636
31
0.0000000000
11
-38.1461151435
21
-5.7743524337
31
0.0000000000
11
-38.1700678359
21
-5.8119121849
31
0.0000000000
11
-38.1909303389
21
-5.8479762996
31
0.0000000000
0
SPLINE
5
3A3
100
AcDbEntity
8
0
100
AcDbSpline
62
7
6
CONTINUOUS
70
0
71
3
72
8
73
4
74
2
42
0.0000001000
43
0.0000001000
44
0.0000000001
12
-4.4171884609
22
1.6883034606
32
0.0000000000
13
-4.3946768825
23
1.7468278983
33
0.0000000000
40
0.0000000000
40
0.0000000000
40
0.0000000000
40
0.0000000000
40
1.0000000000
40
1.0000000000
40
1.0000000000
40
1.0000000000
10
25.8925702770
20
-37.8897259036
30
0.0000000000
10
24.4201741234
20
-37.3269580834
30
0.0000000000
10
22.9514605593
20
-36.7543899365
30
0.0000000000
10
21.4865682651
20
-36.1721139704
30
0.0000000000
11
25.8925702770
21
-37.8897259036
31
0.0000000000
11
21.4865682651
21
-36.1721139704
31
0.0000000000
0
SPLINE
5
3A4
100
AcDbEntity
8
0
100
AcDbSpline
62
7
6
CONTINUOUS
70
0
71
3
72
8
73
4
74
2
42
0.0000001000
43
0.0000001000
44
0.0000000001
12
-0.3167424264
22
0.1259010666
32
0.0000000000
13
-0.3166231690
23
0.1262035367
33
0.0000000000
40
0.0000000000
40
0.0000000000
40
0.0000000000
40
0.0000000000
40
1.0000000000
40
1.0000000000
40
1.0000000000
40
1.0000000000
10
21.4865682651
20
-36.1721139704
30
0.0000000000
10
21.3809874563
20
-36.1301469482
30
0.0000000000
10
21.2754264978
20
-36.0881294970
30
0.0000000000
10
21.1698854414
20
-36.0460616515
30
0.0000000000
11
21.4865682651
21
-36.1721139704
31
0.0000000000
11
21.1698854414
21
-36.0460616515
31
0.0000000000
0
SPLINE
5
3A5
100
AcDbEntity
8
0
100
AcDbSpline
62
7
6
CONTINUOUS
70
0
71
3
72
8
73
4
74
2
42
0.0000001000
43
0.0000001000
44
0.0000000001
12
-2.6050996070
22
1.0383724752
32
0.0000000000
13
-2.5969290514
23
1.0587835918
33
0.0000000000
40
0.0000000000
40
0.0000000000
40
0.0000000000
40
0.0000000000
40
1.0000000000
40
1.0000000000
40
1.0000000000
40
1.0000000000
10
21.1698854414
20
-36.0460616515
30
0.0000000000
10
20.3015189058
20
-35.6999374931
30
0.0000000000
10
19.4344996694
20
-35.3504018363
30
0.0000000000
10
18.5688566522
20
-34.9974739723
30
0.0000000000
11
21.1698854414
21
-36.0460616515
31
0.0000000000
11
18.5688566522
21
-34.9974739723
31
0.0000000000
0
SPLINE
5
3A6
100
AcDbEntity
8
0
100
AcDbSpline
62
7
6
CONTINUOUS
70
0
71
3
72
10
73
6
74
4
42
0.0000001000
43
0.0000001000
44
0.0000000001
12
-21.7358318508
22
8.8618293619
32
0.0000000000
13
-21.1149006184
23
10.2527075769
33
0.0000000000
40
0.0000000000
40
0.0000000000
40
0.0000000000
40
0.0000000000
40
0.2695377463
40
0.8768305913
40
1.0000000000
40
1.0000000000
40
1.0000000000
40
1.0000000000
10
18.5688566522
20
-34.9974739723
30
0.0000000000
10
16.6159809421
20
-34.2012748010
30
0.0000000000
10
10.2858855048
20
-31.5550041443
30
0.0000000000
10
3.1551366342
20
-28.3313143432
30
0.0000000000
10
-1.9959269299
20
-25.8552112444
30
0.0000000000
10
-2.8628302044
20
-25.4342712678
30
0.0000000000
11
18.5688566522
21
-34.9974739723
31
0.0000000000
11
12.7315742039
21
-32.5573044654
31
0.0000000000
11
-0.2571583338
21
-26.6867951737
31
0.0000000000
11
-2.8628302044
21
-25.4342712678
31
0.0000000000
0
SPLINE
5
3A7
100
AcDbEntity
8
0
100
AcDbSpline
62
7
6
CONTINUOUS
70
0
71
3
72
8
73
4
74
2
42
0.0000001000
43
0.0000001000
44
0.0000000001
12
-0.4346969402
22
0.2110746668
32
0.0000000000
13
-0.4344182101
23
0.2116481391
33
0.0000000000
40
0.0000000000
40
0.0000000000
40
0.0000000000
40
0.0000000000
40
1.0000000000
40
1.0000000000
40
1.0000000000
40
1.0000000000
10
-2.8628302044
20
-25.4342712678
30
0.0000000000
10
-3.0077291845
20
-25.3639130456
30
0.0000000000
10
-3.1525817588
20
-25.2934591838
30
0.0000000000
10
-3.2973878289
20
-25.2229098041
30
0.0000000000
11
-2.8628302044
21
-25.4342712678
31
0.0000000000
11
-3.2973878289
21
-25.2229098041
31
0.0000000000
0
SPLINE
5
3A8
100
AcDbEntity
8
0
100
AcDbSpline
62
7
6
CONTINUOUS
70
0
71
3
72
8
73
4
74
2
42
0.0000001000
43
0.0000001000
44
0.0000000001
12
-0.4382489390
22
0.2135144666
32
0.0000000000
13
-0.4379646672
23
0.2140973512
33
0.0000000000
40
0.0000000000
40
0.0000000000
40
0.0000000000
40
0.0000000000
40
1.0000000000
40
1.0000000000
40
1.0000000000
40
1.0000000000
10
-3.2973878289
20
-25.2229098041
30
0.0000000000
10
-3.4434708086
20
-25.1517383152
30
0.0000000000
10
-3.5895064602
20
-25.0804696165
30
0.0000000000
10
-3.7354946826
20
-25.0091038327
30
0.0000000000
11
-3.2973878289
21
-25.2229098041
31
0.0000000000
11
-3.7354946826
21
-25.0091038327
31
0.0000000000
0
SPLINE
5
3A9
100
AcDbEntity
8
0
100
AcDbSpline
62
7
6
CONTINUOUS
70
0
71
3
72
8
73
4
74
2
42
0.0000001000
43
0.0000001000
44
0.0000000001
12
-1.3325217417
22
0.6513981531
32
0.0000000000
13
-1.3298788798
23
0.6567798978
33
0.0000000000
40
0.0000000000
40
0.0000000000
40
0.0000000000
40
0.0000000000
40
1.0000000000
40
1.0000000000
40
1.0000000000
40
1.0000000000
10
-3.7354946826
20
-25.0091038327
30
0.0000000000
10
-4.1796685965
20
-24.7919711150
30
0.0000000000
10
-4.6234034580
20
-24.5739396811
30
0.0000000000
10
-5.0666964179
20
-24.3550130485
30
0.0000000000
11
-3.7354946826
21
-25.0091038327
31
0.0000000000
11
-5.0666964179
21
-24.3550130485
31
0.0000000000
0
SPLINE
5
3AA
100
AcDbEntity
8
0
100
AcDbSpline
62
7
6
CONTINUOUS
70
0
71
3
72
10
73
6
74
4
42
0.0000001000
43
0.0000001000
44
0.0000000001
12
-33.2241390193
22
16.4082210502
32
0.0000000000
13
-31.4528512770
23
19.5869872261
33
0.0000000000
40
0.0000000000
40
0.0000000000
40
0.0000000000
40
0.0000000000
40
0.2424813968
40
0.6318444280
40
1.0000000000
40
1.0000000000
40
1.0000000000
40
1.0000000000
10
-5.0666964179
20
-24.3550130485
30
0.0000000000
10
-7.7521082972
20
-23.0287835953
30
0.0000000000
10
-14.7073471250
20
-19.4873657854
30
0.0000000000
10
-25.5341064679
20
-13.5378490880
30
0.0000000000
10
-33.5636107197
20
-8.7308383696
30
0.0000000000
10
-37.4234582036
20
-6.3271522078
30
0.0000000000
11
-5.0666964179
21
-24.3550130485
31
0.0000000000
11
-13.0736482082
21
-20.2785511683
31
0.0000000000
11
-25.7182817934
21
-13.3323794899
31
0.0000000000
11
-37.4234582036
21
-6.3271522078
31
0.0000000000
0
SPLINE
5
3AB
100
AcDbEntity
8
0
100
AcDbSpline
62
7
6
CONTINUOUS
70
0
71
3
72
8
73
4
74
2
42
0.0000001000
43
0.0000001000
44
0.0000000001
12
-0.3149484573
22
0.1961313891
32
0.0000000000
13
-0.3147596675
23
0.1964306524
33
0.0000000000
40
0.0000000000
40
0.0000000000
40
0.0000000000
40
0.0000000000
40
1.0000000000
40
1.0000000000
40
1.0000000000
40
1.0000000000
10
-37.4234582036
20
-6.3271522078
30
0.0000000000
10
-37.5284410227
20
-6.2617750782
30
0.0000000000
10
-37.6333923959
20
-6.1963480368
30
0.0000000000
10
-37.7383122851
20
-6.1308711527
30
0.0000000000
11
-37.4234582036
21
-6.3271522078
31
0.0000000000
11
-37.7383122851
21
-6.1308711527
31
0.0000000000
0
SPLINE
5
3AC
100
AcDbEntity
8
0
100
AcDbSpline
62
7
6
CONTINUOUS
70
0
71
3
72
8
73
4
74
2
42
0.0000001000
43
0.0000001000
44
0.0000000001
12
-0.4528136422
22
0.2825853764
32
0.0000000000
13
-0.4524223522
23
0.2832036809
33
0.0000000000
40
0.0000000000
40
0.0000000000
40
0.0000000000
40
0.0000000000
40
1.0000000000
40
1.0000000000
40
1.0000000000
40
1.0000000000
10
-37.7383122851
20
-6.1308711527
30
0.0000000000
10
-37.8892501658
20
-6.0366760272
30
0.0000000000
10
-38.0401228881
20
-5.9423777485
30
0.0000000000
10
-38.1909303389
20
-5.8479765215
30
0.0000000000
11
-37.7383122851
21
-6.1308711527
31
0.0000000000
11
-38.1909303389
21
-5.8479765215
31
0.0000000000
0
SPLINE
5
3AD
100
AcDbEntity
8
0
100
AcDbSpline
62
7
6
CONTINUOUS
70
0
71
3
72
9
73
5
74
3
42
0.0000001000
43
0.0000001000
44
0.0000000001
12
0.0938295425
22
-0.1359759814
32
0.0000000000
13
0.1170215655
23
-0.1166164816
33
0.0000000000
40
0.0000000000
40
0.0000000000
40
0.0000000000
40
0.0000000000
40
0.4662316190
40
1.0000000000
40
1.0000000000
40
1.0000000000
40
1.0000000000
10
25.7860740777
20
-37.7636228782
30
0.0000000000
10
25.8006561776
20
-37.7847549788
30
0.0000000000
10
25.8343724906
20
-37.8284099557
30
0.0000000000
10
25.8717336532
20
-37.8689713127
30
0.0000000000
10
25.8925544571
20
-37.8897200429
30
0.0000000000
11
25.7860740777
21
-37.7636228782
31
0.0000000000
11
25.8328876880
21
-37.8247891738
31
0.0000000000
11
25.8925544571
21
-37.8897200429
31
0.0000000000
0
SPLINE
5
3AE
100
AcDbEntity
8
0
100
AcDbSpline
62
7
6
CONTINUOUS
70
0
71
3
72
10
73
6
74
4
42
0.0000001000
43
0.0000001000
44
0.0000000001
12
-0.1248878384
22
-0.0153346314
32
0.0000000000
13
-0.1257615917
23
-0.0040181033
33
0.0000000000
40
0.0000000000
40
0.0000000000
40
0.0000000000
40
0.0000000000
40
0.3545854239
40
0.6877694465
40
1.0000000000
40
1.0000000000
40
1.0000000000
40
1.0000000000
10
-38.0655452898
20
-5.8378132663
30
0.0000000000
10
-38.0803064255
20
-5.8396257453
30
0.0000000000
10
-38.1089858176
20
-5.8427676242
30
0.0000000000
10
-38.1507954096
20
-5.8461524370
30
0.0000000000
10
-38.1778347837
20
-5.8475616401
30
0.0000000000
10
-38.1909236542
20
-5.8479798317
30
0.0000000000
11
-38.0655452898
21
-5.8378132663
31
0.0000000000
11
-38.1098984299
21
-5.8426490531
31
0.0000000000
11
-38.1516860840
21
-5.8460167183
31
0.0000000000
11
-38.1909236542
21
-5.8479798317
31
0.0000000000
0
SPLINE
5
3AF
100
AcDbEntity
8
0
100
AcDbSpline
62
7
6
CONTINUOUS
70
0
71
3
72
9
73
5
74
3
42
0.0000001000
43
0.0000001000
44
0.0000000001
12
0.0340638410
22
-0.1761607079
32
0.0000000000
13
0.0626029693
23
-0.1681481742
33
0.0000000000
40
0.0000000000
40
0.0000000000
40
0.0000000000
40
0.0000000000
40
0.4781761835
40
1.0000000000
40
1.0000000000
40
1.0000000000
40
1.0000000000
10
25.8435346361
20
-37.7172905375
30
0.0000000000
10
25.8489641419
20
-37.7453691559
30
0.0000000000
10
25.8629520788
20
-37.8036006378
30
0.0000000000
10
25.8816810369
20
-37.8604772686
30
0.0000000000
10
25.8925702770
20
-37.8897251760
30
0.0000000000
11
25.8435346361
21
-37.7172905375
31
0.0000000000
11
25.8634255846
21
-37.8007491814
31
0.0000000000
11
25.8925702770
21
-37.8897251760
31
0.0000000000
0
SPLINE
5
3B0
100
AcDbEntity
8
0
100
AcDbSpline
62
7
6
CONTINUOUS
70
0
71
3
72
9
73
5
74
3
42
0.0000001000
43
0.0000001000
44
0.0000000001
12
0.0162725600
22
0.0435277760
32
0.0000000000
13
0.0200134146
23
0.0419454967
33
0.0000000000
40
0.0000000000
40
0.0000000000
40
0.0000000000
40
0.0000000000
40
0.7373797378
40
1.0000000000
40
1.0000000000
40
1.0000000000
40
1.0000000000
10
25.8435346364
20
3.8346856683
30
0.0000000000
10
25.8475343218
20
3.8453845017
30
0.0000000000
10
25.8535584219
20
3.8596709449
30
0.0000000000
10
25.8601041363
20
3.8737132246
30
0.0000000000
10
25.8618561124
20
3.8773851371
30
0.0000000000
11
25.8435346364
21
3.8346856683
31
0.0000000000
11
25.8567020372
21
3.8663208104
31
0.0000000000
11
25.8618561124
21
3.8773851371
31
0.0000000000
0
SPLINE
5
3B1
100
AcDbEntity
8
0
100
AcDbSpline
62
7
6
CONTINUOUS
70
0
71
3
72
9
73
5
74
3
42
0.0000001000
43
0.0000001000
44
0.0000000001
12
0.0283025815
22
0.0593185050
32
0.0000000000
13
0.0327105549
23
0.0569977619
33
0.0000000000
40
0.0000000000
40
0.0000000000
40
0.0000000000
40
0.0000000000
40
0.3873561879
40
1.0000000000
40
1.0000000000
40
1.0000000000
40
1.0000000000
10
25.8618561124
20
3.8773851371
30
0.0000000000
10
25.8655105057
20
3.8850442670
30
0.0000000000
10
25.8753146741
20
3.9046387943
30
0.0000000000
10
25.8858903040
20
3.9238313728
30
0.0000000000
10
25.8925702770
20
3.9354711482
30
0.0000000000
11
25.8618561124
21
3.8773851371
31
0.0000000000
11
25.8732216701
21
3.9001640795
31
0.0000000000
11
25.8925702770
21
3.9354711482
31
0.0000000000
0
SPLINE
5
3B2
100
AcDbEntity
8
0
100
AcDbSpline
62
7
6
CONTINUOUS
70
0
71
3
72
8
73
4
74
2
42
0.0000001000
43
0.0000001000
44
0.0000000001
12
-0.1414717391
22
-0.0874650924
32
0.0000000000
13
-0.1414716720
23
-0.0874652009
33
0.0000000000
40
0.0000000000
40
0.0000000000
40
0.0000000000
40
0.0000000000
40
1.0000000000
40
1.0000000000
40
1.0000000000
40
1.0000000000
10
-38.3534693836
20
37.4867170396
30
0.0000000000
10
-38.4006266300
20
37.4575620088
30
0.0000000000
10
-38.4477838652
20
37.4284069600
30
0.0000000000
10
-38.4949410892
20
37.3992518930
30
0.0000000000
11
-38.3534693836
21
37.4867170396
31
0.0000000000
11
-38.4949410892
21
37.3992518930
31
0.0000000000
0
SPLINE
5
3B3
100
AcDbEntity
8
0
100
AcDbSpline
62
7
6
CONTINUOUS
70
0
71
3
72
8
73
4
74
2
42
0.0000001000
43
0.0000001000
44
0.0000000001
12
-0.0765456895
22
-0.0473245563
32
0.0000000000
13
-0.0765456698
23
-0.0473245882
33
0.0000000000
40
0.0000000000
40
0.0000000000
40
0.0000000000
40
0.0000000000
40
1.0000000000
40
1.0000000000
40
1.0000000000
40
1.0000000000
10
-38.4949410892
20
37.3992518930
30
0.0000000000
10
-38.5204563190
20
37.3834770409
30
0.0000000000
10
-38.5459715456
20
37.3677021835
30
0.0000000000
10
-38.5714867689
20
37.3519273208
30
0.0000000000
11
-38.4949410892
21
37.3992518930
31
0.0000000000
11
-38.5714867689
21
37.3519273208
31
0.0000000000
0
SPLINE
5
3B4
100
AcDbEntity
8
0
100
AcDbSpline
62
7
6
CONTINUOUS
70
0
71
3
72
8
73
4
74
2
42
0.0000001000
43
0.0000001000
44
0.0000000001
12
-0.0810368985
22
-0.0318965470
32
0.0000000000
13
-0.0810369328
23
-0.0318964600
33
0.0000000000
40
0.0000000000
40
0.0000000000
40
0.0000000000
40
0.0000000000
40
1.0000000000
40
1.0000000000
40
1.0000000000
40
1.0000000000
10
27.3192096448
20
-38.5566651461
30
0.0000000000
10
27.2921973453
20
-38.5672973285
30
0.0000000000
10
27.2651850409
20
-38.5779294983
30
0.0000000000
10
27.2381727299
20
-38.5885616516
30
0.0000000000
11
27.3192096448
21
-38.5566651461
31
0.0000000000
11
27.2381727299
21
-38.5885616516
31
0.0000000000
0
SPLINE
5
3B5
100
AcDbEntity
8
0
100
AcDbSpline
62
7
6
CONTINUOUS
70
0
71
3
72
8
73
4
74
2
42
0.0000001000
43
0.0000001000
44
0.0000000001
12
-0.1251717407
22
-0.0492680964
32
0.0000000000
13
-0.1251718516
23
-0.0492678147
33
0.0000000000
40
0.0000000000
40
0.0000000000
40
0.0000000000
40
0.0000000000
40
1.0000000000
40
1.0000000000
40
1.0000000000
40
1.0000000000
10
27.2381727299
20
-38.5885616516
30
0.0000000000
10
27.1964488164
20
-38.6049843505
30
0.0000000000
10
27.1547248873
20
-38.6214070098
30
0.0000000000
10
27.1130009368
20
-38.6378296147
30
0.0000000000
11
27.2381727299
21
-38.5885616516
31
0.0000000000
11
27.1130009368
21
-38.6378296147
31
0.0000000000
0
SPLINE
5
3B6
100
AcDbEntity
8
0
100
AcDbSpline
62
7
6
CONTINUOUS
70
0
71
3
72
8
73
4
74
2
42
0.0000001000
43
0.0000001000
44
0.0000000001
12
0.1631184563
22
0.0826555010
32
0.0000000000
13
0.1631185204
23
0.0826553745
33
0.0000000000
40
0.0000000000
40
0.0000000000
40
0.0000000000
40
0.0000000000
40
1.0000000000
40
1.0000000000
40
1.0000000000
40
1.0000000000
10
26.4381912829
20
4.8470882949
30
0.0000000000
10
26.4925641017
20
4.8746401285
30
0.0000000000
10
26.5469369311
20
4.9021919411
30
0.0000000000
10
26.6013097713
20
4.9297437327
30
0.0000000000
11
26.4381912829
21
4.8470882949
31
0.0000000000
11
26.6013097713
21
4.9297437327
31
0.0000000000
0
SPLINE
5
3B7
100
AcDbEntity
8
0
100
AcDbSpline
62
7
6
CONTINUOUS
70
0
71
3
72
8
73
4
74
2
42
0.0000001000
43
0.0000001000
44
0.0000000001
12
0.0514929535
22
0.0260924961
32
0.0000000000
13
0.0514929599
23
0.0260924835
33
0.0000000000
40
0.0000000000
40
0.0000000000
40
0.0000000000
40
0.0000000000
40
1.0000000000
40
1.0000000000
40
1.0000000000
40
1.0000000000
10
26.6013097713
20
4.9297437327
30
0.0000000000
10
26.6184740891
20
4.9384412314
30
0.0000000000
10
26.6356384080
20
4.9471387280
30
0.0000000000
10
26.6528027279
20
4.9558362224
30
0.0000000000
11
26.6013097713
21
4.9297437327
31
0.0000000000
11
26.6528027279
21
4.9558362224
31
0.0000000000
0
SPLINE
5
3B8
100
AcDbEntity
8
0
100
AcDbSpline
62
7
6
CONTINUOUS
70
0
71
3
72
8
73
4
74
2
42
0.0000001000
43
0.0000001000
44
0.0000000001
12
0.1719792194
22
0.0871595250
32
0.0000000000
13
0.1719794523
23
0.0871590655
33
0.0000000000
40
0.0000000000
40
0.0000000000
40
0.0000000000
40
0.0000000000
40
1.0000000000
40
1.0000000000
40
1.0000000000
40
1.0000000000
10
27.1130009368
20
3.6687065564
30
0.0000000000
10
27.1703273432
20
3.6977597314
30
0.0000000000
10
27.2276537976
20
3.7268128119
30
0.0000000000
10
27.2849802817
20
3.7558658337
30
0.0000000000
11
27.1130009368
21
3.6687065564
31
0.0000000000
11
27.2849802817
21
3.7558658337
31
0.0000000000
0
SPLINE
5
3B9
100
AcDbEntity
8
0
100
AcDbSpline
62
7
6
CONTINUOUS
70
0
71
3
72
8
73
4
74
2
42
0.0000001000
43
0.0000001000
44
0.0000000001
12
0.0309771175
22
0.0156991814
32
0.0000000000
13
0.0309771230
23
0.0156991706
33
0.0000000000
40
0.0000000000
40
0.0000000000
40
0.0000000000
40
0.0000000000
40
1.0000000000
40
1.0000000000
40
1.0000000000
40
1.0000000000
10
27.2849802817
20
3.7558658337
30
0.0000000000
10
27.2953059875
20
3.7610988942
30
0.0000000000
10
27.3056316943
20
3.7663319527
30
0.0000000000
10
27.3159574019
20
3.7715650096
30
0.0000000000
11
27.2849802817
21
3.7558658337
31
0.0000000000
11
27.3159574019
21
3.7715650096
31
0.0000000000
0
SPLINE
5
3BA
100
AcDbEntity
8
0
100
AcDbSpline
62
7
6
CONTINUOUS
70
0
71
3
72
11
73
7
74
5
42
0.0000001000
43
0.0000001000
44
0.0000000001
12
-0.6431528302
22
-0.3289053299
32
0.0000000000
13
-0.2323074969
23
-0.6840011009
33
0.0000000000
40
0.0000000000
40
0.0000000000
40
0.0000000000
40
0.0000000000
40
0.2096857460
40
0.4643750740
40
0.7406834237
40
1.0000000000
40
1.0000000000
40
1.0000000000
40
1.0000000000
10
-37.3001954618
20
-4.0347971083
30
0.0000000000
10
-37.3451487888
20
-4.0577860281
30
0.0000000000
10
-37.4388003901
20
-4.1205942270
30
0.0000000000
10
-37.5650819624
20
-4.2480591785
30
0.0000000000
10
-37.6722732235
20
-4.4065745901
30
0.0000000000
10
-37.7249620372
20
-4.5251321160
30
0.0000000000
10
-37.7450424322
20
-4.5842563906
30
0.0000000000
11
-37.3001954618
21
-4.0347971083
31
0.0000000000
11
-37.4267723118
21
-4.1179952419
31
0.0000000000
11
-37.5571373078
21
-4.2478180545
31
0.0000000000
11
-37.6692665822
21
-4.4129434037
31
0.0000000000
11
-37.7450424322
21
-4.5842563906
31
0.0000000000
0
SPLINE
5
3BB
100
AcDbEntity
8
0
100
AcDbSpline
62
7
6
CONTINUOUS
70
0
71
3
72
8
73
4
74
2
42
0.0000001000
43
0.0000001000
44
0.0000000001
12
-0.0617636199
22
-0.0240470564
32
0.0000000000
13
-0.0649555225
23
-0.0159732493
33
0.0000000000
40
0.0000000000
40
0.0000000000
40
0.0000000000
40
0.0000000000
40
1.0000000000
40
1.0000000000
40
1.0000000000
40
1.0000000000
10
-37.3001954618
20
34.7019957155
30
0.0000000000
10
-37.3207833351
20
34.6939800301
30
0.0000000000
10
-37.3420299074
20
34.6871094240
30
0.0000000000
10
-37.3636817483
20
34.6817850076
30
0.0000000000
11
-37.3001954618
21
34.7019957155
31
0.0000000000
11
-37.3636817483
21
34.6817850076
31
0.0000000000
0
SPLINE
5
3BC
100
AcDbEntity
8
0
100
AcDbSpline
62
7
6
CONTINUOUS
70
0
71
3
72
9
73
5
74
3
42
0.0000001000
43
0.0000001000
44
0.0000000001
12
-0.1720897359
22
-0.0423186843
32
0.0000000000
13
-0.1729942023
23
0.0427581354
33
0.0000000000
40
0.0000000000
40
0.0000000000
40
0.0000000000
40
0.0000000000
40
0.6772703387
40
1.0000000000
40
1.0000000000
40
1.0000000000
40
1.0000000000
10
-37.3636817483
20
34.6817850076
30
0.0000000000
10
-37.4025321728
20
34.6722312777
30
0.0000000000
10
-37.4618219790
20
34.6654753075
30
0.0000000000
10
-37.5207645688
20
34.6746238614
30
0.0000000000
10
-37.5393746889
20
34.6792236342
30
0.0000000000
11
-37.3636817483
21
34.6817850076
31
0.0000000000
11
-37.4826833606
21
34.6703753687
31
0.0000000000
11
-37.5393746889
21
34.6792236342
31
0.0000000000
0
SPLINE
5
3BD
100
AcDbEntity
8
0
100
AcDbSpline
62
7
6
CONTINUOUS
70
0
71
3
72
9
73
5
74
3
42
0.0000001000
43
0.0000001000
44
0.0000000001
12
-0.2700619315
22
0.0667498939
32
0.0000000000
13
-0.1203807685
23
0.2462803395
33
0.0000000000
40
0.0000000000
40
0.0000000000
40
0.0000000000
40
0.0000000000
40
0.4046202154
40
1.0000000000
40
1.0000000000
40
1.0000000000
40
1.0000000000
10
-37.5393746889
20
34.6792236342
30
0.0000000000
10
-37.5757988612
20
34.6882264197
30
0.0000000000
10
-37.6619151066
20
34.7260717816
30
0.0000000000
10
-37.7211516735
20
34.8020362082
30
0.0000000000
10
-37.7450424322
20
34.8509129867
30
0.0000000000
11
-37.5393746889
21
34.6792236342
31
0.0000000000
11
-37.6410869344
21
34.7250931753
31
0.0000000000
11
-37.7450424322
21
34.8509129867
31
0.0000000000
0
SPLINE
5
3BE
100
AcDbEntity
8
0
100
AcDbSpline
62
7
6
CONTINUOUS
70
0
71
3
72
16
73
12
74
10
42
0.0000001000
43
0.0000001000
44
0.0000000001
12
-0.2606278227
22
-0.7677289698
32
0.0000000000
13
-0.7009733693
23
-0.4073953468
33
0.0000000000
40
0.0000000000
40
0.0000000000
40
0.0000000000
40
0.0000000000
40
0.1370530719
40
0.2597830072
40
0.3731339230
40
0.4811634445
40
0.5865708619
40
0.6916703195
40
0.7973209179
40
0.9005401548
40
1.0000000000
40
1.0000000000
40
1.0000000000
40
1.0000000000
10
-37.6490195863
20
-5.1566264405
30
0.0000000000
10
-37.6609262009
20
-5.1916996451
30
0.0000000000
10
-37.6848457883
20
-5.2577326212
30
0.0000000000
10
-37.7230332473
20
-5.3510904118
30
0.0000000000
10
-37.7616910994
20
-5.4357013308
30
0.0000000000
10
-37.8017895206
20
-5.5144195823
30
0.0000000000
10
-37.8444523469
20
-5.5892384877
30
0.0000000000
10
-37.8910071648
20
-5.6609342254
30
0.0000000000
10
-37.9421460242
20
-5.7288171267
30
0.0000000000
10
-37.9991774476
20
-5.7896970068
30
0.0000000000
10
-38.0423085086
20
-5.8243088903
30
0.0000000000
10
-38.0655480762
20
-5.8378153830
30
0.0000000000
11
-37.6490195863
21
-5.1566264405
31
0.0000000000
11
-37.6869069652
21
-5.2610851446
31
0.0000000000
11
-37.7246310801
21
-5.3531616570
31
0.0000000000
11
-37.7628903763
21
-5.4367196868
31
0.0000000000
11
-37.8027252574
21
-5.5147230557
31
0.0000000000
11
-37.8451965322
21
-5.5888827097
31
0.0000000000
11
-37.8917450315
21
-5.6602555841
31
0.0000000000
11
-37.9437225582
21
-5.7283403698
31
0.0000000000
11
-38.0013360564
21
-5.7890368823
31
0.0000000000
11
-38.0655480762
21
-5.8378153830
31
0.0000000000
0
SPLINE
5
3BF
100
AcDbEntity
8
0
100
AcDbSpline
62
7
6
CONTINUOUS
70
0
71
3
72
8
73
4
74
2
42
0.0000001000
43
0.0000001000
44
0.0000000001
12
-0.0160191020
22
-0.0627826034
32
0.0000000000
13
-0.0145111979
23
-0.0631496544
33
0.0000000000
40
0.0000000000
40
0.0000000000
40
0.0000000000
40
0.0000000000
40
1.0000000000
40
1.0000000000
40
1.0000000000
40
1.0000000000
10
25.8290167725
20
-37.0229893830
30
0.0000000000
10
25.8236770719
20
-37.0439169174
30
0.0000000000
10
25.8185862391
20
-37.0649085656
30
0.0000000000
10
25.8137491731
20
-37.0859584504
30
0.0000000000
11
25.8290167725
21
-37.0229893830
31
0.0000000000
11
25.8137491731
21
-37.0859584504
31
0.0000000000
0
SPLINE
5
3C0
100
AcDbEntity
8
0
100
AcDbSpline
62
7
6
CONTINUOUS
70
0
71
3
72
8
73
4
74
2
42
0.0000001000
43
0.0000001000
44
0.0000000001
12
-0.0127945603
22
-0.0556792119
32
0.0000000000
13
-0.0115704888
23
-0.0559437897
33
0.0000000000
40
0.0000000000
40
0.0000000000
40
0.0000000000
40
0.0000000000
40
1.0000000000
40
1.0000000000
40
1.0000000000
40
1.0000000000
10
25.8137491731
20
-37.0859584504
30
0.0000000000
10
25.8094843197
20
-37.1045181877
30
0.0000000000
10
25.8054167444
20
-37.1231231981
30
0.0000000000
10
25.8015599148
20
-37.1417711280
30
0.0000000000
11
25.8137491731
21
-37.0859584504
31
0.0000000000
11
25.8015599148
21
-37.1417711280
31
0.0000000000
0
SPLINE
5
3C1
100
AcDbEntity
8
0
100
AcDbSpline
62
7
6
CONTINUOUS
70
0
71
3
72
11
73
7
74
5
42
0.0000001000
43
0.0000001000
44
0.0000000001
12
-0.1046890557
22
-0.5061758962
32
0.0000000000
13
0.0635253573
23
-0.5135070226
33
0.0000000000
40
0.0000000000
40
0.0000000000
40
0.0000000000
40
0.0000000000
40
0.2116061564
40
0.5035790681
40
0.7651277201
40
1.0000000000
40
1.0000000000
40
1.0000000000
40
1.0000000000
10
25.8015599148
20
-37.1417711280
30
0.0000000000
10
25.7941756320
20
-37.1774744400
30
0.0000000000
10
25.7784410179
20
-37.2628153809
30
0.0000000000
10
25.7619950109
20
-37.3936923260
30
0.0000000000
10
25.7550608342
20
-37.5294912607
30
0.0000000000
10
25.7593543222
20
-37.6150732032
30
0.0000000000
10
25.7643277707
20
-37.6552760582
30
0.0000000000
11
25.8015599148
21
-37.1417711280
31
0.0000000000
11
25.7818191703
21
-37.2493365349
31
0.0000000000
11
25.7632968598
21
-37.3990805376
31
0.0000000000
11
25.7572300500
21
-37.5341069197
31
0.0000000000
11
25.7643277707
21
-37.6552760582
31
0.0000000000
0
SPLINE
5
3C2
100
AcDbEntity
8
0
100
AcDbSpline
62
7
6
CONTINUOUS
70
0
71
3
72
8
73
4
74
2
42
0.0000001000
43
0.0000001000
44
0.0000000001
12
0.0135842414
22
-0.1098081717
32
0.0000000000
13
0.0307542368
23
-0.1061419692
33
0.0000000000
40
0.0000000000
40
0.0000000000
40
0.0000000000
40
0.0000000000
40
1.0000000000
40
1.0000000000
40
1.0000000000
40
1.0000000000
10
25.7643277707
20
-37.6552760582
30
0.0000000000
10
25.7688558511
20
-37.6918787821
30
0.0000000000
10
25.7758226703
20
-37.7282422459
30
0.0000000000
10
25.7860740826
20
-37.7636229023
30
0.0000000000
11
25.7643277707
21
-37.6552760582
31
0.0000000000
11
25.7860740826
21
-37.7636229023
31
0.0000000000
0
SPLINE
5
3C3
100
AcDbEntity
8
0
100
AcDbSpline
62
7
6
CONTINUOUS
70
0
71
3
72
8
73
4
74
2
42
0.0000001000
43
0.0000001000
44
0.0000000001
12
-4.5998953136
22
1.7599019516
32
0.0000000000
13
-4.5755116230
23
1.8234197922
33
0.0000000000
40
0.0000000000
40
0.0000000000
40
0.0000000000
40
0.0000000000
40
1.0000000000
40
1.0000000000
40
1.0000000000
40
1.0000000000
10
25.7860740826
20
-37.7636229023
30
0.0000000000
10
24.2527756447
20
-37.1769889184
30
0.0000000000
10
22.7234639666
20
-36.5797152388
30
0.0000000000
10
21.1982934256
20
-35.9719086414
30
0.0000000000
11
25.7860740826
21
-37.7636229023
31
0.0000000000
11
21.1982934256
21
-35.9719086414
31
0.0000000000
0
SPLINE
5
3C4
100
AcDbEntity
8
0
100
AcDbSpline
62
7
6
CONTINUOUS
70
0
71
3
72
8
73
4
74
2
42
0.0000001000
43
0.0000001000
44
0.0000000001
12
-2.6038919914
22
1.0376955814
32
0.0000000000
13
-2.5957595672
23
1.0581041229
33
0.0000000000
40
0.0000000000
40
0.0000000000
40
0.0000000000
40
0.0000000000
40
1.0000000000
40
1.0000000000
40
1.0000000000
40
1.0000000000
10
21.1982934256
20
-35.9719086414
30
0.0000000000
10
20.3303294285
20
-35.6260101143
30
0.0000000000
10
19.4637066087
20
-35.2767003234
30
0.0000000000
10
18.5984534197
20
-34.9239989491
30
0.0000000000
11
21.1982934256
21
-35.9719086414
31
0.0000000000
11
18.5984534197
21
-34.9239989491
31
0.0000000000
0
SPLINE
5
3C5
100
AcDbEntity
8
0
100
AcDbSpline
62
7
6
CONTINUOUS
70
0
71
3
72
9
73
5
74
3
42
0.0000001000
43
0.0000001000
44
0.0000000001
12
-21.7320872311
22
8.8586059315
32
0.0000000000
13
-21.1113031131
23
10.2492122363
33
0.0000000000
40
0.0000000000
40
0.0000000000
40
0.0000000000
40
0.0000000000
40
0.4246224884
40
1.0000000000
40
1.0000000000
40
1.0000000000
40
1.0000000000
10
18.5984534197
20
-34.9239989491
30
0.0000000000
10
15.5224757673
20
-33.6701445178
30
0.0000000000
10
8.3192110314
20
-30.6163321206
30
0.0000000000
10
1.2190376842
20
-27.3296977943
30
0.0000000000
10
-2.8299520001
20
-25.3639757167
30
0.0000000000
11
18.5984534197
21
-34.9239989491
31
0.0000000000
11
9.4237271907
21
-31.0347308946
31
0.0000000000
11
-2.8299520001
21
-25.3639757167
31
0.0000000000
0
SPLINE
5
3C6
100
AcDbEntity
8
0
100
AcDbSpline
62
7
6
CONTINUOUS
70
0
71
3
72
8
73
4
74
2
42
0.0000001000
43
0.0000001000
44
0.0000000001
12
-0.8715510107
22
0.4231245810
32
0.0000000000
13
-0.8704276495
23
0.4254282705
33
0.0000000000
40
0.0000000000
40
0.0000000000
40
0.0000000000
40
0.0000000000
40
1.0000000000
40
1.0000000000
40
1.0000000000
40
1.0000000000
10
-2.8299520001
20
-25.3639757167
30
0.0000000000
10
-3.1204690037
20
-25.2229341897
30
0.0000000000
10
-3.4107991795
20
-25.0815082691
30
0.0000000000
10
-3.7009417293
20
-24.9396988456
30
0.0000000000
11
-2.8299520001
21
-25.3639757167
31
0.0000000000
11
-3.7009417293
21
-24.9396988456
31
0.0000000000
0
SPLINE
5
3C7
100
AcDbEntity
8
0
100
AcDbSpline
62
7
6
CONTINUOUS
70
0
71
3
72
8
73
4
74
2
42
0.0000001000
43
0.0000001000
44
0.0000000001
12
-1.3315388498
22
0.6507999490
32
0.0000000000
13
-1.3288958475
23
0.6561750927
33
0.0000000000
40
0.0000000000
40
0.0000000000
40
0.0000000000
40
0.0000000000
40
1.0000000000
40
1.0000000000
40
1.0000000000
40
1.0000000000
10
-3.7009417293
20
-24.9396988456
30
0.0000000000
10
-4.1447880126
20
-24.7227655292
30
0.0000000000
10
-4.5881952243
20
-24.5049347614
30
0.0000000000
10
-5.0311605067
20
-24.2862097305
30
0.0000000000
11
-3.7009417293
21
-24.9396988456
31
0.0000000000
11
-5.0311605067
21
-24.2862097305
31
0.0000000000
0
SPLINE
5
3C8
100
AcDbEntity
8
0
100
AcDbSpline
62
7
6
CONTINUOUS
70
0
71
3
72
10
73
6
74
4
42
0.0000001000
43
0.0000001000
44
0.0000000001
12
-33.2198171980
22
16.4031038772
32
0.0000000000
13
-31.4481281486
23
19.5815702351
33
0.0000000000
40
0.0000000000
40
0.0000000000
40
0.0000000000
40
0.0000000000
40
0.0494128924
40
0.5330770946
40
1.0000000000
40
1.0000000000
40
1.0000000000
40
1.0000000000
10
-5.0311605067
20
-24.2862097305
30
0.0000000000
10
-5.5783229240
20
-24.0160347950
30
0.0000000000
10
-11.4739564294
20
-21.0866084640
30
0.0000000000
10
-22.3851908953
20
-15.2947076693
30
0.0000000000
10
-32.4894507494
20
-9.3108194181
30
0.0000000000
10
-37.3840678711
20
-6.2631248625
30
0.0000000000
11
-5.0311605067
21
-24.2862097305
31
0.0000000000
11
-6.6706195071
21
-23.4715975759
31
0.0000000000
11
-22.4985252521
21
-15.0739503939
31
0.0000000000
11
-37.3840678711
21
-6.2631248625
31
0.0000000000
0
SPLINE
5
3C9
100
AcDbEntity
8
0
100
AcDbSpline
62
7
6
CONTINUOUS
70
0
71
3
72
8
73
4
74
2
42
0.0000001000
43
0.0000001000
44
0.0000000001
12
-0.3155893201
22
0.1965056365
32
0.0000000000
13
-0.3153992525
23
0.1968059810
33
0.0000000000
40
0.0000000000
40
0.0000000000
40
0.0000000000
40
0.0000000000
40
1.0000000000
40
1.0000000000
40
1.0000000000
40
1.0000000000
10
-37.3840678711
20
-6.2631248625
30
0.0000000000
10
-37.4892643111
20
-6.1976229837
30
0.0000000000
10
-37.5944290927
20
-6.1320710130
30
0.0000000000
10
-37.6995621769
20
-6.0664690194
30
0.0000000000
11
-37.3840678711
21
-6.2631248625
31
0.0000000000
11
-37.6995621769
21
-6.0664690194
31
0.0000000000
0
SPLINE
5
3CA
100
AcDbEntity
8
0
100
AcDbSpline
62
7
6
CONTINUOUS
70
0
71
3
72
8
73
4
74
2
42
0.0000001000
43
0.0000001000
44
0.0000000001
12
-0.3661140919
22
0.2284515338
32
0.0000000000
13
-0.3658576460
23
0.2288556313
33
0.0000000000
40
0.0000000000
40
0.0000000000
40
0.0000000000
40
0.0000000000
40
1.0000000000
40
1.0000000000
40
1.0000000000
40
1.0000000000
10
-37.6995621769
20
-6.0664690194
30
0.0000000000
10
-37.8216002075
20
-5.9903185081
30
0.0000000000
10
-37.9435955276
20
-5.9141005934
30
0.0000000000
10
-38.0655480762
20
-5.8378153830
30
0.0000000000
11
-37.6995621769
21
-6.0664690194
31
0.0000000000
11
-38.0655480762
21
-5.8378153830
31
0.0000000000
0
SPLINE
5
3CB
100
AcDbEntity
8
0
100
AcDbSpline
62
7
6
CONTINUOUS
70
0
71
3
72
11
73
7
74
5
42
0.0000001000
43
0.0000001000
44
0.0000000001
12
0.0486381362
22
0.0242064969
32
0.0000000000
13
0.0142694983
23
-0.0239752195
33
0.0000000000
40
0.0000000000
40
0.0000000000
40
0.0000000000
40
0.0000000000
40
0.4603947757
40
0.7978252022
40
0.9795438922
40
1.0000000000
40
1.0000000000
40
1.0000000000
40
1.0000000000
10
-22.4056269929
20
-9.1720437427
30
0.0000000000
10
-22.3981627450
20
-9.1683288945
30
0.0000000000
10
-22.3842081416
20
-9.1620095503
30
0.0000000000
10
-22.3702139712
20
-9.1562534746
30
0.0000000000
10
-22.3569718399
20
-9.1526201643
30
0.0000000000
10
-22.3556683605
20
-9.1539860351
30
0.0000000000
10
-22.3555710610
20
-9.1541495149
30
0.0000000000
11
-22.4056269929
21
-9.1720437427
31
0.0000000000
11
-22.3829087268
21
-9.1615787422
31
0.0000000000
11
-22.3657405131
21
-9.1551505137
31
0.0000000000
11
-22.3559695817
21
-9.1537375559
31
0.0000000000
11
-22.3555710610
21
-9.1541495149
31
0.0000000000
0
SPLINE
5
3CC
100
AcDbEntity
8
0
100
AcDbSpline
62
7
6
CONTINUOUS
70
0
71
3
72
8
73
4
74
2
42
0.0000001000
43
0.0000001000
44
0.0000000001
12
-0.1502480528
22
-0.0750881886
32
0.0000000000
13
-0.1662241066
23
-0.0059721047
33
0.0000000000
40
0.0000000000
40
0.0000000000
40
0.0000000000
40
0.0000000000
40
1.0000000000
40
1.0000000000
40
1.0000000000
40
1.0000000000
10
-3.3298080505
20
-23.4377265405
30
0.0000000000
10
-3.3798907348
20
-23.4627559367
30
0.0000000000
10
-3.4352004587
20
-23.4783659753
30
0.0000000000
10
-3.4906084942
20
-23.4803566768
30
0.0000000000
11
-3.3298080505
21
-23.4377265405
31
0.0000000000
11
-3.4906084942
21
-23.4803566768
31
0.0000000000
0
SPLINE
5
3CD
100
AcDbEntity
8
0
100
AcDbSpline
62
7
6
CONTINUOUS
70
0
71
3
72
10
73
6
74
4
42
0.0000001000
43
0.0000001000
44
0.0000000001
12
0.0000579222
22
-0.1950753533
32
0.0000000000
13
0.0366799931
23
-0.1915917648
33
0.0000000000
40
0.0000000000
40
0.0000000000
40
0.0000000000
40
0.0000000000
40
0.0089428167
40
0.5388629929
40
1.0000000000
40
1.0000000000
40
1.0000000000
40
1.0000000000
10
25.8291665901
20
-37.5229468248
30
0.0000000000
10
25.8291667628
20
-37.5235283325
30
0.0000000000
10
25.8291924055
20
-37.5585679412
30
0.0000000000
10
25.8309518560
20
-37.6235896664
30
0.0000000000
10
25.8378964687
20
-37.6878405199
30
0.0000000000
10
25.8435346361
20
-37.7172905375
30
0.0000000000
11
25.8291665901
21
-37.5229468248
31
0.0000000000
11
25.8291678680
21
-37.5246913467
31
0.0000000000
11
25.8325598449
21
-37.6280079177
31
0.0000000000
11
25.8435346361
21
-37.7172905375
31
0.0000000000
0
SPLINE
5
3CE
100
AcDbEntity
8
0
100
AcDbSpline
62
7
6
CONTINUOUS
70
0
71
3
72
13
73
9
74
7
42
0.0000001000
43
0.0000001000
44
0.0000000001
12
0.5008123274
22
0.2487607766
32
0.0000000000
13
-0.4937744251
23
0.2468872125
33
0.0000000000
40
0.0000000000
40
0.0000000000
40
0.0000000000
40
0.0000000000
40
0.0487444135
40
0.2422791319
40
0.4477926424
40
0.6553086789
40
0.8442771204
40
1.0000000000
40
1.0000000000
40
1.0000000000
40
1.0000000000
10
-3.4574658504
20
-23.0799677206
30
0.0000000000
10
-3.4493285826
20
-23.0759258212
30
0.0000000000
10
-3.4104299545
20
-23.0527652871
30
0.0000000000
10
-3.3571520152
20
-22.9858743020
30
0.0000000000
10
-3.3245313413
20
-22.8769831649
30
0.0000000000
10
-3.3299064436
20
-22.7638513128
30
0.0000000000
10
-3.3723246623
20
-22.6688992624
30
0.0000000000
10
-3.4209820478
20
-22.6241906805
30
0.0000000000
10
-3.4466127062
20
-22.6113753513
30
0.0000000000
11
-3.4574658504
21
-23.0799677206
31
0.0000000000
11
-3.4340841773
21
-23.0660789669
31
0.0000000000
11
-3.3646970437
21
-22.9848344989
31
0.0000000000
11
-3.3310514847
21
-22.8764830646
31
0.0000000000
11
-3.3374453792
21
-22.7621010374
31
0.0000000000
11
-3.3815445607
21
-22.6675590346
31
0.0000000000
11
-3.4466127062
21
-22.6113753513
31
0.0000000000
0
SPLINE
5
3CF
100
AcDbEntity
8
0
100
AcDbSpline
62
7
6
CONTINUOUS
70
0
71
3
72
10
73
6
74
4
42
0.0000001000
43
0.0000001000
44
0.0000000001
12
-0.0000176279
22
0.1220768738
32
0.0000000000
13
0.0428900888
23
0.1142732491
33
0.0000000000
40
0.0000000000
40
0.0000000000
40
0.0000000000
40
0.0000000000
40
0.1902510213
40
0.6215030793
40
1.0000000000
40
1.0000000000
40
1.0000000000
40
1.0000000000
10
25.8291561426
20
3.7139142726
30
0.0000000000
10
25.8291550247
20
3.7216560226
30
0.0000000000
10
25.8294856513
20
3.7469391834
30
0.0000000000
10
25.8321136660
20
3.7875092638
30
0.0000000000
10
25.8381233809
20
3.8202683107
30
0.0000000000
10
25.8435346364
20
3.8346856683
30
0.0000000000
11
25.8291561426
21
3.7139142726
31
0.0000000000
11
25.8294795139
21
3.7371286596
31
0.0000000000
11
25.8333532927
21
3.7896232979
31
0.0000000000
11
25.8435346364
21
3.8346856683
31
0.0000000000
0
SPLINE
5
3D0
100
AcDbEntity
8
0
100
AcDbSpline
62
7
6
CONTINUOUS
70
0
71
3
72
9
73
5
74
3
42
0.0000001000
43
0.0000001000
44
0.0000000001
12
-0.1323319935
22
0.0679158574
32
0.0000000000
13
-0.0654430802
23
0.1318953171
33
0.0000000000
40
0.0000000000
40
0.0000000000
40
0.0000000000
40
0.0000000000
40
0.1981784653
40
1.0000000000
40
1.0000000000
40
1.0000000000
40
1.0000000000
10
-37.3821825273
20
34.8080530486
30
0.0000000000
10
-37.3909243111
20
34.8125395354
30
0.0000000000
10
-37.4334429204
20
34.8381346890
30
0.0000000000
10
-37.4655538108
20
34.8786316039
30
0.0000000000
10
-37.4830450345
20
34.9138837725
30
0.0000000000
11
-37.3821825273
21
34.8080530486
31
0.0000000000
11
-37.4073680965
21
34.8232696142
31
0.0000000000
11
-37.4830450345
21
34.9138837725
31
0.0000000000
0
SPLINE
5
3D1
100
AcDbEntity
8
0
100
AcDbSpline
62
7
6
CONTINUOUS
70
0
71
3
72
8
73
4
74
2
42
0.0000001000
43
0.0000001000
44
0.0000000001
12
-0.0117386515
22
-0.0283816917
32
0.0000000000
13
-0.0054491021
23
-0.0303530555
33
0.0000000000
40
0.0000000000
40
0.0000000000
40
0.0000000000
40
0.0000000000
40
1.0000000000
40
1.0000000000
40
1.0000000000
40
1.0000000000
10
-37.2886486773
20
34.7610415564
30
0.0000000000
10
-37.2925615612
20
34.7515809924
30
0.0000000000
10
-37.2952535788
20
34.7416241035
30
0.0000000000
10
-37.2970699461
20
34.7315064183
30
0.0000000000
11
-37.2886486773
21
34.7610415564
31
0.0000000000
11
-37.2970699461
21
34.7315064183
31
0.0000000000
0
SPLINE
5
3D2
100
AcDbEntity
8
0
100
AcDbSpline
62
7
6
CONTINUOUS
70
0
71
3
72
8
73
4
74
2
42
0.0000001000
43
0.0000001000
44
0.0000000001
12
-0.0052713679
22
-0.0293630254
32
0.0000000000
13
-0.0012921894
23
-0.0293546241
33
0.0000000000
40
0.0000000000
40
0.0000000000
40
0.0000000000
40
0.0000000000
40
1.0000000000
40
1.0000000000
40
1.0000000000
40
1.0000000000
10
-37.2970699461
20
34.7315064183
30
0.0000000000
10
-37.2988270688
20
34.7217187432
30
0.0000000000
10
-37.2997647320
20
34.7117805902
30
0.0000000000
10
-37.3001954618
20
34.7019957155
30
0.0000000000
11
-37.2970699461
21
34.7315064183
31
0.0000000000
11
-37.3001954618
21
34.7019957155
31
0.0000000000
0
SPLINE
5
3D3
100
AcDbEntity
8
0
100
AcDbSpline
62
7
6
CONTINUOUS
70
0
71
3
72
8
73
4
74
2
42
0.0000001000
43
0.0000001000
44
0.0000000001
12
0.9979204909
22
-0.5537176404
32
0.0000000000
13
0.9984501636
23
-0.5527681945
33
0.0000000000
40
0.0000000000
40
0.0000000000
40
0.0000000000
40
0.0000000000
40
1.0000000000
40
1.0000000000
40
1.0000000000
40
1.0000000000
10
-50.8475755841
20
62.3829620548
30
0.0000000000
10
-50.5149354205
20
62.1983895080
30
0.0000000000
10
-50.1822068046
20
62.0139753179
30
0.0000000000
10
-49.8493900834
20
61.8297192531
30
0.0000000000
11
-50.8475755841
21
62.3829620548
31
0.0000000000
11
-49.8493900834
21
61.8297192531
31
0.0000000000
0
SPLINE
5
3D4
100
AcDbEntity
8
0
100
AcDbSpline
62
7
6
CONTINUOUS
70
0
71
3
72
11
73
7
74
5
42
0.0000001000
43
0.0000001000
44
0.0000000001
12
94.8244181793
22
-52.4972846383
32
0.0000000000
13
98.8192013164
23
-44.5234614926
33
0.0000000000
40
0.0000000000
40
0.0000000000
40
0.0000000000
40
0.0000000000
40
0.2361691329
40
0.4868610594
40
0.7414919542
40
1.0000000000
40
1.0000000000
40
1.0000000000
40
1.0000000000
10
-49.8493900834
20
61.8297192531
30
0.0000000000
10
-42.3845232103
20
57.6969731889
30
0.0000000000
10
-26.9043780329
20
49.3413351169
30
0.0000000000
10
-3.0664989116
20
37.1136142847
30
0.0000000000
10
21.7458879199
20
25.0305051017
30
0.0000000000
10
38.5751088443
20
17.2505844115
30
0.0000000000
10
47.0902950498
20
13.4140267378
30
0.0000000000
11
-49.8493900834
21
61.8297192531
31
0.0000000000
11
-27.3257341308
21
49.6675150569
31
0.0000000000
11
-3.1513923146
21
37.2620979400
31
0.0000000000
11
21.6594248104
21
25.1749355863
31
0.0000000000
11
47.0902950498
21
13.4140267378
31
0.0000000000
0
SPLINE
5
3D5
100
AcDbEntity
8
0
100
AcDbSpline
62
7
6
CONTINUOUS
70
0
71
3
72
11
73
7
74
5
42
0.0000001000
43
0.0000001000
44
0.0000000001
12
0.0000000000
22
-1.2867722014
32
0.0000000000
13
-1.2075211024
23
-0.4714524872
33
0.0000000000
40
0.0000000000
40
0.0000000000
40
0.0000000000
40
0.0000000000
40
0.3115335678
40
0.5956286168
40
0.8498800886
40
1.0000000000
40
1.0000000000
40
1.0000000000
40
1.0000000000
10
48.5027580511
20
-59.0217497655
30
0.0000000000
10
48.5027580511
20
-59.1553740104
30
0.0000000000
10
48.4762368548
20
-59.4123381823
30
0.0000000000
10
48.3388622894
20
-59.7565764375
30
0.0000000000
10
48.1344290384
20
-59.9803198072
30
0.0000000000
10
47.9791926899
20
-60.0632117772
30
0.0000000000
10
47.9187683696
20
-60.0868032457
30
0.0000000000
11
48.5027580511
21
-59.0217497655
31
0.0000000000
11
48.4559323534
21
-59.4198782668
31
0.0000000000
11
48.3137539109
21
-59.7566623325
31
0.0000000000
11
48.0896072959
21
-59.9949780866
31
0.0000000000
11
47.9187683696
21
-60.0868032457
31
0.0000000000
0
SPLINE
5
3D6
100
AcDbEntity
8
0
100
AcDbSpline
62
7
6
CONTINUOUS
70
0
71
3
72
13
73
9
74
7
42
0.0000001000
43
0.0000001000
44
0.0000000001
12
2.5565075844
22
-1.1518466601
32
0.0000000000
13
0.0000000000
23
-2.8040117256
33
0.0000000000
40
0.0000000000
40
0.0000000000
40
0.0000000000
40
0.0000000000
40
0.1508239988
40
0.3187148117
40
0.4928030668
40
0.6688586591
40
0.8421232388
40
1.0000000000
40
1.0000000000
40
1.0000000000
40
1.0000000000
10
47.0902950498
20
13.4140267378
30
0.0000000000
10
47.2188226154
20
13.3561180314
30
0.0000000000
10
47.4749710426
20
13.1982723810
30
0.0000000000
10
47.8121893850
20
12.8808162720
30
0.0000000000
10
48.1022089762
20
12.4901325687
30
0.0000000000
10
48.3256935597
20
12.0523646146
30
0.0000000000
10
48.4671958994
20
11.5974521249
30
0.0000000000
10
48.5027580511
20
11.2874505496
30
0.0000000000
10
48.5027580511
20
11.1398877863
30
0.0000000000
11
47.0902950498
21
13.4140267378
31
0.0000000000
11
47.4527321715
21
13.1960952955
31
0.0000000000
11
47.7976916789
21
12.8757435091
31
0.0000000000
11
48.0896072959
21
12.4845002214
31
0.0000000000
11
48.3137539109
21
12.0446588738
31
0.0000000000
11
48.4559323534
21
11.5800925976
31
0.0000000000
11
48.5027580511
21
11.1398877863
31
0.0000000000
0
SPLINE
5
3D7
100
AcDbEntity
8
0
100
AcDbSpline
62
7
6
CONTINUOUS
70
0
71
3
72
8
73
4
74
2
42
0.0000001000
43
0.0000001000
44
0.0000000001
12
0.0515175692
22
-0.0195951787
32
0.0000000000
13
0.0529997535
23
-0.0160417632
33
0.0000000000
40
0.0000000000
40
0.0000000000
40
0.0000000000
40
0.0000000000
40
1.0000000000
40
1.0000000000
40
1.0000000000
40
1.0000000000
10
27.2310908839
20
-39.0351440316
30
0.0000000000
10
27.2482634070
20
-39.0416757578
30
0.0000000000
10
27.2657100671
20
-39.0476628582
30
0.0000000000
10
27.2833766516
20
-39.0530101126
30
0.0000000000
11
27.2310908839
21
-39.0351440316
31
0.0000000000
11
27.2833766516
21
-39.0530101126
31
0.0000000000
0
SPLINE
5
3D8
100
AcDbEntity
8
0
100
AcDbSpline
62
7
6
CONTINUOUS
70
0
71
3
72
11
73
7
74
5
42
0.0000001000
43
0.0000001000
44
0.0000000001
12
66.6203908857
22
-29.4879962865
32
0.0000000000
13
63.7413851154
23
-35.2824940356
33
0.0000000000
40
0.0000000000
40
0.0000000000
40
0.0000000000
40
0.0000000000
40
0.2378416826
40
0.4860823616
40
0.7414550702
40
1.0000000000
40
1.0000000000
40
1.0000000000
40
1.0000000000
10
-38.6237936217
20
37.6076674355
30
0.0000000000
10
-33.3420916676
20
35.2698425513
30
0.0000000000
10
-22.6074874620
20
30.3560029979
30
0.0000000000
10
-6.4136981437
20
22.4796645378
30
0.0000000000
10
10.0483143095
20
14.0159166293
30
0.0000000000
10
21.0269622943
20
8.0782626701
30
0.0000000000
10
26.5202996086
20
5.0375593550
30
0.0000000000
11
-38.6237936217
21
37.6076674355
31
0.0000000000
11
-22.8654602879
21
30.4013391985
31
0.0000000000
11
-6.5989978803
21
22.4964283333
31
0.0000000000
11
9.9497799885
21
13.9942005553
31
0.0000000000
11
26.5202996086
21
5.0375593550
31
0.0000000000
0
SPLINE
5
3D9
100
AcDbEntity
8
0
100
AcDbSpline
62
7
6
CONTINUOUS
70
0
71
3
72
8
73
4
74
2
42
0.0000001000
43
0.0000001000
44
0.0000000001
12
0.0366623532
22
-0.0202935543
32
0.0000000000
13
0.0366614663
23
-0.0202951443
33
0.0000000000
40
0.0000000000
40
0.0000000000
40
0.0000000000
40
0.0000000000
40
1.0000000000
40
1.0000000000
40
1.0000000000
40
1.0000000000
10
26.5202996086
20
5.0375593550
30
0.0000000000
10
26.5325203931
20
5.0307948369
30
0.0000000000
10
26.5447410296
20
5.0240300538
30
0.0000000000
10
26.5569615184
20
5.0172650057
30
0.0000000000
11
26.5202996086
21
5.0375593550
31
0.0000000000
11
26.5569615184
21
5.0172650057
31
0.0000000000
0
SPLINE
5
3DA
100
AcDbEntity
8
0
100
AcDbSpline
62
7
6
CONTINUOUS
70
0
71
3
72
9
73
5
74
3
42
0.0000001000
43
0.0000001000
44
0.0000000001
12
0.3033593420
22
0.1476527739
32
0.0000000000
13
0.3164076471
23
-0.1153454050
33
0.0000000000
40
0.0000000000
40
0.0000000000
40
0.0000000000
40
0.0000000000
40
0.3771064766
40
1.0000000000
40
1.0000000000
40
1.0000000000
40
1.0000000000
10
-38.9961279736
20
37.6236891807
30
0.0000000000
10
-38.9579950494
20
37.6422494531
30
0.0000000000
10
-38.8462163109
20
37.6724017712
30
0.0000000000
10
-38.7338303470
20
37.6494845123
30
0.0000000000
10
-38.6681342556
20
37.6255352104
30
0.0000000000
11
-38.9961279736
21
37.6236891807
31
0.0000000000
11
-38.8736037239
21
37.6574437349
31
0.0000000000
11
-38.6681342556
21
37.6255352104
31
0.0000000000
0
SPLINE
5
3DB
100
AcDbEntity
8
0
100
AcDbSpline
62
7
6
CONTINUOUS
70
0
71
3
72
8
73
4
74
2
42
0.0000001000
43
0.0000001000
44
0.0000000001
12
0.0449069775
22
-0.0163706963
32
0.0000000000
13
0.0435710234
23
-0.0192418212
33
0.0000000000
40
0.0000000000
40
0.0000000000
40
0.0000000000
40
0.0000000000
40
1.0000000000
40
1.0000000000
40
1.0000000000
40
1.0000000000
10
-38.6681342556
20
37.6255352104
30
0.0000000000
10
-38.6531652631
20
37.6200783116
30
0.0000000000
10
-38.6384199479
20
37.6141191568
30
0.0000000000
10
-38.6238962734
20
37.6077052164
30
0.0000000000
11
-38.6681342556
21
37.6255352104
31
0.0000000000
11
-38.6238962734
21
37.6077052164
31
0.0000000000
0
SPLINE
5
3DC
100
AcDbEntity
8
0
100
AcDbSpline
62
7
6
CONTINUOUS
70
0
71
3
72
8
73
4
74
2
42
0.0000001000
43
0.0000001000
44
0.0000000001
12
0.0001818397
22
-0.1869651579
32
0.0000000000
13
-0.0359689822
23
-0.1842438610
33
0.0000000000
40
0.0000000000
40
0.0000000000
40
0.0000000000
40
0.0000000000
40
1.0000000000
40
1.0000000000
40
1.0000000000
40
1.0000000000
10
27.3192267836
20
-38.7944450059
30
0.0000000000
10
27.3192873968
20
-38.8567667252
30
0.0000000000
10
27.3143321852
20
-38.9193570185
30
0.0000000000
10
27.3023425245
20
-38.9807716389
30
0.0000000000
11
27.3192267836
21
-38.7944450059
31
0.0000000000
11
27.3023425245
21
-38.9807716389
31
0.0000000000
0
SPLINE
5
3DD
100
AcDbEntity
8
0
100
AcDbSpline
62
7
6
CONTINUOUS
70
0
71
3
72
9
73
5
74
3
42
0.0000001000
43
0.0000001000
44
0.0000000001
12
-0.0522161354
22
-0.2674666284
32
0.0000000000
13
-0.1600089814
23
-0.2207297826
33
0.0000000000
40
0.0000000000
40
0.0000000000
40
0.0000000000
40
0.0000000000
40
0.3604294692
40
1.0000000000
40
1.0000000000
40
1.0000000000
40
1.0000000000
10
27.3023425245
20
-38.9807716389
30
0.0000000000
10
27.2960691132
20
-39.0129059238
30
0.0000000000
10
27.2733205088
20
-39.1011684491
30
0.0000000000
10
27.2335213961
20
-39.1853607818
30
0.0000000000
10
27.1994090531
20
-39.2324182032
30
0.0000000000
11
27.3023425245
21
-38.9807716389
31
0.0000000000
11
27.2774555571
21
-39.0760019978
31
0.0000000000
11
27.1994090531
21
-39.2324182032
31
0.0000000000
0
SPLINE
5
3DE
100
AcDbEntity
8
0
100
AcDbSpline
62
7
6
CONTINUOUS
70
0
71
3
72
9
73
5
74
3
42
0.0000001000
43
0.0000001000
44
0.0000000001
12
-0.1118961334
22
-0.1543588927
32
0.0000000000
13
-0.1707514686
23
-0.0885196827
33
0.0000000000
40
0.0000000000
40
0.0000000000
40
0.0000000000
40
0.0000000000
40
0.4158075061
40
1.0000000000
40
1.0000000000
40
1.0000000000
40
1.0000000000
10
27.1994090531
20
-39.2324182032
30
0.0000000000
10
27.1838999690
20
-39.2538127320
30
0.0000000000
10
27.1422972345
20
-39.3018905271
30
0.0000000000
10
27.0894284425
20
-39.3390657055
30
0.0000000000
10
27.0561778671
20
-39.3563032169
30
0.0000000000
11
27.1994090531
21
-39.2324182032
31
0.0000000000
11
27.1473546555
21
-39.2919099306
31
0.0000000000
11
27.0561778671
21
-39.3563032169
31
0.0000000000
0
SPLINE
5
3DF
100
AcDbEntity
8
0
100
AcDbSpline
62
7
6
CONTINUOUS
70
0
71
3
72
9
73
5
74
3
42
0.0000001000
43
0.0000001000
44
0.0000000001
12
0.1565746765
22
-0.0868116606
32
0.0000000000
13
0.1403986640
23
-0.1096323857
33
0.0000000000
40
0.0000000000
40
0.0000000000
40
0.0000000000
40
0.0000000000
40
0.3937653459
40
1.0000000000
40
1.0000000000
40
1.0000000000
40
1.0000000000
10
26.5570360149
20
5.0172394222
30
0.0000000000
10
26.5775872421
20
5.0058449477
30
0.0000000000
10
26.6287775983
20
4.9750630349
30
0.0000000000
10
26.6771949832
20
4.9405061477
30
0.0000000000
10
26.7055664951
20
4.9183518305
30
0.0000000000
11
26.5570360149
21
5.0172394222
31
0.0000000000
11
26.6174712663
21
4.9810179325
31
0.0000000000
11
26.7055664951
21
4.9183518305
31
0.0000000000
0
SPLINE
5
3E0
100
AcDbEntity
8
0
100
AcDbSpline
62
7
6
CONTINUOUS
70
0
71
3
72
9
73
5
74
3
42
0.0000001000
43
0.0000001000
44
0.0000000001
12
0.2774051119
22
-0.2166159090
32
0.0000000000
13
0.2183018694
23
-0.2756788826
33
0.0000000000
40
0.0000000000
40
0.0000000000
40
0.0000000000
40
0.0000000000
40
0.6559891690
40
1.0000000000
40
1.0000000000
40
1.0000000000
40
1.0000000000
10
26.7055664951
20
4.9183518305
30
0.0000000000
10
26.7662247447
20
4.8709859338
30
0.0000000000
10
26.8518588500
20
4.7903858475
30
0.0000000000
10
26.9279453956
20
4.7011366215
30
0.0000000000
10
26.9529781314
20
4.6695244476
30
0.0000000000
11
26.7055664951
21
4.9183518305
31
0.0000000000
11
26.8744663129
21
4.7615184532
31
0.0000000000
11
26.9529781314
21
4.6695244476
31
0.0000000000
0
SPLINE
5
3E1
100
AcDbEntity
8
0
100
AcDbSpline
62
7
6
CONTINUOUS
70
0
71
3
72
10
73
6
74
4
42
0.0000001000
43
0.0000001000
44
0.0000000001
12
0.4616418655
22
-0.5829767469
32
0.0000000000
13
0.1767722426
23
-0.7223225718
33
0.0000000000
40
0.0000000000
40
0.0000000000
40
0.0000000000
40
0.0000000000
40
0.3340746908
40
0.8373330567
40
1.0000000000
40
1.0000000000
40
1.0000000000
40
1.0000000000
10
26.9529781314
20
4.6695244476
30
0.0000000000
10
27.0043857526
20
4.6046051888
30
0.0000000000
10
27.1211651225
20
4.4322764211
30
0.0000000000
10
27.2237237350
20
4.2051068480
30
0.0000000000
10
27.2692548023
20
4.0463090131
30
0.0000000000
10
27.2788398024
20
4.0071430115
30
0.0000000000
11
26.9529781314
21
4.6695244476
31
0.0000000000
11
27.0926505085
21
4.4642481596
31
0.0000000000
11
27.2456524881
21
4.1234400581
31
0.0000000000
11
27.2788398024
21
4.0071430115
31
0.0000000000
0
SPLINE
5
3E2
100
AcDbEntity
8
0
100
AcDbSpline
62
7
6
CONTINUOUS
70
0
71
3
72
9
73
5
74
3
42
0.0000001000
43
0.0000001000
44
0.0000000001
12
0.0764190720
22
-0.3122618110
32
0.0000000000
13
0.0002111885
23
-0.3228072112
33
0.0000000000
40
0.0000000000
40
0.0000000000
40
0.0000000000
40
0.0000000000
40
0.7158567398
40
1.0000000000
40
1.0000000000
40
1.0000000000
40
1.0000000000
10
27.2788398024
20
4.0071430115
30
0.0000000000
10
27.2970748383
20
3.9326314374
30
0.0000000000
10
27.3147770309
20
3.8266424810
30
0.0000000000
10
27.3192243126
20
3.7189721514
30
0.0000000000
10
27.3192443152
20
3.6883976536
30
0.0000000000
11
27.2788398024
21
4.0071430115
31
0.0000000000
11
27.3156268154
21
3.7800239987
31
0.0000000000
11
27.3192443152
21
3.6883976536
31
0.0000000000
0
SPLINE
5
3E3
100
AcDbEntity
8
0
100
AcDbSpline
62
7
6
CONTINUOUS
70
0
71
3
72
11
73
7
74
5
42
0.0000001000
43
0.0000001000
44
0.0000000001
12
1.0623779442
22
-0.4790530471
32
0.0000000000
13
1.0866319456
23
0.4248015334
33
0.0000000000
40
0.0000000000
40
0.0000000000
40
0.0000000000
40
0.0000000000
40
0.1330026478
40
0.5006860266
40
0.8507612128
40
1.0000000000
40
1.0000000000
40
1.0000000000
40
1.0000000000
10
43.7156873546
20
-61.2316344286
30
0.0000000000
10
43.7627870478
20
-61.2528728698
30
0.0000000000
10
43.9436677345
20
-61.3249803644
30
0.0000000000
10
44.2704510481
20
-61.3921161848
30
0.0000000000
10
44.6096494042
20
-61.3622009492
30
0.0000000000
10
44.7952719040
20
-61.3032528261
30
0.0000000000
10
44.8493277818
20
-61.2821205375
30
0.0000000000
11
43.7156873546
21
-61.2316344286
31
0.0000000000
11
43.8596926401
21
-61.2888820469
31
0.0000000000
11
44.2785567600
21
-61.3721433940
31
0.0000000000
11
44.6834425081
21
-61.3347635890
31
0.0000000000
11
44.8493277818
21
-61.2821205375
31
0.0000000000
0
SPLINE
5
3E4
100
AcDbEntity
8
0
100
AcDbSpline
62
7
6
CONTINUOUS
70
0
71
3
72
11
73
7
74
5
42
0.0000001000
43
0.0000001000
44
0.0000000001
12
95.2091026309
22
-52.7492789865
32
0.0000000000
13
99.1998475550
23
-44.7958529337
33
0.0000000000
40
0.0000000000
40
0.0000000000
40
0.0000000000
40
0.0000000000
40
0.2440670950
40
0.4941274365
40
0.7480625695
40
1.0000000000
40
1.0000000000
40
1.0000000000
40
1.0000000000
10
-53.9824387533
20
-12.3825010580
30
0.0000000000
10
-46.2366357196
20
-16.6739554874
30
0.0000000000
10
-30.4592151452
20
-25.1907959924
30
0.0000000000
10
-6.3070999752
20
-37.5766823832
30
0.0000000000
10
18.3512400280
20
-49.5883510777
30
0.0000000000
10
35.0081148415
20
-57.2996323382
30
0.0000000000
10
43.3388330744
20
-61.0615496998
30
0.0000000000
11
-53.9824387533
21
-12.3825010580
31
0.0000000000
11
-30.6076180325
21
-25.0056598201
31
0.0000000000
11
-6.3908224534
21
-37.4297195552
31
0.0000000000
11
18.4555720638
21
-49.5377065756
31
0.0000000000
11
43.3388330744
21
-61.0615496998
31
0.0000000000
0
SPLINE
5
3E5
100
AcDbEntity
8
0
100
AcDbSpline
62
7
6
CONTINUOUS
70
0
71
3
72
8
73
4
74
2
42
0.0000001000
43
0.0000001000
44
0.0000000001
12
0.3767091426
22
-0.1701112226
32
0.0000000000
13
0.3767570512
23
-0.1700042427
33
0.0000000000
40
0.0000000000
40
0.0000000000
40
0.0000000000
40
0.0000000000
40
1.0000000000
40
1.0000000000
40
1.0000000000
40
1.0000000000
10
43.3388330744
20
-61.0615496998
30
0.0000000000
10
43.4644027886
20
-61.1182534407
30
0.0000000000
10
43.5899804934
20
-61.1749393472
30
0.0000000000
10
43.7155661771
20
-61.2316074281
30
0.0000000000
11
43.3388330744
21
-61.0615496998
31
0.0000000000
11
43.7155661771
21
-61.2316074281
31
0.0000000000
0
SPLINE
5
3E6
100
AcDbEntity
8
0
100
AcDbSpline
62
7
6
CONTINUOUS
70
0
71
3
72
8
73
4
74
2
42
0.0000001000
43
0.0000001000
44
0.0000000001
12
-0.0000482794
22
-0.3398697154
32
0.0000000000
13
0.0533000555
23
-0.3367850820
33
0.0000000000
40
0.0000000000
40
0.0000000000
40
0.0000000000
40
0.0000000000
40
1.0000000000
40
1.0000000000
40
1.0000000000
40
1.0000000000
10
-55.1159029916
20
-10.3611775251
30
0.0000000000
10
-55.1159190848
20
-10.4744674302
30
0.0000000000
10
-55.1064016178
20
-10.5879910857
30
0.0000000000
10
-55.0886349327
20
-10.7002527797
30
0.0000000000
11
-55.1159029916
21
-10.3611775251
31
0.0000000000
11
-55.0886349327
21
-10.7002527797
31
0.0000000000
0
SPLINE
5
3E7
100
AcDbEntity
8
0
100
AcDbSpline
62
7
6
CONTINUOUS
70
0
71
3
72
9
73
5
74
3
42
0.0000001000
43
0.0000001000
44
0.0000000001
12
0.0541382731
22
-0.3420814960
32
0.0000000000
13
0.1017975463
23
-0.3303449762
33
0.0000000000
40
0.0000000000
40
0.0000000000
40
0.0000000000
40
0.0000000000
40
0.4429031720
40
1.0000000000
40
1.0000000000
40
1.0000000000
40
1.0000000000
10
-55.0886349327
20
-10.7002527797
30
0.0000000000
10
-55.0806422617
20
-10.7507557729
30
0.0000000000
10
-55.0588267461
20
-10.8642062934
30
0.0000000000
10
-55.0290966119
20
-10.9756606446
30
0.0000000000
10
-55.0101929151
20
-11.0370053574
30
0.0000000000
11
-55.0886349327
21
-10.7002527797
31
0.0000000000
11
-55.0597653825
21
-10.8508593887
31
0.0000000000
11
-55.0101929151
21
-11.0370053574
31
0.0000000000
0
SPLINE
5
3E8
100
AcDbEntity
8
0
100
AcDbSpline
62
7
6
CONTINUOUS
70
0
71
3
72
9
73
5
74
3
42
0.0000001000
43
0.0000001000
44
0.0000000001
12
0.2836255262
22
-0.9203980948
32
0.0000000000
13
0.6042880540
23
-0.7502305636
33
0.0000000000
40
0.0000000000
40
0.0000000000
40
0.0000000000
40
0.0000000000
40
0.4043310079
40
1.0000000000
40
1.0000000000
40
1.0000000000
40
1.0000000000
10
-55.0101929151
20
-11.0370053574
30
0.0000000000
10
-54.9719667168
20
-11.1610538538
30
0.0000000000
10
-54.8537483576
20
-11.4603071739
30
0.0000000000
10
-54.6828005859
20
-11.7344927690
30
0.0000000000
10
-54.5628153673
20
-11.8834557969
30
0.0000000000
11
-55.0101929151
21
-11.0370053574
31
0.0000000000
11
-54.8677476279
21
-11.3989504859
31
0.0000000000
11
-54.5628153673
21
-11.8834557969
31
0.0000000000
0
SPLINE
5
3E9
100
AcDbEntity
8
0
100
AcDbSpline
62
7
6
CONTINUOUS
70
0
71
3
72
8
73
4
74
2
42
0.0000001000
43
0.0000001000
44
0.0000000001
12
0.3402157181
22
-0.4223817239
32
0.0000000000
13
0.4380795531
23
-0.3218350730
33
0.0000000000
40
0.0000000000
40
0.0000000000
40
0.0000000000
40
0.0000000000
40
1.0000000000
40
1.0000000000
40
1.0000000000
40
1.0000000000
10
-54.5628153673
20
-11.8834557969
30
0.0000000000
10
-54.4494101279
20
-12.0242497049
30
0.0000000000
10
-54.3197848004
20
-12.1522146880
30
0.0000000000
10
-54.1737582827
20
-12.2594930457
30
0.0000000000
11
-54.5628153673
21
-11.8834557969
31
0.0000000000
11
-54.1737582827
21
-12.2594930457
31
0.0000000000
0
SPLINE
5
3EA
100
AcDbEntity
8
0
100
AcDbSpline
62
7
6
CONTINUOUS
70
0
71
3
72
8
73
4
74
2
42
0.0000001000
43
0.0000001000
44
0.0000000001
12
0.1834558960
22
-0.1347758444
32
0.0000000000
13
0.1992101676
23
-0.1103798116
33
0.0000000000
40
0.0000000000
40
0.0000000000
40
0.0000000000
40
0.0000000000
40
1.0000000000
40
1.0000000000
40
1.0000000000
40
1.0000000000
10
-54.1737582827
20
-12.2594930457
30
0.0000000000
10
-54.1126063174
20
-12.3044183271
30
0.0000000000
10
-54.0485780616
20
-12.3457157777
30
0.0000000000
10
-53.9821746724
20
-12.3825090483
30
0.0000000000
11
-54.1737582827
21
-12.2594930457
31
0.0000000000
11
-53.9821746724
21
-12.3825090483
31
0.0000000000
0
SPLINE
5
3EB
100
AcDbEntity
8
0
100
AcDbSpline
62
7
6
CONTINUOUS
70
0
71
3
72
11
73
7
74
5
42
0.0000001000
43
0.0000001000
44
0.0000000001
12
-1.2691477429
22
-0.7927031866
32
0.0000000000
13
0.0001461671
23
-1.4937168131
33
0.0000000000
40
0.0000000000
40
0.0000000000
40
0.0000000000
40
0.0000000000
40
0.1947652039
40
0.4979017546
40
0.8208568070
40
1.0000000000
40
1.0000000000
40
1.0000000000
40
1.0000000000
10
-54.4752275044
20
60.7058244878
30
0.0000000000
10
-54.5576227774
20
60.6543608219
30
0.0000000000
10
-54.7528136642
20
60.4981977756
30
0.0000000000
10
-54.9884289386
20
60.1560545131
30
0.0000000000
10
-55.0994183255
20
59.7658600798
30
0.0000000000
10
-55.1159714023
20
59.5157362970
30
0.0000000000
10
-55.1159626740
20
59.4265398972
30
0.0000000000
11
-54.4752275044
21
60.7058244878
31
0.0000000000
11
-54.7023302536
21
60.5243274273
31
0.0000000000
11
-54.9608420210
21
60.1543699582
31
0.0000000000
11
-55.0974567711
21
59.6933508963
31
0.0000000000
11
-55.1159626740
21
59.4265398972
31
0.0000000000
0
SPLINE
5
3EC
100
AcDbEntity
8
0
100
AcDbSpline
62
7
6
CONTINUOUS
70
0
71
3
72
10
73
6
74
4
42
0.0000001000
43
0.0000001000
44
0.0000000001
12
0.7694970524
22
0.4748391414
32
0.0000000000
13
0.7846868517
23
-0.4354003711
33
0.0000000000
40
0.0000000000
40
0.0000000000
40
0.0000000000
40
0.0000000000
40
0.2637171459
40
0.6098287637
40
1.0000000000
40
1.0000000000
40
1.0000000000
40
1.0000000000
10
-51.7057127357
20
62.4307330978
30
0.0000000000
10
-51.6380695469
20
62.4724741721
30
0.0000000000
10
-51.4632725374
20
62.5405352193
30
0.0000000000
10
-51.1562134568
20
62.5252595807
30
0.0000000000
10
-50.9496296638
20
62.4395889551
30
0.0000000000
10
-50.8475755841
20
62.3829620548
30
0.0000000000
11
-51.7057127357
21
62.4307330978
31
0.0000000000
11
-51.4845600471
21
62.5168693722
31
0.0000000000
11
-51.1740510517
21
62.5094869072
31
0.0000000000
11
-50.8475755841
21
62.3829620548
31
0.0000000000
0
SPLINE
5
3ED
100
AcDbEntity
8
0
100
AcDbSpline
62
7
6
CONTINUOUS
70
0
71
3
72
9
73
5
74
3
42
0.0000001000
43
0.0000001000
44
0.0000000001
12
-2.1369023130
22
-1.3309859455
32
0.0000000000
13
-2.1369018841
23
-1.3309866342
33
0.0000000000
40
0.0000000000
40
0.0000000000
40
0.0000000000
40
0.0000000000
40
0.6503928212
40
1.0000000000
40
1.0000000000
40
1.0000000000
40
1.0000000000
10
-51.7058071128
20
62.4308894072
30
0.0000000000
10
-52.1690824209
20
62.1423348392
30
0.0000000000
10
-52.8813831454
20
61.6986727827
30
0.0000000000
10
-53.5936837984
20
61.2550106114
30
0.0000000000
10
-53.8427092114
20
61.0999031174
30
0.0000000000
11
-51.7058071128
21
62.4308894072
31
0.0000000000
11
-53.0956329462
21
61.5652255574
31
0.0000000000
11
-53.8427092114
21
61.0999031174
31
0.0000000000
0
SPLINE
5
3EE
100
AcDbEntity
8
0
100
AcDbSpline
62
7
6
CONTINUOUS
70
0
71
3
72
8
73
4
74
2
42
0.0000001000
43
0.0000001000
44
0.0000000001
12
-0.6315516218
22
-0.3933670393
32
0.0000000000
13
-0.6315515843
23
-0.3933670994
33
0.0000000000
40
0.0000000000
40
0.0000000000
40
0.0000000000
40
0.0000000000
40
1.0000000000
40
1.0000000000
40
1.0000000000
40
1.0000000000
10
-53.8427092114
20
61.0999031174
30
0.0000000000
10
-54.0532264186
20
60.9687807710
30
0.0000000000
10
-54.2637436197
20
60.8376584145
30
0.0000000000
10
-54.4742608144
20
60.7065360480
30
0.0000000000
11
-53.8427092114
21
61.0999031174
31
0.0000000000
11
-54.4742608144
21
60.7065360480
31
0.0000000000
0
SPLINE
5
3EF
100
AcDbEntity
8
0
100
AcDbSpline
62
7
6
CONTINUOUS
70
0
71
3
72
13
73
9
74
7
42
0.0000001000
43
0.0000001000
44
0.0000000001
12
-0.0002954147
22
0.4872499541
32
0.0000000000
13
0.2892655879
23
0.3926856820
33
0.0000000000
40
0.0000000000
40
0.0000000000
40
0.0000000000
40
0.0000000000
40
0.1880314580
40
0.3727264490
40
0.5524622670
40
0.7259814484
40
0.8926412416
40
1.0000000000
40
1.0000000000
40
1.0000000000
40
1.0000000000
10
-39.2726526574
20
37.0336397578
30
0.0000000000
10
-39.2726711732
20
37.0641791976
30
0.0000000000
10
-39.2704251457
20
37.1247503559
30
0.0000000000
10
-39.2594584534
20
37.2139266013
30
0.0000000000
10
-39.2404115224
20
37.2993586862
30
0.0000000000
10
-39.2129428692
20
37.3794194950
30
0.0000000000
10
-39.1806844104
20
37.4448097377
30
0.0000000000
10
-39.1561901246
20
37.4820987094
30
0.0000000000
10
-39.1458383932
20
37.4961514585
30
0.0000000000
11
-39.2726526574
21
37.0336397578
31
0.0000000000
11
-39.2690936729
21
37.1251889421
31
0.0000000000
11
-39.2579039106
21
37.2144832023
31
0.0000000000
11
-39.2385977714
21
37.2999049719
31
0.0000000000
11
-39.2108769454
21
37.3797785575
31
0.0000000000
11
-39.1746554695
21
37.4524576833
31
0.0000000000
11
-39.1458383932
21
37.4961514585
31
0.0000000000
0
SPLINE
5
3F0
100
AcDbEntity
8
0
100
AcDbSpline
62
7
6
CONTINUOUS
70
0
71
3
72
10
73
6
74
4
42
0.0000001000
43
0.0000001000
44
0.0000000001
12
0.1037115937
22
0.1407912300
32
0.0000000000
13
0.1517094046
23
0.0871285375
33
0.0000000000
40
0.0000000000
40
0.0000000000
40
0.0000000000
40
0.0000000000
40
0.1468737036
40
0.5781586284
40
1.0000000000
40
1.0000000000
40
1.0000000000
40
1.0000000000
10
-39.1458383932
20
37.4961514585
30
0.0000000000
10
-39.1407608912
20
37.5030443016
30
0.0000000000
10
-39.1200585886
20
37.5296501652
30
0.0000000000
10
-39.0792975617
20
37.5716509617
30
0.0000000000
10
-39.0385628418
20
37.6006014363
30
0.0000000000
10
-39.0172304073
20
37.6128529102
30
0.0000000000
11
-39.1458383932
21
37.4961514585
31
0.0000000000
11
-39.1300577580
21
37.5164121533
31
0.0000000000
11
-39.0773893572
21
37.5702889234
31
0.0000000000
11
-39.0172304073
21
37.6128529102
31
0.0000000000
0
SPLINE
5
3F1
100
AcDbEntity
8
0
100
AcDbSpline
62
7
6
CONTINUOUS
70
0
71
3
72
8
73
4
74
2
42
0.0000001000
43
0.0000001000
44
0.0000000001
12
0.0205903624
22
0.0118252930
32
0.0000000000
13
0.0212867959
23
0.0105252573
33
0.0000000000
40
0.0000000000
40
0.0000000000
40
0.0000000000
40
0.0000000000
40
1.0000000000
40
1.0000000000
40
1.0000000000
40
1.0000000000
10
-39.0172304073
20
37.6128529102
30
0.0000000000
10
-39.0103669532
20
37.6167946746
30
0.0000000000
10
-39.0033802612
20
37.6205228317
30
0.0000000000
10
-38.9962846626
20
37.6240312509
30
0.0000000000
11
-39.0172304073
21
37.6128529102
31
0.0000000000
11
-38.9962846626
21
37.6240312509
31
0.0000000000
0
SPLINE
5
3F2
100
AcDbEntity
8
0
100
AcDbSpline
62
7
6
CONTINUOUS
70
0
71
3
72
10
73
6
74
4
42
0.0000001000
43
0.0000001000
44
0.0000000001
12
0.1296296435
22
-0.0695143233
32
0.0000000000
13
0.1320168507
23
0.0648662989
33
0.0000000000
40
0.0000000000
40
0.0000000000
40
0.0000000000
40
0.0000000000
40
0.3183517025
40
0.6759431641
40
1.0000000000
40
1.0000000000
40
1.0000000000
40
1.0000000000
10
-39.4158835213
20
37.0352048060
30
0.0000000000
10
-39.4021275821
20
37.0278281383
30
0.0000000000
10
-39.3693696509
20
37.0189501230
30
0.0000000000
10
-39.3200936690
20
37.0184645189
30
0.0000000000
10
-39.2869131725
20
37.0266330673
30
0.0000000000
10
-39.2726528515
20
37.0336398565
30
0.0000000000
11
-39.4158835213
21
37.0352048060
31
0.0000000000
11
-39.3711493480
21
37.0213619900
31
0.0000000000
11
-39.3185536084
21
37.0207873409
31
0.0000000000
11
-39.2726528515
21
37.0336398565
31
0.0000000000
0
SPLINE
5
3F3
100
AcDbEntity
8
0
100
AcDbSpline
62
7
6
CONTINUOUS
70
0
71
3
72
8
73
4
74
2
42
0.0000001000
43
0.0000001000
44
0.0000000001
12
0.0484827017
22
-0.0214601211
32
0.0000000000
13
0.0484810506
23
-0.0214638579
33
0.0000000000
40
0.0000000000
40
0.0000000000
40
0.0000000000
40
0.0000000000
40
1.0000000000
40
1.0000000000
40
1.0000000000
40
1.0000000000
10
-38.6564021130
20
37.6649824075
30
0.0000000000
10
-38.6402412124
20
37.6578290339
30
0.0000000000
10
-38.6240805870
20
37.6506750372
30
0.0000000000
10
-38.6079202368
20
37.6435204179
30
0.0000000000
11
-38.6564021130
21
37.6649824075
31
0.0000000000
11
-38.6079202368
21
37.6435204179
31
0.0000000000
0
SPLINE
5
3F4
100
AcDbEntity
8
0
100
AcDbSpline
62
7
6
CONTINUOUS
70
0
71
3
72
20
73
16
74
14
42
0.0000001000
43
0.0000001000
44
0.0000000001
12
66.6220308724
22
-29.4953550977
32
0.0000000000
13
63.7439481676
23
-35.2871005553
33
0.0000000000
40
0.0000000000
40
0.0000000000
40
0.0000000000
40
0.0000000000
40
0.0520715206
40
0.1132370251
40
0.1821810754
40
0.2583199758
40
0.3410535307
40
0.4293248127
40
0.5211659620
40
0.6144227156
40
0.7068153700
40
0.7953106770
40
0.8762270013
40
0.9457674344
40
1.0000000000
40
1.0000000000
40
1.0000000000
40
1.0000000000
10
-38.6079202368
20
37.6435204179
30
0.0000000000
10
-37.4515500861
20
37.1315644212
30
0.0000000000
10
-34.9399204415
20
36.0113087437
30
0.0000000000
10
-30.9097339750
20
34.1853100643
30
0.0000000000
10
-26.3608219485
20
32.0881117763
30
0.0000000000
10
-21.3528829903
20
29.7357732531
30
0.0000000000
10
-15.9396286690
20
27.1426585320
30
0.0000000000
10
-10.2044958435
20
24.3392102256
30
0.0000000000
10
-4.2635710784
20
21.3752928032
30
0.0000000000
10
1.7424345582
20
18.3181082447
30
0.0000000000
10
7.6521257232
20
15.2513025591
30
0.0000000000
10
13.2738594656
20
12.2806744366
30
0.0000000000
10
18.3863727472
20
9.5346156269
30
0.0000000000
10
22.7518922109
20
7.1565896512
30
0.0000000000
10
25.3848057952
20
5.7061154769
30
0.0000000000
10
26.5371384127
20
5.0682121447
30
0.0000000000
11
-38.6079202368
21
37.6435204179
31
0.0000000000
11
-35.1430263275
21
36.0981635125
31
0.0000000000
11
-31.0837185701
21
34.2590956733
31
0.0000000000
11
-26.5219048546
21
32.1561185549
31
0.0000000000
11
-21.5007342019
21
29.7977823320
31
0.0000000000
11
-16.0642811235
21
27.1938210705
31
0.0000000000
11
-10.2861572339
21
24.3696528738
31
0.0000000000
11
-4.2983563772
21
21.3826628437
31
0.0000000000
11
1.7570536300
21
18.3006452803
31
0.0000000000
11
7.7321859376
21
15.2001559125
31
0.0000000000
11
13.4330216177
21
12.1879589738
31
0.0000000000
11
18.6268062111
21
9.3984152424
31
0.0000000000
11
23.0762059524
21
6.9747972093
31
0.0000000000
11
26.5371384127
21
5.0682121447
31
0.0000000000
0
SPLINE
5
3F5
100
AcDbEntity
8
0
100
AcDbSpline
62
7
6
CONTINUOUS
70
0
71
3
72
9
73
5
74
3
42
0.0000001000
43
0.0000001000
44
0.0000000001
12
0.0037967249
22
-0.0679392678
32
0.0000000000
13
0.0625977187
23
-0.0292657512
33
0.0000000000
40
0.0000000000
40
0.0000000000
40
0.0000000000
40
0.0000000000
40
0.6120330198
40
1.0000000000
40
1.0000000000
40
1.0000000000
40
1.0000000000
10
-38.6564021126
20
37.6649824077
30
0.0000000000
10
-38.6556275389
20
37.6511220493
30
0.0000000000
10
-38.6502749314
20
37.6276085827
30
0.0000000000
10
-38.6319271184
20
37.6116281199
30
0.0000000000
10
-38.6238318357
20
37.6078434049
30
0.0000000000
11
-38.6564021126
21
37.6649824077
31
0.0000000000
11
-38.6442077923
21
37.6251617592
31
0.0000000000
11
-38.6238318357
21
37.6078434049
31
0.0000000000
0
SPLINE
5
3F6
100
AcDbEntity
8
0
100
AcDbSpline
62
7
6
CONTINUOUS
70
0
71
3
72
8
73
4
74
2
42
0.0000001000
43
0.0000001000
44
0.0000000001
12
-0.5968333311
22
-0.3717449832
32
0.0000000000
13
-0.5968332977
23
-0.3717450369
33
0.0000000000
40
0.0000000000
40
0.0000000000
40
0.0000000000
40
0.0000000000
40
1.0000000000
40
1.0000000000
40
1.0000000000
40
1.0000000000
10
-50.8475755842
20
62.3829620548
30
0.0000000000
10
-51.0465200279
20
62.2590470604
30
0.0000000000
10
-51.2454644660
20
62.1351320571
30
0.0000000000
10
-51.4444088986
20
62.0112170448
30
0.0000000000
11
-50.8475755842
21
62.3829620548
31
0.0000000000
11
-51.4444088986
21
62.0112170448
31
0.0000000000
0
SPLINE
5
3F7
100
AcDbEntity
8
0
100
AcDbSpline
62
7
6
CONTINUOUS
70
0
71
3
72
9
73
5
74
3
42
0.0000001000
43
0.0000001000
44
0.0000000001
12
-2.1368991347
22
-1.3309941833
32
0.0000000000
13
-2.1368987058
23
-1.3309948718
33
0.0000000000
40
0.0000000000
40
0.0000000000
40
0.0000000000
40
0.0000000000
40
0.3603505781
40
1.0000000000
40
1.0000000000
40
1.0000000000
40
1.0000000000
10
-51.4444088986
20
62.0112170448
30
0.0000000000
10
-51.7010865115
20
61.8513422036
30
0.0000000000
10
-52.4133861973
20
61.4076774345
30
0.0000000000
10
-53.1256858116
20
60.9640125506
30
0.0000000000
10
-53.5813078188
20
60.6802225172
30
0.0000000000
11
-51.4444088986
21
62.0112170448
31
0.0000000000
11
-52.2144417094
21
61.5315924766
31
0.0000000000
11
-53.5813078188
21
60.6802225172
31
0.0000000000
0
SPLINE
5
3F8
100
AcDbEntity
8
0
100
AcDbSpline
62
7
6
CONTINUOUS
70
0
71
3
72
12
73
8
74
6
42
0.0000001000
43
0.0000001000
44
0.0000000001
12
0.0003042292
22
1.4751159400
32
0.0000000000
13
-1.3444141022
23
0.6070567114
33
0.0000000000
40
0.0000000000
40
0.0000000000
40
0.0000000000
40
0.0000000000
40
0.1928685700
40
0.4008964218
40
0.6126816707
40
0.8160627244
40
1.0000000000
40
1.0000000000
40
1.0000000000
40
1.0000000000
10
44.2257880890
20
9.5700232881
30
0.0000000000
10
44.2258076478
20
9.6648577887
30
0.0000000000
10
44.1982520807
20
9.8623633208
30
0.0000000000
10
44.0928344562
20
10.1466072981
30
0.0000000000
10
43.9305031484
20
10.4090274694
30
0.0000000000
10
43.7267112288
20
10.6245510487
30
0.0000000000
10
43.5651581490
20
10.7303758092
30
0.0000000000
10
43.4827288599
20
10.7675959284
30
0.0000000000
11
44.2257880890
21
9.5700232881
31
0.0000000000
11
44.1897068025
21
9.8522295723
31
0.0000000000
11
44.0843660093
21
10.1404474973
31
0.0000000000
11
43.9197058171
21
10.4059388467
31
0.0000000000
11
43.7118797930
21
10.6223059611
31
0.0000000000
11
43.4827288599
21
10.7675959284
31
0.0000000000
0
SPLINE
5
3F9
100
AcDbEntity
8
0
100
AcDbSpline
62
7
6
CONTINUOUS
70
0
71
3
72
12
73
8
74
6
42
0.0000001000
43
0.0000001000
44
0.0000000001
12
-0.0590266460
22
2.7824442560
32
0.0000000000
13
-2.4885242188
23
1.2460848266
33
0.0000000000
40
0.0000000000
40
0.0000000000
40
0.0000000000
40
0.0000000000
40
0.1937796503
40
0.4027046849
40
0.6151733604
40
0.8178144299
40
1.0000000000
40
1.0000000000
40
1.0000000000
40
1.0000000000
10
45.4304474534
20
9.5699293365
30
0.0000000000
10
45.4266347325
20
9.7496563615
30
0.0000000000
10
45.3689844215
20
10.1226796645
30
0.0000000000
10
45.1697026577
20
10.6606960908
30
0.0000000000
10
44.8708524368
20
11.1606154364
30
0.0000000000
10
44.4997483944
20
11.5765014375
30
0.0000000000
10
44.2052815233
20
11.7867407250
30
0.0000000000
10
44.0541571221
20
11.8624136166
30
0.0000000000
11
45.4304474534
21
9.5699293365
31
0.0000000000
11
45.3542950247
21
10.1038280822
31
0.0000000000
11
45.1547996413
21
10.6499867101
31
0.0000000000
11
44.8506592627
21
11.1570886350
31
0.0000000000
11
44.4716856953
21
11.5747425703
31
0.0000000000
11
44.0541571221
21
11.8624136166
31
0.0000000000
0
SPLINE
5
3FA
100
AcDbEntity
8
0
100
AcDbSpline
62
7
6
CONTINUOUS
70
0
71
3
72
11
73
7
74
5
42
0.0000001000
43
0.0000001000
44
0.0000000001
12
1.1243171417
22
-0.5066107772
32
0.0000000000
13
1.1244833308
23
0.5062417935
33
0.0000000000
40
0.0000000000
40
0.0000000000
40
0.0000000000
40
0.0000000000
40
0.2372275653
40
0.4999548217
40
0.7627070671
40
1.0000000000
40
1.0000000000
40
1.0000000000
40
1.0000000000
10
44.2257880890
20
9.5700232881
30
0.0000000000
10
44.3146944284
20
9.5299626077
30
0.0000000000
10
44.5142792229
20
9.4724528856
30
0.0000000000
10
44.8280908445
20
9.4447913930
30
0.0000000000
10
45.1419357452
20
9.4723829481
30
0.0000000000
10
45.3415706154
20
9.5298495175
30
0.0000000000
10
45.4305145980
20
9.5698920508
30
0.0000000000
11
44.2257880890
21
9.5700232881
31
0.0000000000
11
44.5054772539
21
9.4842519131
31
0.0000000000
11
44.8280816623
21
9.4543078596
31
0.0000000000
11
45.1507240090
21
9.4841765048
31
0.0000000000
11
45.4305145980
21
9.5698920508
31
0.0000000000
0
SPLINE
5
3FB
100
AcDbEntity
8
0
100
AcDbSpline
62
7
6
CONTINUOUS
70
0
71
3
72
11
73
7
74
5
42
0.0000001000
43
0.0000001000
44
0.0000000001
12
-99.5853191980
22
44.9435453495
32
0.0000000000
13
-95.5730841106
23
52.9428339054
33
0.0000000000
40
0.0000000000
40
0.0000000000
40
0.0000000000
40
0.0000000000
40
0.2557129310
40
0.5076783072
40
0.7558022643
40
1.0000000000
40
1.0000000000
40
1.0000000000
40
1.0000000000
10
43.4827288599
20
10.7675959284
30
0.0000000000
10
34.9943109066
20
14.5984778325
30
0.0000000000
10
18.2141236728
20
22.3654874603
30
0.0000000000
10
-6.5327113896
20
34.4217897759
30
0.0000000000
10
-30.6547039017
20
46.7903067573
30
0.0000000000
10
-46.4348187175
20
55.3066514522
30
0.0000000000
10
-54.2143956302
20
59.6161581735
30
0.0000000000
11
43.4827288599
21
10.7675959284
31
0.0000000000
11
18.1302261506
21
22.5068746964
31
0.0000000000
11
-6.6162214564
21
34.5676509090
31
0.0000000000
11
-30.7372973921
21
46.9406367084
31
0.0000000000
11
-54.2143956302
21
59.6161581735
31
0.0000000000
0
SPLINE
5
3FC
100
AcDbEntity
8
0
100
AcDbSpline
62
7
6
CONTINUOUS
70
0
71
3
72
11
73
7
74
5
42
0.0000001000
43
0.0000001000
44
0.0000000001
12
-99.5223933739
22
44.9153312999
32
0.0000000000
13
-95.5128517002
23
52.9092518256
33
0.0000000000
40
0.0000000000
40
0.0000000000
40
0.0000000000
40
0.0000000000
40
0.2557127761
40
0.5076780480
40
0.7558020269
40
1.0000000000
40
1.0000000000
40
1.0000000000
40
1.0000000000
10
44.0541538971
20
11.8624916570
30
0.0000000000
10
35.5711047309
20
15.6909663431
30
0.0000000000
10
18.8015259001
20
23.4530876600
30
0.0000000000
10
-5.9296765236
20
35.5017866258
30
0.0000000000
10
-30.0364535456
20
47.8624895757
30
0.0000000000
10
-45.8066262097
20
56.3734451563
30
0.0000000000
10
-53.5813078062
20
60.6802225076
30
0.0000000000
11
44.0541538971
21
11.8624916570
31
0.0000000000
11
18.7176817543
21
23.5943821084
31
0.0000000000
11
-6.0131314388
21
35.6475502961
31
0.0000000000
11
-30.1189896069
21
48.0127180003
31
0.0000000000
11
-53.5813078062
21
60.6802225076
31
0.0000000000
0
SPLINE
5
3FD
100
AcDbEntity
8
0
100
AcDbSpline
62
7
6
CONTINUOUS
70
0
71
3
72
11
73
7
74
5
42
0.0000001000
43
0.0000001000
44
0.0000000001
12
0.0000359382
22
1.2777982156
32
0.0000000000
13
1.0851171499
23
0.6747511039
33
0.0000000000
40
0.0000000000
40
0.0000000000
40
0.0000000000
40
0.0000000000
40
0.2469238304
40
0.5119425465
40
0.7704941073
40
1.0000000000
40
1.0000000000
40
1.0000000000
40
1.0000000000
10
43.4827288957
20
10.7675959482
30
0.0000000000
10
43.4827318537
20
10.8727688915
30
0.0000000000
10
43.5159114562
20
11.0911335172
30
0.0000000000
10
43.6365103769
20
11.3988521950
30
0.0000000000
10
43.8150529384
20
11.6681042716
30
0.0000000000
10
43.9711403037
20
11.8108718722
30
0.0000000000
10
44.0541538971
20
11.8624916570
30
0.0000000000
11
43.4827288957
21
10.7675959482
31
0.0000000000
11
43.5256612327
21
11.0801802513
31
0.0000000000
11
43.6483298125
21
11.3958220878
31
0.0000000000
11
43.8332705719
21
11.6695842012
31
0.0000000000
11
44.0541538971
21
11.8624916570
31
0.0000000000
0
SPLINE
5
3FE
100
AcDbEntity
8
0
100
AcDbSpline
62
7
6
CONTINUOUS
70
0
71
3
72
12
73
8
74
6
42
0.0000001000
43
0.0000001000
44
0.0000000001
12
-0.9206856349
22
0.5097774213
32
0.0000000000
13
0.0001947388
23
-1.0523948972
33
0.0000000000
40
0.0000000000
40
0.0000000000
40
0.0000000000
40
0.0000000000
40
0.2082566132
40
0.3872569716
40
0.5622250229
40
0.7624176287
40
1.0000000000
40
1.0000000000
40
1.0000000000
40
1.0000000000
10
-54.2143956302
20
59.6161581735
30
0.0000000000
10
-54.2783085876
20
59.6515463465
30
0.0000000000
10
-54.4078061334
20
59.7026217401
30
0.0000000000
10
-54.6137644222
20
59.6881598869
30
0.0000000000
10
-54.7761754123
20
59.5639607370
30
0.0000000000
10
-54.8677910994
20
59.3631850348
30
0.0000000000
10
-54.8845502535
20
59.2085282400
30
0.0000000000
10
-54.8845348313
20
59.1251847482
30
0.0000000000
11
-54.2143956302
21
59.6161581735
31
0.0000000000
11
-54.4211653569
21
59.6888285275
31
0.0000000000
11
-54.6086108413
21
59.6700971837
31
0.0000000000
11
-54.7570680984
21
59.5611645413
31
0.0000000000
11
-54.8520174528
21
59.3730917081
31
0.0000000000
11
-54.8845348313
21
59.1251847482
31
0.0000000000
0
SPLINE
5
3FF
100
AcDbEntity
8
0
100
AcDbSpline
62
7
6
CONTINUOUS
70
0
71
3
72
10
73
6
74
4
42
0.0000001000
43
0.0000001000
44
0.0000000001
12
-0.8295793209
22
0.4141789517
32
0.0000000000
13
-0.7932437124
23
-0.4989298881
33
0.0000000000
40
0.0000000000
40
0.0000000000
40
0.0000000000
40
0.0000000000
40
0.4653027497
40
0.8647143185
40
1.0000000000
40
1.0000000000
40
1.0000000000
40
1.0000000000
10
-53.5813042136
20
60.6801442968
30
0.0000000000
10
-53.7099727266
20
60.7443838318
30
0.0000000000
10
-53.9684077990
20
60.8337632655
30
0.0000000000
10
-54.2890829563
20
60.8044949857
30
0.0000000000
10
-54.4380758034
20
60.7284058282
30
0.0000000000
10
-54.4738473089
20
60.7059064716
30
0.0000000000
11
-53.5813042136
21
60.6801442968
31
0.0000000000
11
-53.9935607056
21
60.8073658428
31
0.0000000000
11
-54.3612428485
21
60.7630399256
31
0.0000000000
11
-54.4738473089
21
60.7059064716
31
0.0000000000
0
SPLINE
5
400
100
AcDbEntity
8
0
100
AcDbSpline
62
7
6
CONTINUOUS
70
0
71
3
72
11
73
7
74
5
42
0.0000001000
43
0.0000001000
44
0.0000000001
12
0.0000353062
22
1.2898104440
32
0.0000000000
13
1.1478541995
23
0.5882531084
33
0.0000000000
40
0.0000000000
40
0.0000000000
40
0.0000000000
40
0.0000000000
40
0.2433530431
40
0.5050720132
40
0.7640210500
40
1.0000000000
40
1.0000000000
40
1.0000000000
40
1.0000000000
10
-54.2143955548
20
59.6161582075
30
0.0000000000
10
-54.2143926909
20
59.7207846397
30
0.0000000000
10
-54.1776409097
20
59.9383753496
30
0.0000000000
10
-54.0429047257
20
60.2411319593
30
0.0000000000
10
-53.8433870687
20
60.5017678970
30
0.0000000000
10
-53.6715940232
20
60.6338725132
30
0.0000000000
10
-53.5813042136
20
60.6801442968
30
0.0000000000
11
-54.2143955548
21
59.6161582075
31
0.0000000000
11
-54.1668316515
21
59.9264127610
31
0.0000000000
11
-54.0309268064
21
60.2354142723
31
0.0000000000
11
-53.8260280502
21
60.4991741532
31
0.0000000000
11
-53.5813042136
21
60.6801442968
31
0.0000000000
0
SPLINE
5
401
100
AcDbEntity
8
0
100
AcDbSpline
62
7
6
CONTINUOUS
70
0
71
3
72
9
73
5
74
3
42
0.0000001000
43
0.0000001000
44
0.0000000001
12
-0.3439947713
22
0.1908551179
32
0.0000000000
13
-0.0001552301
23
0.3921000088
33
0.0000000000
40
0.0000000000
40
0.0000000000
40
0.0000000000
40
0.0000000000
40
0.5626213852
40
1.0000000000
40
1.0000000000
40
1.0000000000
40
1.0000000000
10
-54.8845348313
20
59.1251847482
30
0.0000000000
10
-54.9490477695
20
59.1609778052
30
0.0000000000
10
-55.0591878689
20
59.2385037893
30
0.0000000000
10
-55.1159443452
20
59.3691757916
30
0.0000000000
10
-55.1159669766
20
59.4263411778
30
0.0000000000
11
-54.8845348313
21
59.1251847482
31
0.0000000000
11
-55.0560839173
21
59.2650363489
31
0.0000000000
11
-55.1159669766
21
59.4263411778
31
0.0000000000
0
SPLINE
5
402
100
AcDbEntity
8
0
100
AcDbSpline
62
7
6
CONTINUOUS
70
0
71
3
72
12
73
8
74
6
42
0.0000001000
43
0.0000001000
44
0.0000000001
12
-0.0002708376
22
-1.4588679600
32
0.0000000000
13
1.2759623717
23
-0.7072593754
33
0.0000000000
40
0.0000000000
40
0.0000000000
40
0.0000000000
40
0.0000000000
40
0.1959353647
40
0.4073281360
40
0.6206961338
40
0.8222549555
40
1.0000000000
40
1.0000000000
40
1.0000000000
40
1.0000000000
10
-54.8845348313
20
-10.6627217266
30
0.0000000000
10
-54.8845525202
20
-10.7580030019
30
0.0000000000
10
-54.8596530470
20
-10.9563664460
30
0.0000000000
10
-54.7652025640
20
-11.2446168979
30
0.0000000000
10
-54.6196798705
20
-11.5141898123
30
0.0000000000
10
-54.4370050663
20
-11.7392680385
30
0.0000000000
10
-54.2899942930
20
-11.8548504312
30
0.0000000000
10
-54.2143956302
20
-11.8967543810
30
0.0000000000
11
-54.8845348313
21
-10.6627217266
31
0.0000000000
11
-54.8520174356
21
-10.9467099562
31
0.0000000000
11
-54.7570681083
21
-11.2401236142
31
0.0000000000
11
-54.6086108371
21
-11.5137164241
31
0.0000000000
11
-54.4211653590
21
-11.7402738114
31
0.0000000000
11
-54.2143956302
21
-11.8967543810
31
0.0000000000
0
SPLINE
5
403
100
AcDbEntity
8
0
100
AcDbSpline
62
7
6
CONTINUOUS
70
0
71
3
72
9
73
5
74
3
42
0.0000001000
43
0.0000001000
44
0.0000000001
12
-0.3440812194
22
0.1909021115
32
0.0000000000
13
0.0000431793
23
0.3921981292
33
0.0000000000
40
0.0000000000
40
0.0000000000
40
0.0000000000
40
0.0000000000
40
0.5624580530
40
1.0000000000
40
1.0000000000
40
1.0000000000
40
1.0000000000
10
-54.8845348313
20
-10.6627217266
30
0.0000000000
10
-54.9490452489
20
-10.6269302500
30
0.0000000000
10
-55.0592124579
20
-10.5493856836
30
0.0000000000
10
-55.1159732873
20
-10.4186689323
30
0.0000000000
10
-55.1159669897
20
-10.3614678880
30
0.0000000000
11
-54.8845348313
21
-10.6627217266
31
0.0000000000
11
-55.0560785245
21
-10.5228776158
31
0.0000000000
11
-55.1159669897
21
-10.3614678880
31
0.0000000000
0
SPLINE
5
404
100
AcDbEntity
8
0
100
AcDbSpline
62
7
6
CONTINUOUS
70
0
71
3
72
8
73
4
74
2
42
0.0000001000
43
0.0000001000
44
0.0000000001
12
0.3823968435
22
-0.2118616414
32
0.0000000000
13
0.3824735257
23
-0.2117240738
33
0.0000000000
40
0.0000000000
40
0.0000000000
40
0.0000000000
40
0.0000000000
40
1.0000000000
40
1.0000000000
40
1.0000000000
40
1.0000000000
10
-54.2143956302
20
-11.8967543810
30
0.0000000000
10
-54.0869300157
20
-11.9673749281
30
0.0000000000
10
-53.9594516113
20
-12.0379725410
30
0.0000000000
10
-53.8319604361
20
-12.1085472322
30
0.0000000000
11
-54.2143956302
21
-11.8967543810
31
0.0000000000
11
-53.8319604361
21
-12.1085472322
31
0.0000000000
0
SPLINE
5
405
100
AcDbEntity
8
0
100
AcDbSpline
62
7
6
CONTINUOUS
70
0
71
3
72
11
73
7
74
5
42
0.0000001000
43
0.0000001000
44
0.0000000001
12
95.2064184654
22
-52.7029700579
32
0.0000000000
13
99.1897801441
23
-44.7574476855
33
0.0000000000
40
0.0000000000
40
0.0000000000
40
0.0000000000
40
0.0000000000
40
0.2411676319
40
0.4902901768
40
0.7432656534
40
1.0000000000
40
1.0000000000
40
1.0000000000
40
1.0000000000
10
-53.8319604361
20
-12.1085472322
30
0.0000000000
10
-46.1783916094
20
-16.3452973926
30
0.0000000000
10
-30.5252341637
20
-24.7906098809
30
0.0000000000
10
-6.5328946149
20
-37.0931115389
30
0.0000000000
10
18.2139493221
20
-49.1489465487
30
0.0000000000
10
34.9942543964
20
-56.9150585976
30
0.0000000000
10
43.4827288599
20
-60.7453166260
30
0.0000000000
11
-53.8319604361
21
-12.1085472322
31
0.0000000000
11
-30.7372922141
21
-24.5737287024
31
0.0000000000
11
-6.6162150888
21
-36.9471887886
31
0.0000000000
11
18.1302316016
21
-49.0074905789
31
0.0000000000
11
43.4827288599
21
-60.7453166260
31
0.0000000000
0
SPLINE
5
406
100
AcDbEntity
8
0
100
AcDbSpline
62
7
6
CONTINUOUS
70
0
71
3
72
10
73
6
74
4
42
0.0000001000
43
0.0000001000
44
0.0000000001
12
-0.0000142117
22
-0.5598634908
32
0.0000000000
13
0.4973052346
23
-0.2704441457
33
0.0000000000
40
0.0000000000
40
0.0000000000
40
0.0000000000
40
0.0000000000
40
0.4850078290
40
0.8969779503
40
1.0000000000
40
1.0000000000
40
1.0000000000
40
1.0000000000
10
-54.2143955905
20
-11.8967543631
30
0.0000000000
10
-54.2143978881
20
-11.9872670885
30
0.0000000000
10
-54.1905896328
20
-12.1572862929
30
0.0000000000
10
-54.0808912191
20
-12.3200115181
30
0.0000000000
10
-53.9993039908
20
-12.3728229487
30
0.0000000000
10
-53.9822261893
20
-12.3821101855
30
0.0000000000
11
-54.2143955905
21
-11.8967543631
31
0.0000000000
11
-54.1668434253
21
-12.1640964151
31
0.0000000000
11
-54.0309421682
21
-12.3504533331
31
0.0000000000
11
-53.9822261893
21
-12.3821101855
31
0.0000000000
0
SPLINE
5
407
100
AcDbEntity
8
0
100
AcDbSpline
62
7
6
CONTINUOUS
70
0
71
3
72
12
73
8
74
6
42
0.0000001000
43
0.0000001000
44
0.0000000001
12
1.0223319586
22
-0.4610686534
32
0.0000000000
13
-0.0002305487
23
1.1214931491
33
0.0000000000
40
0.0000000000
40
0.0000000000
40
0.0000000000
40
0.0000000000
40
0.2115527325
40
0.3986504254
40
0.5787805804
40
0.7750477657
40
1.0000000000
40
1.0000000000
40
1.0000000000
40
1.0000000000
10
43.4827288599
20
-60.7453166260
30
0.0000000000
10
43.5548212330
20
-60.7778300705
30
0.0000000000
10
43.7008395399
20
-60.8213484741
30
0.0000000000
10
43.9235741377
20
-60.7957445039
30
0.0000000000
10
44.1017087888
20
-60.6670039566
30
0.0000000000
10
44.2064147753
20
-60.4609015317
30
0.0000000000
10
44.2258053765
20
-60.3019773166
30
0.0000000000
10
44.2257880890
20
-60.2178831868
30
0.0000000000
11
43.4827288599
21
-60.7453166260
31
0.0000000000
11
43.7118797907
21
-60.8067963780
31
0.0000000000
11
43.9197058217
21
-60.7778747609
31
0.0000000000
11
44.0843659983
21
-60.6608406588
31
0.0000000000
11
44.1897068216
21
-60.4675720911
31
0.0000000000
11
44.2257880890
21
-60.2178831868
31
0.0000000000
0
SPLINE
5
408
100
AcDbEntity
8
0
100
AcDbSpline
62
7
6
CONTINUOUS
70
0
71
3
72
10
73
6
74
4
42
0.0000001000
43
0.0000001000
44
0.0000000001
12
0.0000441202
22
-0.5642140586
32
0.0000000000
13
0.5248782254
23
-0.2324462493
33
0.0000000000
40
0.0000000000
40
0.0000000000
40
0.0000000000
40
0.0000000000
40
0.4758084365
40
0.8614591500
40
1.0000000000
40
1.0000000000
40
1.0000000000
40
1.0000000000
10
43.4827289279
20
-60.7453165883
30
0.0000000000
10
43.4827359255
20
-60.8348025247
30
0.0000000000
10
43.5027260025
20
-60.9984502447
30
0.0000000000
10
43.6052844879
20
-61.1684021610
30
0.0000000000
10
43.6917770020
20
-61.2198582097
30
0.0000000000
10
43.7160160272
20
-61.2305926433
30
0.0000000000
11
43.4827289279
21
-60.7453165883
31
0.0000000000
11
43.5256724280
21
-61.0103174402
31
0.0000000000
11
43.6483444368
21
-61.1900305244
31
0.0000000000
11
43.7160160272
21
-61.2305926433
31
0.0000000000
0
SPLINE
5
409
100
AcDbEntity
8
0
100
AcDbSpline
62
7
6
CONTINUOUS
70
0
71
3
72
11
73
7
74
5
42
0.0000001000
43
0.0000001000
44
0.0000000001
12
1.1243163530
22
-0.5066132768
32
0.0000000000
13
1.1244825141
23
0.5062443574
33
0.0000000000
40
0.0000000000
40
0.0000000000
40
0.0000000000
40
0.0000000000
40
0.2372391403
40
0.4999703763
40
0.7627173986
40
1.0000000000
40
1.0000000000
40
1.0000000000
40
1.0000000000
10
44.2257880890
20
-60.2178831868
30
0.0000000000
10
44.3146987040
20
-60.2579460195
30
0.0000000000
10
44.5142902326
20
-60.3154566330
30
0.0000000000
10
44.8281064182
20
-60.3431157425
30
0.0000000000
10
45.1419463963
20
-60.3155216394
30
0.0000000000
10
45.3415745538
20
-60.2580554343
30
0.0000000000
10
45.4305145992
20
-60.2180144416
30
0.0000000000
11
44.2257880890
21
-60.2178831868
31
0.0000000000
11
44.5054912886
21
-60.3036577307
31
0.0000000000
11
44.8281009409
21
-60.3335992630
31
0.0000000000
11
45.1507366613
21
-60.3037280369
31
0.0000000000
11
45.4305145992
21
-60.2180144416
31
0.0000000000
0
SPLINE
5
40A
100
AcDbEntity
8
0
100
AcDbSpline
62
7
6
CONTINUOUS
70
0
71
3
72
8
73
4
74
2
42
0.0000001000
43
0.0000001000
44
0.0000000001
12
-0.0313565382
22
-0.0162497545
32
0.0000000000
13
-0.0325434740
23
-0.0137217729
33
0.0000000000
40
0.0000000000
40
0.0000000000
40
0.0000000000
40
0.0000000000
40
1.0000000000
40
1.0000000000
40
1.0000000000
40
1.0000000000
10
27.0566064606
20
-39.3571485546
30
0.0000000000
10
27.0461542812
20
-39.3625651394
30
0.0000000000
10
27.0354863047
20
-39.3675661996
30
0.0000000000
10
27.0246384801
20
-39.3721401239
30
0.0000000000
11
27.0566064606
21
-39.3571485546
31
0.0000000000
11
27.0246384801
21
-39.3721401239
31
0.0000000000
0
SPLINE
5
40B
100
AcDbEntity
8
0
100
AcDbSpline
62
7
6
CONTINUOUS
70
0
71
3
72
13
73
9
74
7
42
0.0000001000
43
0.0000001000
44
0.0000000001
12
-0.3754163567
22
-0.1582921974
32
0.0000000000
13
-0.3855697859
23
0.1305649740
33
0.0000000000
40
0.0000000000
40
0.0000000000
40
0.0000000000
40
0.0000000000
40
0.0647501430
40
0.2606071036
40
0.4596843510
40
0.6627265045
40
0.8628515969
40
1.0000000000
40
1.0000000000
40
1.0000000000
40
1.0000000000
10
27.0246384801
20
-39.3721401239
30
0.0000000000
10
27.0165357258
20
-39.3755566047
30
0.0000000000
10
26.9835198086
20
-39.3883481339
30
0.0000000000
10
26.9228440220
20
-39.4039633947
30
0.0000000000
10
26.8417063867
20
-39.4109848027
30
0.0000000000
10
26.7599160621
20
-39.4057332947
30
0.0000000000
10
26.6878622101
20
-39.3914611364
30
0.0000000000
10
26.6439826301
20
-39.3783135712
30
0.0000000000
10
26.6263558700
20
-39.3723446453
30
0.0000000000
11
27.0246384801
21
-39.3721401239
31
0.0000000000
11
27.0000441705
21
-39.3816697912
31
0.0000000000
11
26.9229104228
21
-39.4016950389
31
0.0000000000
11
26.8422323351
21
-39.4089215856
31
0.0000000000
11
26.7597708400
21
-39.4038984871
31
0.0000000000
11
26.6798503746
21
-39.3883053014
31
0.0000000000
11
26.6263558700
21
-39.3723446453
31
0.0000000000
0
SPLINE
5
40C
100
AcDbEntity
8
0
100
AcDbSpline
62
7
6
CONTINUOUS
70
0
71
3
72
8
73
4
74
2
42
0.0000001000
43
0.0000001000
44
0.0000000001
12
-0.0268880393
22
0.0091050603
32
0.0000000000
13
-0.0265386413
23
0.0100400327
33
0.0000000000
40
0.0000000000
40
0.0000000000
40
0.0000000000
40
0.0000000000
40
1.0000000000
40
1.0000000000
40
1.0000000000
40
1.0000000000
10
26.6263558700
20
-39.3723446453
30
0.0000000000
10
26.6173931902
20
-39.3693096252
30
0.0000000000
10
26.6084864507
20
-39.3661136320
30
0.0000000000
10
26.5996402370
20
-39.3627669545
30
0.0000000000
11
26.6263558700
21
-39.3723446453
31
0.0000000000
11
26.5996402370
21
-39.3627669545
31
0.0000000000
0
SPLINE
5
40D
100
AcDbEntity
8
0
100
AcDbSpline
62
7
6
CONTINUOUS
70
0
71
3
72
8
73
4
74
2
42
0.0000001000
43
0.0000001000
44
0.0000000001
12
-0.0854107578
22
-0.0411249836
32
0.0000000000
13
-0.0854107557
23
-0.0411249879
33
0.0000000000
40
0.0000000000
40
0.0000000000
40
0.0000000000
40
0.0000000000
40
1.0000000000
40
1.0000000000
40
1.0000000000
40
1.0000000000
10
-39.1872420946
20
37.0747648421
30
0.0000000000
10
-39.2157123472
20
37.0610565143
30
0.0000000000
10
-39.2441825996
20
37.0473481858
30
0.0000000000
10
-39.2726528515
20
37.0336398565
30
0.0000000000
11
-39.1872420946
21
37.0747648421
31
0.0000000000
11
-39.2726528515
21
37.0336398565
31
0.0000000000
0
SPLINE
5
40E
100
AcDbEntity
8
0
100
AcDbSpline
62
7
6
CONTINUOUS
70
0
71
3
72
8
73
4
74
2
42
0.0000001000
43
0.0000001000
44
0.0000000001
12
-0.0411693438
22
-0.0206341040
32
0.0000000000
13
-0.0411693444
23
-0.0206341030
33
0.0000000000
40
0.0000000000
40
0.0000000000
40
0.0000000000
40
0.0000000000
40
1.0000000000
40
1.0000000000
40
1.0000000000
40
1.0000000000
10
-39.2314835074
20
-5.4284463606
30
0.0000000000
10
-39.2452066220
20
-5.4353243953
30
0.0000000000
10
-39.2589297367
20
-5.4422024298
30
0.0000000000
10
-39.2726528515
20
-5.4490804642
30
0.0000000000
11
-39.2314835074
21
-5.4284463606
31
0.0000000000
11
-39.2726528515
21
-5.4490804642
31
0.0000000000
0
SPLINE
5
40F
100
AcDbEntity
8
0
100
AcDbSpline
62
7
6
CONTINUOUS
70
0
71
3
72
10
73
6
74
4
42
0.0000001000
43
0.0000001000
44
0.0000000001
12
1.1955295544
22
0.4707118934
32
0.0000000000
13
0.0265838574
23
1.2772678875
33
0.0000000000
40
0.0000000000
40
0.0000000000
40
0.0000000000
40
0.0000000000
40
0.2944260521
40
0.6207447773
40
1.0000000000
40
1.0000000000
40
1.0000000000
40
1.0000000000
10
44.8494593662
20
-61.2821305153
30
0.0000000000
10
44.9667910485
20
-61.2359339005
30
0.0000000000
10
45.1885809338
20
-61.0715553586
30
0.0000000000
10
45.3855731253
20
-60.6816087490
30
0.0000000000
10
45.4270867394
20
-60.3794473328
30
0.0000000000
10
45.4304474283
20
-60.2179771604
30
0.0000000000
11
44.8494593662
21
-61.2821305153
31
0.0000000000
11
45.1547993903
21
-61.0625253480
31
0.0000000000
11
45.3542948722
21
-60.6964706143
31
0.0000000000
11
45.4304474283
21
-60.2179771604
31
0.0000000000
0
SPLINE
5
410
100
AcDbEntity
8
0
100
AcDbSpline
62
7
6
CONTINUOUS
70
0
71
3
72
10
73
6
74
4
42
0.0000001000
43
0.0000001000
44
0.0000000001
12
0.2130143960
22
-0.1179207187
32
0.0000000000
13
0.1864713119
23
-0.1566443267
33
0.0000000000
40
0.0000000000
40
0.0000000000
40
0.0000000000
40
0.0000000000
40
0.4135976416
40
0.8479658022
40
1.0000000000
40
1.0000000000
40
1.0000000000
40
1.0000000000
10
26.5371384127
20
5.0682121447
30
0.0000000000
10
26.5665058299
20
5.0519549010
30
0.0000000000
10
26.6252151726
20
5.0158528435
30
0.0000000000
10
26.6906506671
20
4.9677055707
30
0.0000000000
10
26.7274949056
20
4.9375580962
30
0.0000000000
10
26.7369449110
20
4.9296196647
30
0.0000000000
11
26.5371384127
21
5.0682121447
31
0.0000000000
11
26.6230105257
21
5.0156130122
31
0.0000000000
11
26.7082873257
21
4.9530618834
31
0.0000000000
11
26.7369449110
21
4.9296196647
31
0.0000000000
0
SPLINE
5
411
100
AcDbEntity
8
0
100
AcDbSpline
62
7
6
CONTINUOUS
70
0
71
3
72
11
73
7
74
5
42
0.0000001000
43
0.0000001000
44
0.0000000001
12
0.2799232748
22
-0.2351481976
32
0.0000000000
13
0.2205551462
23
-0.2915459145
33
0.0000000000
40
0.0000000000
40
0.0000000000
40
0.0000000000
40
0.0000000000
40
0.2094285980
40
0.5388170823
40
0.8826652304
40
1.0000000000
40
1.0000000000
40
1.0000000000
40
1.0000000000
10
26.7369449110
20
4.9296196647
30
0.0000000000
10
26.7564862240
20
4.9132040789
30
0.0000000000
10
26.8056349081
20
4.8696255721
30
0.0000000000
10
26.8814176588
20
4.7931867339
30
0.0000000000
10
26.9440447180
20
4.7198975460
30
0.0000000000
10
26.9784844361
20
4.6754831431
30
0.0000000000
10
26.9871106985
20
4.6640803189
30
0.0000000000
11
26.7369449110
21
4.9296196647
31
0.0000000000
11
26.7942564168
21
4.8788619296
31
0.0000000000
11
26.8791062348
21
4.7934552329
31
0.0000000000
11
26.9608244921
21
4.6979755773
31
0.0000000000
11
26.9871106985
21
4.6640803189
31
0.0000000000
0
SPLINE
5
412
100
AcDbEntity
8
0
100
AcDbSpline
62
7
6
CONTINUOUS
70
0
71
3
72
12
73
8
74
6
42
0.0000001000
43
0.0000001000
44
0.0000000001
12
0.3758856867
22
-0.4968731774
32
0.0000000000
13
0.1913817942
23
-0.5929272085
33
0.0000000000
40
0.0000000000
40
0.0000000000
40
0.0000000000
40
0.0000000000
40
0.1398496415
40
0.3537288127
40
0.5705504419
40
0.7871140040
40
1.0000000000
40
1.0000000000
40
1.0000000000
40
1.0000000000
10
26.9871106985
20
4.6640803189
30
0.0000000000
10
27.0046331913
20
4.6409178070
30
0.0000000000
10
27.0475350221
20
4.5812582609
30
0.0000000000
10
27.1109123039
20
4.4810531383
30
0.0000000000
10
27.1745880630
20
4.3625722150
30
0.0000000000
10
27.2295841302
20
4.2400450159
30
0.0000000000
10
27.2601594773
20
4.1561979650
30
0.0000000000
10
27.2737403119
20
4.1141226652
30
0.0000000000
11
26.9871106985
21
4.6640803189
31
0.0000000000
11
27.0379922225
21
4.5933586382
31
0.0000000000
11
27.1092361523
21
4.4807818611
31
0.0000000000
11
27.1731729809
21
4.3618153018
31
0.0000000000
11
27.2283789767
21
4.2387305248
31
0.0000000000
11
27.2737403119
21
4.1141226652
31
0.0000000000
0
SPLINE
5
413
100
AcDbEntity
8
0
100
AcDbSpline
62
7
6
CONTINUOUS
70
0
71
3
72
11
73
7
74
5
42
0.0000001000
43
0.0000001000
44
0.0000000001
12
0.1336958723
22
-0.4142082621
32
0.0000000000
13
0.0122775242
23
-0.4350826006
33
0.0000000000
40
0.0000000000
40
0.0000000000
40
0.0000000000
40
0.0000000000
40
0.2952391661
40
0.5698068886
40
0.8328397521
40
1.0000000000
40
1.0000000000
40
1.0000000000
40
1.0000000000
10
27.2737403119
20
4.1141226652
30
0.0000000000
10
27.2868977312
20
4.0733591645
30
0.0000000000
10
27.3094365293
20
3.9937609641
30
0.0000000000
10
27.3335909852
20
3.8752802987
30
0.0000000000
10
27.3462917056
20
3.7737465954
30
0.0000000000
10
27.3498278154
20
3.7113932925
30
0.0000000000
10
27.3505119200
20
3.6871504541
30
0.0000000000
11
27.2737403119
21
4.1141226652
31
0.0000000000
11
27.3086399041
21
3.9904804982
31
0.0000000000
11
27.3323856368
21
3.8733859075
31
0.0000000000
11
27.3464431195
21
3.7597937830
31
0.0000000000
11
27.3505119200
21
3.6871504541
31
0.0000000000
0
SPLINE
5
414
100
AcDbEntity
8
0
100
AcDbSpline
62
7
6
CONTINUOUS
70
0
71
3
72
8
73
4
74
2
42
0.0000001000
43
0.0000001000
44
0.0000000001
12
0.0009986479
22
-0.0353894085
32
0.0000000000
13
0.0000000906
23
-0.0353948610
33
0.0000000000
40
0.0000000000
40
0.0000000000
40
0.0000000000
40
0.0000000000
40
1.0000000000
40
1.0000000000
40
1.0000000000
40
1.0000000000
10
27.3505119200
20
3.6871504541
30
0.0000000000
10
27.3508448027
20
3.6753539846
30
0.0000000000
10
27.3510143284
20
3.6635541530
30
0.0000000000
10
27.3510143586
20
3.6517558660
30
0.0000000000
11
27.3505119200
21
3.6871504541
31
0.0000000000
11
27.3510143586
21
3.6517558660
31
0.0000000000
0
SPLINE
5
415
100
AcDbEntity
8
0
100
AcDbSpline
62
7
6
CONTINUOUS
70
0
71
3
72
9
73
5
74
3
42
0.0000001000
43
0.0000001000
44
0.0000000001
12
-0.0035707954
22
-0.0562199825
32
0.0000000000
13
0.0496971498
23
-0.0295060176
33
0.0000000000
40
0.0000000000
40
0.0000000000
40
0.0000000000
40
0.0000000000
40
0.6654514384
40
1.0000000000
40
1.0000000000
40
1.0000000000
40
1.0000000000
10
26.5371384534
20
5.0682121665
30
0.0000000000
10
26.5363463898
20
5.0557416104
30
0.0000000000
10
26.5373281764
20
5.0354183415
30
0.0000000000
10
26.5516441150
20
5.0209337393
30
0.0000000000
10
26.5571861517
20
5.0176433407
30
0.0000000000
11
26.5371384534
21
5.0682121665
31
0.0000000000
11
26.5435577565
21
5.0312788245
31
0.0000000000
11
26.5571861517
21
5.0176433407
31
0.0000000000
0
SPLINE
5
416
100
AcDbEntity
8
0
100
AcDbSpline
62
7
6
CONTINUOUS
70
0
71
3
72
9
73
5
74
3
42
0.0000001000
43
0.0000001000
44
0.0000000001
12
-0.0451754860
22
0.0210607033
32
0.0000000000
13
-0.0006842056
23
0.0518533442
33
0.0000000000
40
0.0000000000
40
0.0000000000
40
0.0000000000
40
0.0000000000
40
0.7140711650
40
1.0000000000
40
1.0000000000
40
1.0000000000
40
1.0000000000
10
27.3510143586
20
3.6517558660
30
0.0000000000
10
27.3402615213
20
3.6567688129
30
0.0000000000
10
27.3240403036
20
3.6660210104
30
0.0000000000
10
27.3200439550
20
3.6833937657
30
0.0000000000
10
27.3199787436
20
3.6883358878
30
0.0000000000
11
27.3510143586
21
3.6517558660
31
0.0000000000
11
27.3233287454
21
3.6741229209
31
0.0000000000
11
27.3199787436
21
3.6883358878
31
0.0000000000
0
SPLINE
5
417
100
AcDbEntity
8
0
100
AcDbSpline
62
7
6
CONTINUOUS
70
0
71
3
72
8
73
4
74
2
42
0.0000001000
43
0.0000001000
44
0.0000000001
12
-0.0000002826
22
-0.1001329116
32
0.0000000000
13
-0.0086527751
23
-0.0998016744
33
0.0000000000
40
0.0000000000
40
0.0000000000
40
0.0000000000
40
0.0000000000
40
1.0000000000
40
1.0000000000
40
1.0000000000
40
1.0000000000
10
27.3510143586
20
-38.8309644547
30
0.0000000000
10
27.3510142644
20
-38.8643420919
30
0.0000000000
10
27.3496575658
20
-38.8977402880
30
0.0000000000
10
27.3467733074
20
-38.9310075128
30
0.0000000000
11
27.3510143586
21
-38.8309644547
31
0.0000000000
11
27.3467733074
21
-38.9310075128
31
0.0000000000
0
SPLINE
5
418
100
AcDbEntity
8
0
100
AcDbSpline
62
7
6
CONTINUOUS
70
0
71
3
72
8
73
4
74
2
42
0.0000001000
43
0.0000001000
44
0.0000000001
12
-0.0028599172
22
-0.0329864721
32
0.0000000000
13
-0.0038832834
23
-0.0328808056
33
0.0000000000
40
0.0000000000
40
0.0000000000
40
0.0000000000
40
0.0000000000
40
1.0000000000
40
1.0000000000
40
1.0000000000
40
1.0000000000
10
27.3467733074
20
-38.9310075128
30
0.0000000000
10
27.3458200017
20
-38.9420030035
30
0.0000000000
10
27.3446998198
20
-38.9529841864
30
0.0000000000
10
27.3434053920
20
-38.9639444549
30
0.0000000000
11
27.3467733074
21
-38.9310075128
31
0.0000000000
11
27.3434053920
21
-38.9639444549
31
0.0000000000
0
SPLINE
5
419
100
AcDbEntity
8
0
100
AcDbSpline
62
7
6
CONTINUOUS
70
0
71
3
72
10
73
6
74
4
42
0.0000001000
43
0.0000001000
44
0.0000000001
12
-0.0300977554
22
-0.2548457950
32
0.0000000000
13
-0.1039340603
23
-0.2347175558
33
0.0000000000
40
0.0000000000
40
0.0000000000
40
0.0000000000
40
0.0000000000
40
0.2560706653
40
0.6330897927
40
1.0000000000
40
1.0000000000
40
1.0000000000
40
1.0000000000
10
27.3434053920
20
-38.9639444549
30
0.0000000000
10
27.3408363413
20
-38.9856972990
30
0.0000000000
10
27.3327879081
20
-39.0392737134
30
0.0000000000
10
27.3128919907
20
-39.1226065394
30
0.0000000000
10
27.2910039582
20
-39.1825025394
30
0.0000000000
10
27.2782924690
20
-39.2112092950
30
0.0000000000
11
27.3434053920
21
-38.9639444549
31
0.0000000000
11
27.3335815430
21
-39.0289041908
31
0.0000000000
11
27.3108706681
21
-39.1229101614
31
0.0000000000
11
27.2782924690
21
-39.2112092950
31
0.0000000000
0
SPLINE
5
41A
100
AcDbEntity
8
0
100
AcDbSpline
62
7
6
CONTINUOUS
70
0
71
3
72
8
73
4
74
2
42
0.0000001000
43
0.0000001000
44
0.0000000001
12
-0.0124500305
22
-0.0281162953
32
0.0000000000
13
-0.0136907945
23
-0.0275368615
33
0.0000000000
40
0.0000000000
40
0.0000000000
40
0.0000000000
40
0.0000000000
40
1.0000000000
40
1.0000000000
40
1.0000000000
40
1.0000000000
10
27.2782924690
20
-39.2112092950
30
0.0000000000
10
27.2741424589
20
-39.2205813935
30
0.0000000000
10
27.2697882076
20
-39.2298645667
30
0.0000000000
10
27.2652246094
20
-39.2390435206
30
0.0000000000
11
27.2782924690
21
-39.2112092950
31
0.0000000000
11
27.2652246094
21
-39.2390435206
31
0.0000000000
0
SPLINE
5
41B
100
AcDbEntity
8
0
100
AcDbSpline
62
7
6
CONTINUOUS
70
0
71
3
72
9
73
5
74
3
42
0.0000001000
43
0.0000001000
44
0.0000000001
12
-0.0402810580
22
-0.0810189585
32
0.0000000000
13
-0.0515092108
23
-0.0744083415
33
0.0000000000
40
0.0000000000
40
0.0000000000
40
0.0000000000
40
0.0000000000
40
0.6701805829
40
1.0000000000
40
1.0000000000
40
1.0000000000
40
1.0000000000
10
27.2652246094
20
-39.2390435206
30
0.0000000000
10
27.2562260818
20
-39.2571426315
30
0.0000000000
10
27.2415845477
20
-39.2835443278
30
0.0000000000
10
27.2250436430
20
-39.3087827876
30
0.0000000000
10
27.2193807304
20
-39.3169632262
30
0.0000000000
11
27.2652246094
21
-39.2390435206
31
0.0000000000
11
27.2357480510
21
-39.2920079816
31
0.0000000000
11
27.2193807304
21
-39.3169632262
31
0.0000000000
0
SPLINE
5
41C
100
AcDbEntity
8
0
100
AcDbSpline
62
7
6
CONTINUOUS
70
0
71
3
72
12
73
8
74
6
42
0.0000001000
43
0.0000001000
44
0.0000000001
12
-0.2302635571
22
-0.3326304000
32
0.0000000000
13
-0.3988417753
23
-0.0679908678
33
0.0000000000
40
0.0000000000
40
0.0000000000
40
0.0000000000
40
0.0000000000
40
0.1457501213
40
0.3605637576
40
0.5730554150
40
0.7854827034
40
1.0000000000
40
1.0000000000
40
1.0000000000
40
1.0000000000
10
27.2193807304
20
-39.3169632262
30
0.0000000000
10
27.2081937499
20
-39.3331235333
30
0.0000000000
10
27.1785165473
20
-39.3717144146
30
0.0000000000
10
27.1234180992
20
-39.4263071048
30
0.0000000000
10
27.0522582902
20
-39.4757233923
30
0.0000000000
10
26.9734546799
20
-39.5116402937
30
0.0000000000
10
26.9174674320
20
-39.5260040393
30
0.0000000000
10
26.8889479455
20
-39.5308657784
30
0.0000000000
11
27.2193807304
21
-39.3169632262
31
0.0000000000
11
27.1833855643
21
-39.3636295455
31
0.0000000000
11
27.1215657943
21
-39.4245822399
31
0.0000000000
11
27.0509754006
21
-39.4734888319
31
0.0000000000
11
26.9728777467
21
-39.5091419872
31
0.0000000000
11
26.8889479455
21
-39.5308657784
31
0.0000000000
0
SPLINE
5
41D
100
AcDbEntity
8
0
100
AcDbSpline
62
7
6
CONTINUOUS
70
0
71
3
72
11
73
7
74
5
42
0.0000001000
43
0.0000001000
44
0.0000000001
12
-0.3536646755
22
-0.0602894924
32
0.0000000000
13
-0.3349545761
23
0.1274015348
33
0.0000000000
40
0.0000000000
40
0.0000000000
40
0.0000000000
40
0.0000000000
40
0.2459332556
40
0.4968217897
40
0.7441952718
40
1.0000000000
40
1.0000000000
40
1.0000000000
40
1.0000000000
10
26.8889479455
20
-39.5308657784
30
0.0000000000
10
26.8599553105
20
-39.5358081754
30
0.0000000000
10
26.8005741054
20
-39.5408753301
30
0.0000000000
10
26.7115648327
20
-39.5350255183
30
0.0000000000
10
26.6230264075
20
-39.5173320011
30
0.0000000000
10
26.5656994009
20
-39.4988026300
30
0.0000000000
10
26.5371384128
20
-39.4879393250
30
0.0000000000
11
26.8889479455
21
-39.5308657784
31
0.0000000000
11
26.8011563171
21
-39.5386261965
31
0.0000000000
11
26.7114210963
21
-39.5330267049
31
0.0000000000
11
26.6244401535
21
-39.5159050006
31
0.0000000000
11
26.5371384128
21
-39.4879393250
31
0.0000000000
0
SPLINE
5
41E
100
AcDbEntity
8
0
100
AcDbSpline
62
7
6
CONTINUOUS
70
0
71
3
72
9
73
5
74
3
42
0.0000001000
43
0.0000001000
44
0.0000000001
12
-0.0451325228
22
0.0210406739
32
0.0000000000
13
-0.0007586603
23
0.0518057131
33
0.0000000000
40
0.0000000000
40
0.0000000000
40
0.0000000000
40
0.0000000000
40
0.7147516063
40
1.0000000000
40
1.0000000000
40
1.0000000000
40
1.0000000000
10
27.3510143586
20
-38.8309644547
30
0.0000000000
10
27.3402615109
20
-38.8259515029
30
0.0000000000
10
27.3240557138
20
-38.8167080970
30
0.0000000000
10
27.3200515658
20
-38.7993595810
30
0.0000000000
10
27.3199794303
20
-38.7944337489
30
0.0000000000
11
27.3510143586
21
-38.8309644547
31
0.0000000000
11
27.3233287266
21
-38.8085973681
31
0.0000000000
11
27.3199794303
21
-38.7944337489
31
0.0000000000
0
SPLINE
5
41F
100
AcDbEntity
8
0
100
AcDbSpline
62
7
6
CONTINUOUS
70
0
71
3
72
8
73
4
74
2
42
0.0000001000
43
0.0000001000
44
0.0000000001
12
-0.2198917768
22
0.0836384335
32
0.0000000000
13
-0.2198365684
23
0.0837840717
33
0.0000000000
40
0.0000000000
40
0.0000000000
40
0.0000000000
40
0.0000000000
40
1.0000000000
40
1.0000000000
40
1.0000000000
40
1.0000000000
10
26.5371384128
20
-39.4879393250
30
0.0000000000
10
26.4638411539
20
-39.4600598472
30
0.0000000000
10
26.3905530881
20
-39.4321560904
30
0.0000000000
10
26.3172742319
20
-39.4042280665
30
0.0000000000
11
26.5371384128
21
-39.4879393250
31
0.0000000000
11
26.3172742319
21
-39.4042280665
31
0.0000000000
0
SPLINE
5
420
100
AcDbEntity
8
0
100
AcDbSpline
62
7
6
CONTINUOUS
70
0
71
3
72
20
73
16
74
14
42
0.0000001000
43
0.0000001000
44
0.0000000001
12
-68.0000981305
22
25.9161846489
32
0.0000000000
13
-61.6238444209
23
38.7059890332
33
0.0000000000
40
0.0000000000
40
0.0000000000
40
0.0000000000
40
0.0000000000
40
0.0520343639
40
0.1156982283
40
0.1869870849
40
0.2651441810
40
0.3494119046
40
0.4385945552
40
0.5306370443
40
0.6233673038
40
0.7145540773
40
0.8012977457
40
0.8801445490
40
0.9475831292
40
1.0000000000
40
1.0000000000
40
1.0000000000
40
1.0000000000
10
26.3172742319
20
-39.4042280665
30
0.0000000000
10
25.1378269492
20
-38.9547173392
30
0.0000000000
10
22.5206349248
20
-37.9412535076
30
0.0000000000
10
18.3104432210
20
-36.2534971118
30
0.0000000000
10
13.5388673110
20
-34.2643124136
30
0.0000000000
10
8.3395020427
20
-32.0039563936
30
0.0000000000
10
2.7825092860
20
-29.4794402233
30
0.0000000000
10
-3.0341703794
20
-26.7144374479
30
0.0000000000
10
-8.9840545066
20
-23.7539439571
30
0.0000000000
10
-14.9223119056
20
-20.6634297452
30
0.0000000000
10
-20.6912990812
20
-17.5284242796
30
0.0000000000
10
-26.1124540495
20
-14.4606970951
30
0.0000000000
10
-30.9874871379
20
-11.5991595599
30
0.0000000000
10
-35.1101171659
20
-9.1017737257
30
0.0000000000
10
-37.5796924154
20
-7.5674513378
30
0.0000000000
10
-38.6564021129
20
-6.8911690622
30
0.0000000000
11
26.3172742319
21
-39.4042280665
31
0.0000000000
11
22.7861589327
21
-38.0368856754
31
0.0000000000
11
18.4859032016
21
-36.3130697270
31
0.0000000000
11
13.6975282747
21
-34.3169476725
31
0.0000000000
11
8.4814898240
21
-32.0494381286
31
0.0000000000
11
2.8983054793
21
-29.5131541055
31
0.0000000000
11
-2.9631515940
21
-26.7270229807
31
0.0000000000
11
-8.9599536586
21
-23.7433720734
31
0.0000000000
11
-14.9459820815
21
-20.6282076713
31
0.0000000000
11
-20.7765534783
21
-17.4599386888
31
0.0000000000
11
-26.2704500972
21
-14.3512345906
31
0.0000000000
11
-31.2188193334
21
-11.4467987774
31
0.0000000000
11
-35.4163518520
21
-8.9041339670
31
0.0000000000
11
-38.6564021129
21
-6.8911690622
31
0.0000000000
0
SPLINE
5
421
100
AcDbEntity
8
0
100
AcDbSpline
62
7
6
CONTINUOUS
70
0
71
3
72
8
73
4
74
2
42
0.0000001000
43
0.0000001000
44
0.0000000001
12
-0.2328393123
22
0.0885606065
32
0.0000000000
13
-0.2327773896
23
0.0887239507
33
0.0000000000
40
0.0000000000
40
0.0000000000
40
0.0000000000
40
0.0000000000
40
1.0000000000
40
1.0000000000
40
1.0000000000
40
1.0000000000
10
26.5996402665
20
-39.3627674086
30
0.0000000000
10
26.5220271624
20
-39.3332472064
30
0.0000000000
10
26.4444243689
20
-39.3036997731
30
0.0000000000
10
26.3668319057
20
-39.2741251229
30
0.0000000000
11
26.5996402665
21
-39.3627674086
31
0.0000000000
11
26.3668319057
21
-39.2741251229
31
0.0000000000
0
SPLINE
5
422
100
AcDbEntity
8
0
100
AcDbSpline
62
7
6
CONTINUOUS
70
0
71
3
72
14
73
10
74
8
42
0.0000001000
43
0.0000001000
44
0.0000000001
12
-30.7085145352
22
11.7046622720
32
0.0000000000
13
-29.5173090490
23
14.4487916739
33
0.0000000000
40
0.0000000000
40
0.0000000000
40
0.0000000000
40
0.0000000000
40
0.1147726566
40
0.2557140879
40
0.4135359548
40
0.5865629180
40
0.7731177541
40
0.9705533811
40
1.0000000000
40
1.0000000000
40
1.0000000000
40
1.0000000000
10
26.3668319057
20
-39.2741251229
30
0.0000000000
10
25.1919993081
20
-38.8263333952
30
0.0000000000
10
22.5797424856
20
-37.8147493222
30
0.0000000000
10
18.3748096989
20
-36.1291399314
30
0.0000000000
10
13.6043229381
20
-34.1404465107
30
0.0000000000
10
8.4061488011
20
-31.8806404571
30
0.0000000000
10
2.8504340888
20
-29.3567291933
30
0.0000000000
10
-1.2401588556
20
-27.4122446038
30
0.0000000000
10
-3.4739156693
20
-26.3224597718
30
0.0000000000
10
-3.7636439863
20
-26.1806370844
30
0.0000000000
11
26.3668319057
21
-39.2741251229
31
0.0000000000
11
22.8495070486
21
-37.9120804332
31
0.0000000000
11
18.5502294808
21
-36.1886962994
31
0.0000000000
11
13.7629474483
21
-34.1930671953
31
0.0000000000
11
8.5481040418
21
-31.9261093949
31
0.0000000000
11
2.9662038306
21
-29.3904331304
31
0.0000000000
11
-2.8938995033
21
-26.6049594897
31
0.0000000000
11
-3.7636439863
21
-26.1806370844
31
0.0000000000
0
SPLINE
5
423
100
AcDbEntity
8
0
100
AcDbSpline
62
7
6
CONTINUOUS
70
0
71
3
72
14
73
10
74
8
42
0.0000001000
43
0.0000001000
44
0.0000000001
12
-35.8166742225
22
17.5323456293
32
0.0000000000
13
-33.7682715272
23
21.2103265994
33
0.0000000000
40
0.0000000000
40
0.0000000000
40
0.0000000000
40
0.0000000000
40
0.1436610949
40
0.3128446118
40
0.4792121008
40
0.6374733073
40
0.7813269680
40
0.9043667085
40
1.0000000000
40
1.0000000000
40
1.0000000000
40
1.0000000000
10
-3.7636439863
20
-26.1806370844
30
0.0000000000
10
-5.4787981982
20
-25.3410650944
30
0.0000000000
10
-9.1995626993
20
-23.4836454440
30
0.0000000000
10
-14.8502814443
20
-20.5427669918
30
0.0000000000
10
-20.6179201830
20
-17.4084695810
30
0.0000000000
10
-26.0378034708
20
-14.3414263453
30
0.0000000000
10
-30.9116893722
20
-11.4805193925
30
0.0000000000
10
-35.0333489111
20
-8.9836770412
30
0.0000000000
10
-37.5023421823
20
-7.4496854726
30
0.0000000000
10
-38.5787991672
20
-6.7735476904
30
0.0000000000
11
-3.7636439863
21
-26.1806370844
31
0.0000000000
11
-8.8893105401
21
-23.6220022233
31
0.0000000000
11
-14.8739449522
21
-20.5075514069
31
0.0000000000
11
-20.7031533210
21
-17.3399981170
31
0.0000000000
11
-26.1957609530
21
-14.2319872642
31
0.0000000000
11
-31.1429657793
21
-11.3281914847
31
0.0000000000
11
-35.3395081703
21
-8.7860812442
31
0.0000000000
11
-38.5787991672
21
-6.7735476904
31
0.0000000000
0
SPLINE
5
424
100
AcDbEntity
8
0
100
AcDbSpline
62
7
6
CONTINUOUS
70
0
71
3
72
10
73
6
74
4
42
0.0000001000
43
0.0000001000
44
0.0000000001
12
-0.0087172619
22
0.1453952499
32
0.0000000000
13
0.1279621843
23
0.0695805198
33
0.0000000000
40
0.0000000000
40
0.0000000000
40
0.0000000000
40
0.0000000000
40
0.3401509057
40
0.6914662063
40
1.0000000000
40
1.0000000000
40
1.0000000000
40
1.0000000000
10
26.5371384131
20
-39.4879393249
30
0.0000000000
10
26.5361500182
20
-39.4714538829
30
0.0000000000
10
26.5412767649
20
-39.4374035897
30
0.0000000000
10
26.5628178192
20
-39.3932903007
30
0.0000000000
10
26.5864800471
20
-39.3699233892
30
0.0000000000
10
26.5996402665
20
-39.3627674086
30
0.0000000000
11
26.5371384131
21
-39.4879393249
31
0.0000000000
11
26.5435578081
21
-39.4388118187
31
0.0000000000
11
26.5664176973
21
-39.3930305180
31
0.0000000000
11
26.5996402665
21
-39.3627674086
31
0.0000000000
0
SPLINE
5
425
100
AcDbEntity
8
0
100
AcDbSpline
62
7
6
CONTINUOUS
70
0
71
3
72
9
73
5
74
3
42
0.0000001000
43
0.0000001000
44
0.0000000001
12
-0.1110233164
22
0.0697345708
32
0.0000000000
13
-0.1024691707
23
0.0818422370
33
0.0000000000
40
0.0000000000
40
0.0000000000
40
0.0000000000
40
0.0000000000
40
0.7435894537
40
1.0000000000
40
1.0000000000
40
1.0000000000
40
1.0000000000
10
-38.6564021129
20
-6.8911690622
30
0.0000000000
10
-38.6839207019
20
-6.8738844317
30
0.0000000000
10
-38.7198715558
20
-6.8489232072
30
0.0000000000
10
-38.7543904836
20
-6.8220943602
30
0.0000000000
10
-38.7631485423
20
-6.8150992893
30
0.0000000000
11
-38.6564021129
21
-6.8911690622
31
0.0000000000
11
-38.7365943054
21
-6.8357299695
31
0.0000000000
11
-38.7631485423
21
-6.8150992893
31
0.0000000000
0
SPLINE
5
426
100
AcDbEntity
8
0
100
AcDbSpline
62
7
6
CONTINUOUS
70
0
71
3
72
11
73
7
74
5
42
0.0000001000
43
0.0000001000
44
0.0000000001
12
-0.2982168499
22
0.2381861192
32
0.0000000000
13
-0.2305888481
23
0.3041035922
33
0.0000000000
40
0.0000000000
40
0.0000000000
40
0.0000000000
40
0.0000000000
40
0.1819028952
40
0.4734917920
40
0.7842223172
40
1.0000000000
40
1.0000000000
40
1.0000000000
40
1.0000000000
10
-38.7631485423
20
-6.8150992893
30
0.0000000000
10
-38.7812307118
20
-6.8006570411
30
0.0000000000
10
-38.8272670076
20
-6.7617782967
30
0.0000000000
10
-38.8991850611
20
-6.6925256097
30
0.0000000000
10
-38.9686570403
20
-6.6149416365
30
0.0000000000
10
-39.0103456574
20
-6.5624961115
30
0.0000000000
10
-39.0269309665
20
-6.5406231887
30
0.0000000000
11
-38.7631485423
21
-6.8150992893
31
0.0000000000
11
-38.8162167199
21
-6.7703516479
31
0.0000000000
11
-38.8964715639
21
-6.6932945705
31
0.0000000000
11
-38.9756677924
21
-6.6050610791
31
0.0000000000
11
-39.0269309665
21
-6.5406231887
31
0.0000000000
0
SPLINE
5
427
100
AcDbEntity
8
0
100
AcDbSpline
62
7
6
CONTINUOUS
70
0
71
3
72
13
73
9
74
7
42
0.0000001000
43
0.0000001000
44
0.0000000001
12
-0.4273334190
22
0.5635729087
32
0.0000000000
13
-0.2018363521
23
0.6778508001
33
0.0000000000
40
0.0000000000
40
0.0000000000
40
0.0000000000
40
0.0000000000
40
0.0594069978
40
0.2420290592
40
0.4298273942
40
0.6207463205
40
0.8118545507
40
1.0000000000
40
1.0000000000
40
1.0000000000
40
1.0000000000
10
-39.0269309665
20
-6.5406231887
30
0.0000000000
10
-39.0353931650
20
-6.5294631305
30
0.0000000000
10
-39.0693387355
20
-6.4835938504
30
0.0000000000
10
-39.1258183451
20
-6.3993908991
30
0.0000000000
10
-39.1920487422
20
-6.2847355937
30
0.0000000000
10
-39.2514163140
20
-6.1641465819
30
0.0000000000
10
-39.3026841415
20
-6.0398077647
30
0.0000000000
10
-39.3311697219
20
-5.9550030505
30
0.0000000000
10
-39.3438279190
20
-5.9124915361
30
0.0000000000
11
-39.0269309665
21
-6.5406231887
31
0.0000000000
11
-39.0519282183
21
-6.5068525078
31
0.0000000000
11
-39.1239304230
21
-6.3996528059
31
0.0000000000
11
-39.1903953443
21
-6.2846865245
31
0.0000000000
11
-39.2500351358
21
-6.1635714466
31
0.0000000000
11
-39.3015246441
21
-6.0386284259
31
0.0000000000
11
-39.3438279190
21
-5.9124915361
31
0.0000000000
0
SPLINE
5
428
100
AcDbEntity
8
0
100
AcDbSpline
62
7
6
CONTINUOUS
70
0
71
3
72
9
73
5
74
3
42
0.0000001000
43
0.0000001000
44
0.0000000001
12
-0.0710588904
22
0.2386454431
32
0.0000000000
13
-0.0372998602
23
0.2461889923
33
0.0000000000
40
0.0000000000
40
0.0000000000
40
0.0000000000
40
0.0000000000
40
0.5181461692
40
1.0000000000
40
1.0000000000
40
1.0000000000
40
1.0000000000
10
-39.3438279190
20
-5.9124915361
30
0.0000000000
10
-39.3561008829
20
-5.8712737954
30
0.0000000000
10
-39.3771141614
20
-5.7909262893
30
0.0000000000
10
-39.3925228351
20
-5.7093174571
30
0.0000000000
10
-39.3985138620
20
-5.6697750874
30
0.0000000000
11
-39.3438279190
21
-5.9124915361
31
0.0000000000
11
-39.3763720836
21
-5.7876716553
31
0.0000000000
11
-39.3985138620
21
-5.6697750874
31
0.0000000000
0
SPLINE
5
429
100
AcDbEntity
8
0
100
AcDbSpline
62
7
6
CONTINUOUS
70
0
71
3
72
9
73
5
74
3
42
0.0000001000
43
0.0000001000
44
0.0000000001
12
-0.0334258422
22
0.2206194435
32
0.0000000000
13
-0.0000006292
23
0.2230941120
33
0.0000000000
40
0.0000000000
40
0.0000000000
40
0.0000000000
40
0.0000000000
40
0.5146606640
40
1.0000000000
40
1.0000000000
40
1.0000000000
40
1.0000000000
10
-39.3985138620
20
-5.6697750874
30
0.0000000000
10
-39.4042481840
20
-5.6319270377
30
0.0000000000
10
-39.4128380212
20
-5.5579976672
30
0.0000000000
10
-39.4158834195
20
-5.4836076308
30
0.0000000000
10
-39.4158835213
20
-5.4475155147
30
0.0000000000
11
-39.3985138620
21
-5.6697750874
31
0.0000000000
11
-39.4116213001
21
-5.5557079407
31
0.0000000000
11
-39.4158835213
21
-5.4475155147
31
0.0000000000
0
SPLINE
5
42A
100
AcDbEntity
8
0
100
AcDbSpline
62
7
6
CONTINUOUS
70
0
71
3
72
10
73
6
74
4
42
0.0000001000
43
0.0000001000
44
0.0000000001
12
-0.2120906358
22
0.1338096950
32
0.0000000000
13
-0.1784172025
23
0.1763153073
33
0.0000000000
40
0.0000000000
40
0.0000000000
40
0.0000000000
40
0.0000000000
40
0.3559573101
40
0.7321947346
40
1.0000000000
40
1.0000000000
40
1.0000000000
40
1.0000000000
10
-38.5787991528
20
-6.7735474247
30
0.0000000000
10
-38.6039642236
20
-6.7576705783
30
0.0000000000
10
-38.6542417435
20
-6.7226094125
30
0.0000000000
10
-38.7187065317
20
-6.6692672945
30
0.0000000000
10
-38.7579383661
20
-6.6323574043
30
0.0000000000
10
-38.7738653882
20
-6.6166180151
30
0.0000000000
11
-38.5787991528
21
-6.7735474247
31
0.0000000000
11
-38.6521220054
21
-6.7226361822
31
0.0000000000
11
-38.7249163685
21
-6.6626112569
31
0.0000000000
11
-38.7738653882
21
-6.6166180151
31
0.0000000000
0
SPLINE
5
42B
100
AcDbEntity
8
0
100
AcDbSpline
62
7
6
CONTINUOUS
70
0
71
3
72
12
73
8
74
6
42
0.0000001000
43
0.0000001000
44
0.0000000001
12
-0.2958893282
22
0.2924035190
32
0.0000000000
13
-0.2115778134
23
0.3581333384
33
0.0000000000
40
0.0000000000
40
0.0000000000
40
0.0000000000
40
0.0000000000
40
0.0835687565
40
0.3447463776
40
0.6186851740
40
0.9032183917
40
1.0000000000
40
1.0000000000
40
1.0000000000
40
1.0000000000
10
-38.7738653882
20
-6.6166180151
30
0.0000000000
10
-38.7821077559
20
-6.6084727489
30
0.0000000000
10
-38.8156831955
20
-6.5744384717
30
0.0000000000
10
-38.8728161420
20
-6.5103704099
30
0.0000000000
10
-38.9423020238
20
-6.4203498361
30
0.0000000000
10
-38.9927967341
20
-6.3447573729
30
0.0000000000
10
-39.0201945366
20
-6.2995353603
30
0.0000000000
10
-39.0270201503
20
-6.2879817868
30
0.0000000000
11
-38.7738653882
21
-6.6166180151
31
0.0000000000
11
-38.7982833452
21
-6.5918745945
31
0.0000000000
11
-38.8706726364
21
-6.5108922576
31
0.0000000000
11
-38.9403673719
21
-6.4207695830
31
0.0000000000
11
-39.0061588605
21
-6.3224116065
31
0.0000000000
11
-39.0270201503
21
-6.2879817868
31
0.0000000000
0
SPLINE
5
42C
100
AcDbEntity
8
0
100
AcDbSpline
62
7
6
CONTINUOUS
70
0
71
3
72
11
73
7
74
5
42
0.0000001000
43
0.0000001000
44
0.0000000001
12
-0.2089473019
22
0.3536807267
32
0.0000000000
13
-0.1256241892
23
0.3911130342
33
0.0000000000
40
0.0000000000
40
0.0000000000
40
0.0000000000
40
0.0000000000
40
0.1983059909
40
0.4995761619
40
0.8011933509
40
1.0000000000
40
1.0000000000
40
1.0000000000
40
1.0000000000
10
-39.0270201503
20
-6.2879817868
30
0.0000000000
10
-39.0408319842
20
-6.2646027844
30
0.0000000000
10
-39.0743042820
20
-6.2049244352
30
0.0000000000
10
-39.1226211233
20
-6.1063624415
30
0.0000000000
10
-39.1643325556
20
-6.0047534172
30
0.0000000000
10
-39.1867773038
20
-5.9399910752
30
0.0000000000
10
-39.1951022785
20
-5.9140724512
30
0.0000000000
11
-39.0270201503
21
-6.2879817868
31
0.0000000000
11
-39.0668785033
21
-6.2169440119
31
0.0000000000
11
-39.1213541107
21
-6.1058445020
31
0.0000000000
11
-39.1683768613
21
-5.9912371488
31
0.0000000000
11
-39.1951022785
21
-5.9140724512
31
0.0000000000
0
SPLINE
5
42D
100
AcDbEntity
8
0
100
AcDbSpline
62
7
6
CONTINUOUS
70
0
71
3
72
12
73
8
74
6
42
0.0000001000
43
0.0000001000
44
0.0000000001
12
-0.1348158165
22
0.4197298577
32
0.0000000000
13
-0.0112671087
23
0.4407148052
33
0.0000000000
40
0.0000000000
40
0.0000000000
40
0.0000000000
40
0.0000000000
40
0.0914836013
40
0.3598344403
40
0.6093999514
40
0.8482759766
40
1.0000000000
40
1.0000000000
40
1.0000000000
40
1.0000000000
10
-39.1951022785
20
-5.9140724512
30
0.0000000000
10
-39.1992134240
20
-5.9012729849
30
0.0000000000
10
-39.2148162169
20
-5.8507462509
30
0.0000000000
10
-39.2373804747
20
-5.7640281187
30
0.0000000000
10
-39.2579089874
20
-5.6546587028
30
0.0000000000
10
-39.2686896217
20
-5.5611454537
30
0.0000000000
10
-39.2716754138
20
-5.5037923856
30
0.0000000000
10
-39.2722452441
20
-5.4815033778
30
0.0000000000
11
-39.1951022785
21
-5.9140724512
31
0.0000000000
11
-39.2069997502
21
-5.8755375250
31
0.0000000000
11
-39.2366993385
21
-5.7610468030
31
0.0000000000
11
-39.2568874311
21
-5.6529150201
31
0.0000000000
11
-39.2688138357
21
-5.5483040547
31
0.0000000000
11
-39.2722452441
21
-5.4815033778
31
0.0000000000
0
SPLINE
5
42E
100
AcDbEntity
8
0
100
AcDbSpline
62
7
6
CONTINUOUS
70
0
71
3
72
8
73
4
74
2
42
0.0000001000
43
0.0000001000
44
0.0000000001
12
-0.0008288073
22
0.0324189338
32
0.0000000000
13
0.0000196502
23
0.0324227517
33
0.0000000000
40
0.0000000000
40
0.0000000000
40
0.0000000000
40
0.0000000000
40
1.0000000000
40
1.0000000000
40
1.0000000000
40
1.0000000000
10
-39.2722452441
20
-5.4815033778
30
0.0000000000
10
-39.2725215132
20
-5.4706970665
30
0.0000000000
10
-39.2726591067
20
-5.4598881981
30
0.0000000000
10
-39.2726525566
20
-5.4490806142
30
0.0000000000
11
-39.2722452441
21
-5.4815033778
31
0.0000000000
11
-39.2726525566
21
-5.4490806142
31
0.0000000000
0
SPLINE
5
42F
100
AcDbEntity
8
0
100
AcDbSpline
62
7
6
CONTINUOUS
70
0
71
3
72
10
73
6
74
4
42
0.0000001000
43
0.0000001000
44
0.0000000001
12
0.0086626599
22
0.1457430203
32
0.0000000000
13
0.1319340847
23
0.0625257301
33
0.0000000000
40
0.0000000000
40
0.0000000000
40
0.0000000000
40
0.0000000000
40
0.3275405080
40
0.6805491112
40
1.0000000000
40
1.0000000000
40
1.0000000000
40
1.0000000000
10
-38.6564020692
20
-6.8911690418
30
0.0000000000
10
-38.6554562785
20
-6.8752567942
30
0.0000000000
10
-38.6458832513
20
-6.8426192502
30
0.0000000000
10
-38.6189160405
20
-6.8015651629
30
0.0000000000
10
-38.5928479730
20
-6.7802053913
30
0.0000000000
10
-38.5787991528
20
-6.7735474247
30
0.0000000000
11
-38.6564020692
21
-6.8911690418
31
0.0000000000
11
-38.6442078332
21
-6.8449289303
31
0.0000000000
11
-38.6158247578
21
-6.8019091137
31
0.0000000000
11
-38.5787991528
21
-6.7735474247
31
0.0000000000
0
SPLINE
5
430
100
AcDbEntity
8
0
100
AcDbSpline
62
7
6
CONTINUOUS
70
0
71
3
72
10
73
6
74
4
42
0.0000001000
43
0.0000001000
44
0.0000000001
12
0.1296296435
22
-0.0695143233
32
0.0000000000
13
0.1320168508
23
0.0648662990
33
0.0000000000
40
0.0000000000
40
0.0000000000
40
0.0000000000
40
0.0000000000
40
0.3183512718
40
0.6759427984
40
1.0000000000
40
1.0000000000
40
1.0000000000
40
1.0000000000
10
-39.4158835213
20
-5.4475155147
30
0.0000000000
10
-39.4021276007
20
-5.4548921724
30
0.0000000000
10
-39.3693696912
20
-5.4637701910
30
0.0000000000
10
-39.3200937090
20
-5.4642558082
30
0.0000000000
10
-39.2869131886
20
-5.4560872613
30
0.0000000000
10
-39.2726528515
20
-5.4490804642
30
0.0000000000
11
-39.4158835213
21
-5.4475155147
31
0.0000000000
11
-39.3711494114
21
-5.4613583213
31
0.0000000000
11
-39.3185536624
21
-5.4619329866
31
0.0000000000
11
-39.2726528515
21
-5.4490804642
31
0.0000000000
0
SPLINE
5
431
100
AcDbEntity
8
0
100
AcDbSpline
62
7
6
CONTINUOUS
70
0
71
3
72
13
73
9
74
7
42
0.0000001000
43
0.0000001000
44
0.0000000001
12
0.0000015646
22
0.5036425420
32
0.0000000000
13
0.2780118827
23
0.4205898765
33
0.0000000000
40
0.0000000000
40
0.0000000000
40
0.0000000000
40
0.0000000000
40
0.1985097225
40
0.3935371236
40
0.5833811685
40
0.7667255094
40
0.9429004565
40
1.0000000000
40
1.0000000000
40
1.0000000000
40
1.0000000000
10
-39.4158835213
20
37.0352048060
30
0.0000000000
10
-39.4158834178
20
37.0685307864
30
0.0000000000
10
-39.4133851867
20
37.1346340579
30
0.0000000000
10
-39.4013277487
20
37.2319588956
30
0.0000000000
10
-39.3804323524
20
37.3252115839
30
0.0000000000
10
-39.3503259438
20
37.4126173216
30
0.0000000000
10
-39.3192061430
20
37.4754985776
30
0.0000000000
10
-39.2984248651
20
37.5087566294
30
0.0000000000
10
-39.2931334146
20
37.5167617927
30
0.0000000000
11
-39.4158835213
21
37.0352048060
31
0.0000000000
11
-39.4119291685
21
37.1351045149
31
0.0000000000
11
-39.3996289600
21
37.2325554149
31
0.0000000000
11
-39.3784522116
21
37.3257943223
31
0.0000000000
11
-39.3480729747
21
37.4129939748
31
0.0000000000
11
-39.3083971930
21
37.4923583431
31
0.0000000000
11
-39.2931334146
21
37.5167617927
31
0.0000000000
0
SPLINE
5
432
100
AcDbEntity
8
0
100
AcDbSpline
62
7
6
CONTINUOUS
70
0
71
3
72
12
73
8
74
6
42
0.0000001000
43
0.0000001000
44
0.0000000001
12
0.1800938479
22
0.2724547185
32
0.0000000000
13
0.3150811880
23
0.0864162968
33
0.0000000000
40
0.0000000000
40
0.0000000000
40
0.0000000000
40
0.0000000000
40
0.1731114528
40
0.4257033392
40
0.6728654275
40
0.9180965234
40
1.0000000000
40
1.0000000000
40
1.0000000000
40
1.0000000000
10
-39.2931334146
20
37.5167617927
30
0.0000000000
10
-39.2827413120
20
37.5324834701
30
0.0000000000
10
-39.2552438980
20
37.5698594503
30
0.0000000000
10
-39.2039711355
20
37.6225864576
30
0.0000000000
10
-39.1375136187
20
37.6697590352
30
0.0000000000
10
-39.0802744470
20
37.6957012439
30
0.0000000000
10
-39.0462094496
20
37.7061881986
30
0.0000000000
10
-39.0376073680
20
37.7085474636
30
0.0000000000
11
-39.2931334146
21
37.5167617927
31
0.0000000000
11
-39.2595606394
21
37.5622169405
31
0.0000000000
11
-39.2018969439
21
37.6210915976
31
0.0000000000
11
-39.1360434123
21
37.6676297587
31
0.0000000000
11
-39.0631753844
21
37.7006681010
31
0.0000000000
11
-39.0376073680
21
37.7085474636
31
0.0000000000
0
SPLINE
5
433
100
AcDbEntity
8
0
100
AcDbSpline
62
7
6
CONTINUOUS
70
0
71
3
72
12
73
8
74
6
42
0.0000001000
43
0.0000001000
44
0.0000000001
12
0.3490477017
22
0.0957321825
32
0.0000000000
13
0.3357450367
23
-0.1343061322
33
0.0000000000
40
0.0000000000
40
0.0000000000
40
0.0000000000
40
0.0000000000
40
0.1490036622
40
0.3761123674
40
0.6091008706
40
0.8405196557
40
1.0000000000
40
1.0000000000
40
1.0000000000
40
1.0000000000
10
-39.0376073680
20
37.7085474636
30
0.0000000000
10
-39.0202709061
20
37.7133022789
30
0.0000000000
10
-38.9757584524
20
37.7225738727
30
0.0000000000
10
-38.9021322631
20
37.7266488772
30
0.0000000000
10
-38.8189710766
20
37.7177885016
30
0.0000000000
10
-38.7458650429
20
37.6995070622
30
0.0000000000
10
-38.7014691743
20
37.6835911919
30
0.0000000000
10
-38.6836209296
20
37.6764514625
30
0.0000000000
11
-39.0376073680
21
37.7085474636
31
0.0000000000
11
-38.9848528613
21
37.7195882531
31
0.0000000000
11
-38.9029122298
21
37.7244231727
31
0.0000000000
11
-38.8191424391
21
37.7158409661
31
0.0000000000
11
-38.7379292536
21
37.6958353831
31
0.0000000000
11
-38.6836209296
21
37.6764514625
31
0.0000000000
0
SPLINE
5
434
100
AcDbEntity
8
0
100
AcDbSpline
62
7
6
CONTINUOUS
70
0
71
3
72
8
73
4
74
2
42
0.0000001000
43
0.0000001000
44
0.0000000001
12
0.0274311333
22
-0.0109731166
32
0.0000000000
13
0.0270024658
23
-0.0119520437
33
0.0000000000
40
0.0000000000
40
0.0000000000
40
0.0000000000
40
0.0000000000
40
1.0000000000
40
1.0000000000
40
1.0000000000
40
1.0000000000
10
-38.6836209296
20
37.6764514625
30
0.0000000000
10
-38.6744772185
20
37.6727937570
30
0.0000000000
10
-38.6654029349
20
37.6689664221
30
0.0000000000
10
-38.6564021130
20
37.6649824075
30
0.0000000000
11
-38.6836209296
21
37.6764514625
31
0.0000000000
11
-38.6564021130
21
37.6649824075
31
0.0000000000
0
ENDSEC
0
SECTION
2
OBJECTS
0
DICTIONARY
5
435
100
AcDbDictionary
3
ACAD_GROUP
350
436
3
ACAD_MLINESTYLE
350
437
0
DICTIONARY
5
436
102
{ACAD_REACTORS
330
435
102
}
100
AcDbDictionary
0
DICTIONARY
5
437
102
{ACAD_REACTORS
330
435
102
}
100
AcDbDictionary
3
STANDARD
350
438
0
MLINESTYLE
5
438
102
{ACAD_REACTORS
330
437
102
}
100
AcDbMlineStyle
2
STANDARD
70
0
3

62
256
51
90.0
52
90.0
71
2
49
0.5
62
256
6
BYLAYER
49
-0.5
62
256
6
BYLAYER
0
ENDSEC
0
EOF
