  0
SECTION
  2
HEADER
  9
$ACADVER
  1
AC1024
  9
$DWGCODEPAGE
  3
ANSI_1252
  9
$EXTMAX
 10
297.0
 20
210.0
 30
0.0
  9
$EXTMIN
 10
0.0
 20
0.0
 30
0.0
  9
$LIMMIN
 10
0.0
 20
0.0
  9
$LIMMAX
 10
297.0
 20
210.0
  9
$VIEWCTR
 10
148.5
 20
105.0
  9
$VIEWSIZE
 40
210.0
  9
$CLAYER
  8
0
  9
$LTSCALE
 40
16.335
  9
$CELTYPE
  6
BYLAYER
  9
$DIMSCALE
 40
1.0
  9
$DIMASZ
 40
3.0
  9
$DIMEXO
 40
0.5
  9
$DIMDLI
 40
11.286
  9
$DIMEXE
 40
1.5
  9
$DIMCEN
 40
2.673
  9
$DIMLFAC
 40
1.0
  9
$DIMBLK
  1
_FILLED
  9
$DIMALT
 70
0
  9
$DIMALTF
 40
0.0393700787
  9
$DIMTXT
 40
3.0
  9
$DIMTOL
 70
1
  9
$DIMLIM
 70
0
  9
$DIMTFAC
 40
1.0
  9
$DIMTP
 40
0.01
  9
$DIMTM
 40
0.01
  9
$DIMGAP
 40
0.625
  9
$DIMDSEP
 70
44
  9
$AUNITS
 70
0
  9
$PDMODE
 70
3
  9
$PDSIZE
 40
3.0
  9
$HANDSEED
  5
391
  9
$TILEMODE
 70
1
  9
$MEASUREMENT
 70
1
  9
$INSUNITS
 70
4
  0
ENDSEC
  0
SECTION
  2
CLASSES
  0
CLASS
  1
ACDBDICTIONARYWDFLT
  2
AcDbDictionaryWithDefault
  3
AutoCAD 2000
 90
0
 91
1
280
0
281
0
  0
CLASS
  1
ACDBPLACEHOLDER
  2
AcDbPlaceHolder
  3
AutoCAD 2000
 90
0
 91
1
280
0
281
0
  0
CLASS
  1
LAYOUT
  2
AcDbLayout
  3
AutoCAD 2000
 90
0
 91
0
280
0
281
0
  0
ENDSEC
  0
SECTION
  2
TABLES
  0
TABLE
  2
VPORT
  5
8
100
AcDbSymbolTable
 70
2
  0
VPORT
  5
1F4
100
AcDbSymbolTableRecord
100
AcDbViewportTableRecord
  2
*ACTIVE
 70
0
 10
0.0
 20
0.0
 11
1.0
 21
1.0
 12
148.5
 22
105.0
 13
0.0
 23
0.0
 14
1.0
 24
1.0
 15
0.0
 25
0.0
 16
0.0
 26
0.0
 36
1.0
 17
0.0
 27
0.0
 37
0.0
 40
210.0
 41
1.4142857143
 42
50.0
 43
0.0
 44
0.0
 50
0.0
 51
0.0
 71
0
 72
100
 73
1
 74
1
 75
0
 76
0
 77
0
 78
0
  0
ENDTAB
  0
TABLE
  2
LTYPE
  5
5
100
AcDbSymbolTable
 70
6
  0
LTYPE
  5
14
100
AcDbSymbolTableRecord
100
AcDbLinetypeTableRecord
  2
BYBLOCK
 70
0
  3

 72
65
 73
0
 40
0.0
  0
LTYPE
  5
15
100
AcDbSymbolTableRecord
100
AcDbLinetypeTableRecord
  2
BYLAYER
 70
0
  3

 72
65
 73
0
 40
0.0
  0
LTYPE
  5
16
100
AcDbSymbolTableRecord
100
AcDbLinetypeTableRecord
  2
CONTINUOUS
 70
64
  3
Solid line
 72
65
 73
0
 40
0.0
  0
LTYPE
  5
1F5
100
AcDbSymbolTableRecord
100
AcDbLinetypeTableRecord
  2
CENTER
 70
64
  3
____ _ ____ _ ____ _ ____ _ ____ _ ____ _ ____
 72
65
 73
4
 40
0.6
 49
0.375
 74
0
 49
-0.075
 74
0
 49
0.075
 74
0
 49
-0.075
 74
0
  0
LTYPE
  5
1F6
100
AcDbSymbolTableRecord
100
AcDbLinetypeTableRecord
  2
HIDDEN
 70
64
  3
- - - - - - - - - - - - - - - - - - - -
 72
65
 73
2
 40
0.2
 49
0.1
 74
0
 49
-0.1
 74
0
  0
LTYPE
  5
1F7
100
AcDbSymbolTableRecord
100
AcDbLinetypeTableRecord
  2
PHANTOM
 70
64
  3
_____ _ _ _____ _ _ _____ _ _ _____
 72
65
 73
6
 40
0.8
 49
0.45
 74
0
 49
-0.05
 74
0
 49
0.1
 74
0
 49
-0.05
 74
0
 49
0.1
 74
0
 49
-0.05
 74
0
  0
LTYPE
  5
1F8
100
AcDbSymbolTableRecord
100
AcDbLinetypeTableRecord
  2
DOT
 70
64
  3
. . . . . . . . . . . . . . . . . . . .
 72
65
 73
2
 40
0.2
 49
0.1
 74
0
 49
-0.1
 74
0
  0
LTYPE
  5
1F9
100
AcDbSymbolTableRecord
100
AcDbLinetypeTableRecord
  2
DASHED
 70
64
  3
- - - - - - - - - - - - - - - - - - - -
 72
65
 73
2
 40
0.2
 49
0.1
 74
0
 49
-0.1
 74
0
  0
ENDTAB
  0
TABLE
  2
LAYER
  5
2
100
AcDbSymbolTable
 70
36
  0
LAYER
  5
10
100
AcDbSymbolTableRecord
100
AcDbLayerTableRecord
  2
0
 70
0
 62
7
  6
CONTINUOUS
370
-3
390
F
  0
LAYER
  5
1FA
100
AcDbSymbolTableRecord
100
AcDbLayerTableRecord
  2
DEFAULT_1
 70
0
 62
7
  6
CENTER
370
-3
390
F
  0
LAYER
  5
1FB
100
AcDbSymbolTableRecord
100
AcDbLayerTableRecord
  2
DEFAULT_2
 70
0
 62
7
  6
HIDDEN
370
-3
390
F
  0
LAYER
  5
1FC
100
AcDbSymbolTableRecord
100
AcDbLayerTableRecord
  2
DEFAULT_3
 70
0
 62
7
  6
PHANTOM
370
-3
390
F
  0
LAYER
  5
1FD
100
AcDbSymbolTableRecord
100
AcDbLayerTableRecord
  2
ASSI
 70
0
 62
7
  6
CONTINUOUS
370
-3
390
F
  0
LAYER
  5
1FE
100
AcDbSymbolTableRecord
100
AcDbLayerTableRecord
  2
COORDINATE
 70
0
 62
7
  6
CONTINUOUS
370
-3
390
F
  0
LAYER
  5
1FF
100
AcDbSymbolTableRecord
100
AcDbLayerTableRecord
  2
COPY_PUBLISH
 70
0
 62
7
  6
CONTINUOUS
370
-3
390
F
  0
LAYER
  5
200
100
AcDbSymbolTableRecord
100
AcDbLayerTableRecord
  2
COSMETICI
 70
0
 62
7
  6
CONTINUOUS
370
-3
390
F
  0
LAYER
  5
201
100
AcDbSymbolTableRecord
100
AcDbLayerTableRecord
  2
CURVE
 70
0
 62
7
  6
CONTINUOUS
370
-3
390
F
  0
LAYER
  5
202
100
AcDbSymbolTableRecord
100
AcDbLayerTableRecord
  2
DRAFT
 70
0
 62
7
  6
CONTINUOUS
370
-3
390
F
  0
LAYER
  5
203
100
AcDbSymbolTableRecord
100
AcDbLayerTableRecord
  2
IMPORT_IGES
 70
0
 62
7
  6
CONTINUOUS
370
-3
390
F
  0
LAYER
  5
204
100
AcDbSymbolTableRecord
100
AcDbLayerTableRecord
  2
INTF_1
 70
0
 62
7
  6
CONTINUOUS
370
-3
390
F
  0
LAYER
  5
205
100
AcDbSymbolTableRecord
100
AcDbLayerTableRecord
  2
INTF_2
 70
0
 62
7
  6
CONTINUOUS
370
-3
390
F
  0
LAYER
  5
206
100
AcDbSymbolTableRecord
100
AcDbLayerTableRecord
  2
INTF_3
 70
0
 62
7
  6
CONTINUOUS
370
-3
390
F
  0
LAYER
  5
207
100
AcDbSymbolTableRecord
100
AcDbLayerTableRecord
  2
INTF_4
 70
0
 62
7
  6
CONTINUOUS
370
-3
390
F
  0
LAYER
  5
208
100
AcDbSymbolTableRecord
100
AcDbLayerTableRecord
  2
INTF_5
 70
0
 62
7
  6
CONTINUOUS
370
-3
390
F
  0
LAYER
  5
209
100
AcDbSymbolTableRecord
100
AcDbLayerTableRecord
  2
INTF_6
 70
0
 62
7
  6
CONTINUOUS
370
-3
390
F
  0
LAYER
  5
20A
100
AcDbSymbolTableRecord
100
AcDbLayerTableRecord
  2
INTF_7
 70
0
 62
7
  6
CONTINUOUS
370
-3
390
F
  0
LAYER
  5
20B
100
AcDbSymbolTableRecord
100
AcDbLayerTableRecord
  2
INTF_9
 70
0
 62
7
  6
CONTINUOUS
370
-3
390
F
  0
LAYER
  5
20C
100
AcDbSymbolTableRecord
100
AcDbLayerTableRecord
  2
INTF_BLANK
 70
0
 62
7
  6
CONTINUOUS
370
-3
390
F
  0
LAYER
  5
20D
100
AcDbSymbolTableRecord
100
AcDbLayerTableRecord
  2
INTF_RED
 70
0
 62
7
  6
CONTINUOUS
370
-3
390
F
  0
LAYER
  5
20E
100
AcDbSymbolTableRecord
100
AcDbLayerTableRecord
  2
NOTE
 70
0
 62
7
  6
CONTINUOUS
370
-3
390
F
  0
LAYER
  5
20F
100
AcDbSymbolTableRecord
100
AcDbLayerTableRecord
  2
PIANI
 70
0
 62
7
  6
CONTINUOUS
370
-3
390
F
  0
LAYER
  5
210
100
AcDbSymbolTableRecord
100
AcDbLayerTableRecord
  2
PUNTI
 70
0
 62
7
  6
CONTINUOUS
370
-3
390
F
  0
LAYER
  5
211
100
AcDbSymbolTableRecord
100
AcDbLayerTableRecord
  2
RACCORDO
 70
0
 62
7
  6
CONTINUOUS
370
-3
390
F
  0
LAYER
  5
212
100
AcDbSymbolTableRecord
100
AcDbLayerTableRecord
  2
RGB____0____0____0__
 70
0
 62
7
  6
CONTINUOUS
370
-3
390
F
  0
LAYER
  5
213
100
AcDbSymbolTableRecord
100
AcDbLayerTableRecord
  2
SIMBOLI
 70
0
 62
7
  6
CONTINUOUS
370
-3
390
F
  0
LAYER
  5
214
100
AcDbSymbolTableRecord
100
AcDbLayerTableRecord
  2
SMUSSO
 70
0
 62
7
  6
CONTINUOUS
370
-3
390
F
  0
LAYER
  5
215
100
AcDbSymbolTableRecord
100
AcDbLayerTableRecord
  2
SNAPLINE
 70
0
 62
7
  6
CONTINUOUS
370
-3
390
F
  0
LAYER
  5
216
100
AcDbSymbolTableRecord
100
AcDbLayerTableRecord
  2
SUPERFICI
 70
0
 62
7
  6
CONTINUOUS
370
-3
390
F
  0
LAYER
  5
217
100
AcDbSymbolTableRecord
100
AcDbLayerTableRecord
  2
TRASH
 70
0
 62
7
  6
CONTINUOUS
370
-3
390
F
  0
ENDTAB
  0
TABLE
  2
STYLE
  5
3
100
AcDbSymbolTable
 70
1
  0
STYLE
  5
11
100
AcDbSymbolTableRecord
100
AcDbTextStyleTableRecord
  2
STANDARD
 70
0
 40
0.0
 41
0.8
 50
0.0
 71
0
 42
0.2
  3
txt
  4

  0
STYLE
  5
218
100
AcDbSymbolTableRecord
100
AcDbTextStyleTableRecord
  2
TEXTSTYLE_1
 70
0
 40
0.0
 41
0.8
 50
0.0
 71
0
 42
0.2
  3
gdt
  4

  0
ENDTAB
  0
TABLE
  2
VIEW
  5
6
100
AcDbSymbolTable
 70
0
  0
ENDTAB
  0
TABLE
  2
UCS
  5
7
100
AcDbSymbolTable
 70
0
  0
ENDTAB
  0
TABLE
  2
APPID
  5
9
100
AcDbSymbolTable
 70
1
  0
APPID
  5
219
100
AcDbSymbolTableRecord
100
AcDbRegAppTableRecord
  2
ACAD
 70
0
  0
ENDTAB
  0
TABLE
  2
BLOCK_RECORD
  5
1
100
AcDbSymbolTable
 70
0
  0
BLOCK_RECORD
  5
21A
100
AcDbSymbolTableRecord
100
AcDbBlockTableRecord
  2
*Model_Space
  0
BLOCK_RECORD
  5
21B
100
AcDbSymbolTableRecord
100
AcDbBlockTableRecord
  2
*Paper_Space
  0
BLOCK_RECORD
  5
21C
100
AcDbSymbolTableRecord
100
AcDbBlockTableRecord
  2
_FILLED
  0
ENDTAB
  0
TABLE
  2
DIMSTYLE
  5
A
100
AcDbSymbolTable
 70
1
100
AcDbDimStyleTable
 71
0
  0
DIMSTYLE
105
21D
100
AcDbSymbolTableRecord
100
AcDbDimStyleTableRecord
  2
STANDARD
 70
0
  3

  4

 40
1.0
 41
3.0
 42
0.5
 43
0.38
 44
1.5
 45
0.0
 46
0.0
 47
0.01
 48
0.01
140
3.0
141
0.09
142
0.0
143
25.4
144
1.0
145
0.0
146
1.0
147
0.625
 71
1
 72
0
 73
0
 74
0
 75
0
 76
0
 77
1
 78
8
 79
2
170
0
171
1
172
0
173
0
174
0
175
0
176
0
177
0
178
0
270
2
179
2
271
2
272
2
273
2
274
2
275
0
280
0
281
0
282
0
283
1
284
8
285
0
286
0
287
3
288
0
340
11
278
44
341
21C
342
21C
343
21C
344
21C
  0
ENDTAB
  0
ENDSEC
  0
SECTION
  2
BLOCKS
  0
BLOCK
  5
20
100
AcDbEntity
  8
0
100
AcDbBlockBegin
  2
*Model_Space
 70
0
 10
0.0
 20
0.0
 30
0.0
  3
*Model_Space
  1

  0
ENDBLK
  5
21
100
AcDbEntity
  8
0
100
AcDbBlockEnd
  0
BLOCK
  5
1C
100
AcDbEntity
  8
0
100
AcDbBlockBegin
  2
*Paper_Space
 70
0
 10
0.0
 20
0.0
 30
0.0
  3
*Paper_Space
  1

  0
ENDBLK
  5
1D
100
AcDbEntity
  8
0
100
AcDbBlockEnd
  0
BLOCK
  5
21E
100
AcDbEntity
  8
0
100
AcDbBlockBegin
  2
_FILLED
 70
64
 10
0.0
 20
0.0
  3
_FILLED
  1

  0
SOLID
  5
21F
100
AcDbEntity
  8
0
  6
BYBLOCK
 62
0
100
AcDbTrace
 10
0.0
 20
0.0
 11
-1.0
 21
0.3166666667
 12
-1.0
 22
-0.3166666667
 13
-1.0
 23
-0.3166666667
  0
ENDBLK
  5
220
100
AcDbEntity
  8
0
  6
BYBLOCK
 62
0
100
AcDbBlockEnd
  0
ENDSEC
  0
SECTION
  2
ENTITIES
  0
LINE
  5
221
100
AcDbEntity
  8
COPY_PUBLISH
100
AcDbLine
 62
7
  6
CONTINUOUS
 10
-9.3515170199
 20
25.0878506424
 11
-8.7879075893
 21
25.4482723393
  0
LINE
  5
222
100
AcDbEntity
  8
ASSI
100
AcDbLine
 62
7
  6
CONTINUOUS
 10
-9.3515170199
 20
25.0878506424
 11
-8.7879075893
 21
25.4482723393
  0
LWPOLYLINE
  5
223
100
AcDbEntity
  8
COPY_PUBLISH
100
AcDbPolyline
 62
250
  6
CONTINUOUS
 90
9
 70
0
 10
-9.3515170199
 20
25.0878506424
 10
-9.3310150726
 20
25.0990236254
 10
-9.3020176473
 20
25.109302083
 10
-9.2705583671
 20
25.1147215879
 10
-9.2370231316
 20
25.1152043262
 10
-9.2019213288
 20
25.1107717861
 10
-9.1657023214
 20
25.1015446201
 10
-9.1287261726
 20
25.0876759083
 10
-9.0913980187
 20
25.0693686813
  0
LWPOLYLINE
  5
224
100
AcDbEntity
  8
ASSI
100
AcDbPolyline
 62
250
  6
CONTINUOUS
 90
9
 70
0
 10
-9.3515170199
 20
25.0878506424
 10
-9.3310150726
 20
25.0990236254
 10
-9.3020176473
 20
25.109302083
 10
-9.2705583671
 20
25.1147215879
 10
-9.2370231316
 20
25.1152043262
 10
-9.2019213288
 20
25.1107717861
 10
-9.1657023214
 20
25.1015446201
 10
-9.1287261726
 20
25.0876759083
 10
-9.0913980187
 20
25.0693686813
  0
LINE
  5
225
100
AcDbEntity
  8
RACCORDO
100
AcDbLine
 62
7
  6
CONTINUOUS
 10
-8.2335890689
 20
25.6422352556
 11
-8.6250358839
 21
25.4662884874
  0
LINE
  5
226
100
AcDbEntity
  8
ASSI
100
AcDbLine
 62
7
  6
CONTINUOUS
 10
-8.2335890689
 20
25.6422352556
 11
-8.6250358839
 21
25.4662884874
  0
LINE
  5
227
100
AcDbEntity
  8
RACCORDO
100
AcDbLine
 62
250
  6
CONTINUOUS
 10
-8.0228920848
 20
25.6131325367
 11
-8.4897450234
 21
25.4032923678
  0
LINE
  5
228
100
AcDbEntity
  8
ASSI
100
AcDbLine
 62
250
  6
CONTINUOUS
 10
-8.0228920848
 20
25.6131325367
 11
-8.4897450234
 21
25.4032923678
  0
LINE
  5
229
100
AcDbEntity
  8
0
100
AcDbLine
 62
250
  6
CONTINUOUS
 10
-9.0913980187
 20
25.0693686813
 11
-8.5315129884
 21
25.4274086673
  0
LINE
  5
22A
100
AcDbEntity
  8
ASSI
100
AcDbLine
 62
250
  6
CONTINUOUS
 10
-9.0913980187
 20
25.0693686813
 11
-8.5315129884
 21
25.4274086673
  0
LINE
  5
22B
100
AcDbEntity
  8
COPY_PUBLISH
100
AcDbLine
 62
7
  6
CONTINUOUS
 10
-9.3321551499
 20
-17.9181608831
 11
5.5360590184
 21
-26.5028814014
  0
LINE
  5
22C
100
AcDbEntity
  8
ASSI
100
AcDbLine
 62
7
  6
CONTINUOUS
 10
-9.3321551499
 20
-17.9181608831
 11
5.5360590184
 21
-26.5028814014
  0
LINE
  5
22D
100
AcDbEntity
  8
COPY_PUBLISH
100
AcDbLine
 62
250
  6
CONTINUOUS
 10
-9.4356964604
 20
-17.6892924525
 11
5.4325177079
 21
-26.2740129708
  0
LINE
  5
22E
100
AcDbEntity
  8
ASSI
100
AcDbLine
 62
250
  6
CONTINUOUS
 10
-9.4356964604
 20
-17.6892924525
 11
5.4325177079
 21
-26.2740129708
  0
LWPOLYLINE
  5
22F
100
AcDbEntity
  8
COPY_PUBLISH
100
AcDbPolyline
 62
250
  6
CONTINUOUS
 90
9
 70
0
 10
-9.3321551499
 20
-17.9181608831
 10
-9.3477550522
 20
-17.9079520568
 10
-9.3703342664
 20
-17.8880360694
 10
-9.3898602777
 20
-17.8638518141
 10
-9.4061262204
 20
-17.8356555079
 10
-9.418959767
 20
-17.8037458728
 10
-9.4282249543
 20
-17.7684609714
 10
-9.4338236235
 20
-17.7301746248
 10
-9.4356964604
 20
-17.6892924525
  0
LWPOLYLINE
  5
230
100
AcDbEntity
  8
ASSI
100
AcDbPolyline
 62
250
  6
CONTINUOUS
 90
9
 70
0
 10
-9.3321551499
 20
-17.9181608831
 10
-9.3477550522
 20
-17.9079520568
 10
-9.3703342664
 20
-17.8880360694
 10
-9.3898602777
 20
-17.8638518141
 10
-9.4061262204
 20
-17.8356555079
 10
-9.418959767
 20
-17.8037458728
 10
-9.4282249543
 20
-17.7684609714
 10
-9.4338236235
 20
-17.7301746248
 10
-9.4356964604
 20
-17.6892924525
  0
LINE
  5
231
100
AcDbEntity
  8
CURVE
100
AcDbLine
 62
250
  6
CONTINUOUS
 10
-3.8764957345
 20
14.8769901775
 11
-4.1264346471
 21
14.7327064739
  0
LINE
  5
232
100
AcDbEntity
  8
CURVE
100
AcDbLine
 62
7
  6
CONTINUOUS
 10
-4.1142976949
 20
14.7116812471
 11
-4.0479858981
 21
14.7779930439
  0
LINE
  5
233
100
AcDbEntity
  8
CURVE
100
AcDbLine
 62
7
  6
CONTINUOUS
 10
-3.9605749853
 20
14.4453825286
 11
-3.7493045879
 21
14.656652926
  0
LWPOLYLINE
  5
234
100
AcDbEntity
  8
RACCORDO
100
AcDbPolyline
 62
250
  6
CONTINUOUS
 90
8
 70
0
 10
8.2867969932
 20
-12.4352368056
 10
8.3178098566
 20
-12.4275667971
 10
8.3477779954
 20
-12.423487644
 10
8.3763744717
 20
-12.4229901901
 10
8.4034508701
 20
-12.4259815721
 10
8.4289911093
 20
-12.4324151482
 10
8.4528021311
 20
-12.4423035366
 10
8.4604843547
 20
-12.446462516
  0
LINE
  5
235
100
AcDbEntity
  8
CURVE
100
AcDbLine
 62
250
  6
CONTINUOUS
 10
-1.0993981981
 20
-13.308164934
 11
-0.4260734434
 21
-13.2480078246
  0
LINE
  5
236
100
AcDbEntity
  8
CURVE
100
AcDbLine
 62
250
  6
CONTINUOUS
 10
-3.4000040518
 20
-13.5133723083
 11
-2.7266800042
 21
-13.4532147906
  0
LINE
  5
237
100
AcDbEntity
  8
DRAFT
100
AcDbLine
 62
7
  6
CONTINUOUS
 10
8.6323597915
 20
-15.4415131534
 11
8.0746822556
 21
-15.367586814
  0
LINE
  5
238
100
AcDbEntity
  8
CURVE
100
AcDbLine
 62
250
  6
CONTINUOUS
 10
-2.1782027299
 20
-15.0334166575
 11
-1.8247320708
 21
-15.2375061861
  0
LINE
  5
239
100
AcDbEntity
  8
CURVE
100
AcDbLine
 62
250
  6
CONTINUOUS
 10
-1.8247320708
 20
-14.3396550509
 11
-2.1782027299
 21
-14.1355655224
  0
LINE
  5
23A
100
AcDbEntity
  8
CURVE
100
AcDbLine
 62
7
  6
CONTINUOUS
 10
-4.8299655893
 20
13.1559704966
 11
-4.8159357425
 21
13.1700003434
  0
LINE
  5
23B
100
AcDbEntity
  8
CURVE
100
AcDbLine
 62
7
  6
CONTINUOUS
 10
-3.8068522757
 20
14.1790838102
 11
-3.5955818784
 21
14.3903542075
  0
LINE
  5
23C
100
AcDbEntity
  8
CURVE
100
AcDbLine
 62
7
  6
CONTINUOUS
 10
-4.8084031502
 20
12.7575115077
 11
-4.5496591067
 21
13.0162555512
  0
LINE
  5
23D
100
AcDbEntity
  8
CURVE
100
AcDbLine
 62
7
  6
CONTINUOUS
 10
-3.6531295662
 20
13.9127850917
 11
-3.4418591688
 21
14.1240554891
  0
LINE
  5
23E
100
AcDbEntity
  8
CURVE
100
AcDbLine
 62
7
  6
CONTINUOUS
 10
-4.5421265145
 20
12.6037667154
 11
-4.283382471
 21
12.8625107589
  0
LINE
  5
23F
100
AcDbEntity
  8
CURVE
100
AcDbLine
 62
7
  6
CONTINUOUS
 10
-3.4994068566
 20
13.6464863733
 11
-3.2881364593
 21
13.8577567706
  0
LINE
  5
240
100
AcDbEntity
  8
CURVE
100
AcDbLine
 62
7
  6
CONTINUOUS
 10
-4.2758498787
 20
12.4500219232
 11
-4.0171058352
 21
12.7087659666
  0
LINE
  5
241
100
AcDbEntity
  8
CURVE
100
AcDbLine
 62
7
  6
CONTINUOUS
 10
-3.345684147
 20
13.3801876548
 11
-3.1344137497
 21
13.5914580522
  0
LINE
  5
242
100
AcDbEntity
  8
CURVE
100
AcDbLine
 62
7
  6
CONTINUOUS
 10
-2.1782027299
 20
14.547669072
 11
-2.0762566111
 21
14.6496151908
  0
LINE
  5
243
100
AcDbEntity
  8
CURVE
100
AcDbLine
 62
7
  6
CONTINUOUS
 10
-4.0095732429
 20
12.2962771309
 11
-3.7508291994
 21
12.5550211744
  0
LINE
  5
244
100
AcDbEntity
  8
CURVE
100
AcDbLine
 62
7
  6
CONTINUOUS
 10
-3.1919614375
 20
13.1138889363
 11
-2.9806910401
 21
13.3251593337
  0
LINE
  5
245
100
AcDbEntity
  8
CURVE
100
AcDbLine
 62
7
  6
CONTINUOUS
 10
-2.1782027299
 20
14.1276476439
 11
-1.8247320708
 21
14.481118303
  0
LINE
  5
246
100
AcDbEntity
  8
CURVE
100
AcDbLine
 62
7
  6
CONTINUOUS
 10
-3.7432966072
 20
12.1425323386
 11
-3.4845525637
 21
12.4012763821
  0
LINE
  5
247
100
AcDbEntity
  8
CURVE
100
AcDbLine
 62
7
  6
CONTINUOUS
 10
-2.1782027299
 20
13.7076262159
 11
-1.8247320708
 21
14.061096875
  0
LINE
  5
248
100
AcDbEntity
  8
CURVE
100
AcDbLine
 62
250
  6
CONTINUOUS
 10
-0.1264397733
 20
12.7117548648
 11
-1.1264379614
 21
12.1341983568
  0
LINE
  5
249
100
AcDbEntity
  8
0
100
AcDbLine
 62
250
  6
CONTINUOUS
 10
6.366811867
 20
16.8253026157
 11
5.7768161497
 21
16.484648163
  0
LINE
  5
24A
100
AcDbEntity
  8
ASSI
100
AcDbLine
 62
250
  6
CONTINUOUS
 10
6.366811867
 20
16.8253026157
 11
5.7768161497
 21
16.484648163
  0
LINE
  5
24B
100
AcDbEntity
  8
CURVE
100
AcDbLine
 62
250
  6
CONTINUOUS
 10
-3.1264357519
 20
13.0003767159
 11
-2.8764968393
 21
13.1446604195
  0
LINE
  5
24C
100
AcDbEntity
  8
CURVE
100
AcDbLine
 62
250
  6
CONTINUOUS
 10
-3.1264357519
 20
10.979647889
 11
-4.1264346471
 21
10.4026543374
  0
LINE
  5
24D
100
AcDbEntity
  8
RACCORDO
100
AcDbLine
 62
250
  6
CONTINUOUS
 10
6.848140457
 20
17.0267847249
 11
6.4029611898
 21
16.80210139
  0
LINE
  5
24E
100
AcDbEntity
  8
ASSI
100
AcDbLine
 62
250
  6
CONTINUOUS
 10
6.848140457
 20
17.0267847249
 11
6.4029611898
 21
16.80210139
  0
LINE
  5
24F
100
AcDbEntity
  8
RACCORDO
100
AcDbLine
 62
250
  6
CONTINUOUS
 10
7.1657213758
 20
16.4754438463
 11
6.7185134404
 21
16.2497366364
  0
LINE
  5
250
100
AcDbEntity
  8
ASSI
100
AcDbLine
 62
250
  6
CONTINUOUS
 10
7.1657213758
 20
16.4754438463
 11
6.7185134404
 21
16.2497366364
  0
LWPOLYLINE
  5
251
100
AcDbEntity
  8
COPY_PUBLISH
100
AcDbPolyline
 62
250
  6
CONTINUOUS
 90
16
 70
0
 10
6.1302483864
 20
15.8724855727
 10
6.09102414
 20
15.853114416
 10
6.048550163
 20
15.8361812727
 10
6.0032790783
 20
15.821866591
 10
5.9556876555
 20
15.8103217371
 10
5.9062882916
 20
15.8016715916
 10
5.8556254091
 20
15.7960098066
 10
5.8042518192
 20
15.7933937865
 10
5.7527028114
 20
15.7938464797
 10
5.7015082977
 20
15.7973616503
 10
5.6511431056
 20
15.8039132116
 10
5.6022162132
 20
15.8134285835
 10
5.5554250552
 20
15.8257535732
 10
5.5112946266
 20
15.840704861
 10
5.4701950335
 20
15.8581097531
 10
5.4325177079
 20
15.8777593114
  0
LWPOLYLINE
  5
252
100
AcDbEntity
  8
ASSI
100
AcDbPolyline
 62
250
  6
CONTINUOUS
 90
16
 70
0
 10
6.1302483864
 20
15.8724855727
 10
6.09102414
 20
15.853114416
 10
6.048550163
 20
15.8361812727
 10
6.0032790783
 20
15.821866591
 10
5.9556876555
 20
15.8103217371
 10
5.9062882916
 20
15.8016715916
 10
5.8556254091
 20
15.7960098066
 10
5.8042518192
 20
15.7933937865
 10
5.7527028114
 20
15.7938464797
 10
5.7015082977
 20
15.7973616503
 10
5.6511431056
 20
15.8039132116
 10
5.6022162132
 20
15.8134285835
 10
5.5554250552
 20
15.8257535732
 10
5.5112946266
 20
15.840704861
 10
5.4701950335
 20
15.8581097531
 10
5.4325177079
 20
15.8777593114
  0
LINE
  5
253
100
AcDbEntity
  8
CURVE
100
AcDbLine
 62
250
  6
CONTINUOUS
 10
-0.6029307489
 20
-12.7926026783
 11
-1.2762555036
 21
-12.8527597877
  0
LINE
  5
254
100
AcDbEntity
  8
CURVE
100
AcDbLine
 62
250
  6
CONTINUOUS
 10
-2.9035373097
 20
-12.9978096444
 11
-3.5768613573
 21
-13.0579671621
  0
LINE
  5
255
100
AcDbEntity
  8
DRAFT
100
AcDbLine
 62
7
  6
CONTINUOUS
 10
8.6323597915
 20
-13.0375071303
 11
8.0746822556
 21
-12.9388763227
  0
LINE
  5
256
100
AcDbEntity
  8
RACCORDO
100
AcDbLine
 62
7
  6
CONTINUOUS
 10
7.1657213758
 20
-17.4251653916
 11
7.084732762
 21
-17.378403581
  0
LINE
  5
257
100
AcDbEntity
  8
ASSI
100
AcDbLine
 62
7
  6
CONTINUOUS
 10
7.1657213758
 20
-17.4251653916
 11
7.084732762
 21
-17.378403581
  0
LINE
  5
258
100
AcDbEntity
  8
CURVE
100
AcDbLine
 62
250
  6
CONTINUOUS
 10
-2.1782027299
 20
-11.9663199357
 11
-1.8247320708
 21
-12.1704094643
  0
LWPOLYLINE
  5
259
100
AcDbEntity
  8
COPY_PUBLISH
100
AcDbPolyline
 62
250
  6
CONTINUOUS
 90
9
 70
0
 10
-9.5821430698
 20
-17.4851551559
 10
-9.5810283847
 20
-17.5044215866
 10
-9.574940323
 20
-17.5339806572
 10
-9.5635934169
 20
-17.5630608879
 10
-9.5471133712
 20
-17.5913106624
 10
-9.5257672382
 20
-17.6183272906
 10
-9.4998725164
 20
-17.643807647
 10
-9.4697283012
 20
-17.6675380369
 10
-9.4356964604
 20
-17.6892924525
  0
LWPOLYLINE
  5
25A
100
AcDbEntity
  8
ASSI
100
AcDbPolyline
 62
250
  6
CONTINUOUS
 90
9
 70
0
 10
-9.5821430698
 20
-17.4851551559
 10
-9.5810283847
 20
-17.5044215866
 10
-9.574940323
 20
-17.5339806572
 10
-9.5635934169
 20
-17.5630608879
 10
-9.5471133712
 20
-17.5913106624
 10
-9.5257672382
 20
-17.6183272906
 10
-9.4998725164
 20
-17.643807647
 10
-9.4697283012
 20
-17.6675380369
 10
-9.4356964604
 20
-17.6892924525
  0
LINE
  5
25B
100
AcDbEntity
  8
COPY_PUBLISH
100
AcDbLine
 62
7
  6
CONTINUOUS
 10
-9.5821430698
 20
-17.4851551559
 11
-9.5821430698
 21
24.6666171264
  0
LINE
  5
25C
100
AcDbEntity
  8
ASSI
100
AcDbLine
 62
7
  6
CONTINUOUS
 10
-9.5821430698
 20
-17.4851551559
 11
-9.5821430698
 21
24.6666171264
  0
LINE
  5
25D
100
AcDbEntity
  8
COPY_PUBLISH
100
AcDbLine
 62
250
  6
CONTINUOUS
 10
-9.4356964604
 20
-17.6892924525
 11
-9.4356964604
 21
24.4624798297
  0
LINE
  5
25E
100
AcDbEntity
  8
ASSI
100
AcDbLine
 62
250
  6
CONTINUOUS
 10
-9.4356964604
 20
-17.6892924525
 11
-9.4356964604
 21
24.4624798297
  0
LWPOLYLINE
  5
25F
100
AcDbEntity
  8
COPY_PUBLISH
100
AcDbPolyline
 62
250
  6
CONTINUOUS
 90
16
 70
0
 10
-9.4356964604
 20
24.4624798297
 10
-9.4338236235
 20
24.5055247071
 10
-9.4282249543
 20
24.5502762566
 10
-9.418959767
 20
24.596260364
 10
-9.4061262204
 20
24.642989857
 10
-9.3898602777
 20
24.6899696662
 10
-9.3703342664
 20
24.7367020699
 10
-9.3477550522
 20
24.7826919679
 10
-9.3223618476
 20
24.8274521265
 10
-9.2944236774
 20
24.8705083404
 10
-9.2642365285
 20
24.9114044564
 10
-9.2321202148
 20
24.9497072061
 10
-9.1984149884
 20
24.9850107958
 10
-9.1634779348
 20
25.0169412064
 10
-9.1276791899
 20
25.0451601556
 10
-9.0913980187
 20
25.0693686813
  0
LWPOLYLINE
  5
260
100
AcDbEntity
  8
ASSI
100
AcDbPolyline
 62
250
  6
CONTINUOUS
 90
16
 70
0
 10
-9.4356964604
 20
24.4624798297
 10
-9.4338236235
 20
24.5055247071
 10
-9.4282249543
 20
24.5502762566
 10
-9.418959767
 20
24.596260364
 10
-9.4061262204
 20
24.642989857
 10
-9.3898602777
 20
24.6899696662
 10
-9.3703342664
 20
24.7367020699
 10
-9.3477550522
 20
24.7826919679
 10
-9.3223618476
 20
24.8274521265
 10
-9.2944236774
 20
24.8705083404
 10
-9.2642365285
 20
24.9114044564
 10
-9.2321202148
 20
24.9497072061
 10
-9.1984149884
 20
24.9850107958
 10
-9.1634779348
 20
25.0169412064
 10
-9.1276791899
 20
25.0451601556
 10
-9.0913980187
 20
25.0693686813
  0
LINE
  5
261
100
AcDbEntity
  8
CURVE
100
AcDbLine
 62
7
  6
CONTINUOUS
 10
-3.4770199714
 20
11.9887875464
 11
-3.4155950492
 21
12.0502124685
  0
LINE
  5
262
100
AcDbEntity
  8
CURVE
100
AcDbLine
 62
7
  6
CONTINUOUS
 10
-2.1782027299
 20
13.2876047879
 11
-1.8247320708
 21
13.641075447
  0
LINE
  5
263
100
AcDbEntity
  8
CURVE
100
AcDbLine
 62
7
  6
CONTINUOUS
 10
-2.0461272772
 20
12.9996588126
 11
-1.8247320708
 21
13.221054019
  0
LINE
  5
264
100
AcDbEntity
  8
CURVE
100
AcDbLine
 62
7
  6
CONTINUOUS
 10
-2.685364498
 20
11.9404001638
 11
-2.3780063332
 21
12.2477583285
  0
LINE
  5
265
100
AcDbEntity
  8
CURVE
100
AcDbLine
 62
7
  6
CONTINUOUS
 10
-4.0080818881
 20
10.1976613456
 11
-3.3620343896
 21
10.8437088441
  0
LINE
  5
266
100
AcDbEntity
  8
CURVE
100
AcDbLine
 62
7
  6
CONTINUOUS
 10
-2.683661349
 20
11.5220818847
 11
-2.0325557398
 21
12.1731874939
  0
LINE
  5
267
100
AcDbEntity
  8
CURVE
100
AcDbLine
 62
7
  6
CONTINUOUS
 10
-3.7334211724
 20
10.0523006333
 11
-3.0091751817
 21
10.776546624
  0
LINE
  5
268
100
AcDbEntity
  8
CURVE
100
AcDbLine
 62
7
  6
CONTINUOUS
 10
-2.5794328381
 20
11.2062889676
 11
-1.7890192581
 21
11.9967025476
  0
LINE
  5
269
100
AcDbEntity
  8
CURVE
100
AcDbLine
 62
7
  6
CONTINUOUS
 10
-2.4286961104
 20
10.9370042672
 11
-1.594392648
 21
11.7713077296
  0
LWPOLYLINE
  5
26A
100
AcDbEntity
  8
COPY_PUBLISH
100
AcDbPolyline
 62
250
  6
CONTINUOUS
 90
16
 70
0
 10
5.7768161497
 20
16.484648163
 10
5.7405349785
 20
16.4604396372
 10
5.7047362336
 20
16.4322206881
 10
5.66979918
 20
16.4002902775
 10
5.6360939535
 20
16.3649866878
 10
5.6039776398
 20
16.3266839381
 10
5.573790491
 20
16.2857878221
 10
5.5458523207
 20
16.2427316081
 10
5.5204591161
 20
16.1979714496
 10
5.4978799019
 20
16.1519815516
 10
5.4783538906
 20
16.1052491479
 10
5.4620879479
 20
16.0582693387
 10
5.4492544013
 20
16.0115398457
 10
5.4399892141
 20
15.9655557383
 10
5.4343905448
 20
15.9208041887
 10
5.4325177079
 20
15.8777593114
  0
LWPOLYLINE
  5
26B
100
AcDbEntity
  8
ASSI
100
AcDbPolyline
 62
250
  6
CONTINUOUS
 90
16
 70
0
 10
5.7768161497
 20
16.484648163
 10
5.7405349785
 20
16.4604396372
 10
5.7047362336
 20
16.4322206881
 10
5.66979918
 20
16.4002902775
 10
5.6360939535
 20
16.3649866878
 10
5.6039776398
 20
16.3266839381
 10
5.573790491
 20
16.2857878221
 10
5.5458523207
 20
16.2427316081
 10
5.5204591161
 20
16.1979714496
 10
5.4978799019
 20
16.1519815516
 10
5.4783538906
 20
16.1052491479
 10
5.4620879479
 20
16.0582693387
 10
5.4492544013
 20
16.0115398457
 10
5.4399892141
 20
15.9655557383
 10
5.4343905448
 20
15.9208041887
 10
5.4325177079
 20
15.8777593114
  0
LINE
  5
26C
100
AcDbEntity
  8
CURVE
100
AcDbLine
 62
250
  6
CONTINUOUS
 10
-0.8764997559
 20
11.7012918701
 11
0.1234991393
 21
12.2788479698
  0
LINE
  5
26D
100
AcDbEntity
  8
0
100
AcDbLine
 62
250
  6
CONTINUOUS
 10
6.7202441037
 20
16.2131400254
 11
6.1302483864
 21
15.8724855727
  0
LINE
  5
26E
100
AcDbEntity
  8
ASSI
100
AcDbLine
 62
250
  6
CONTINUOUS
 10
6.7202441037
 20
16.2131400254
 11
6.1302483864
 21
15.8724855727
  0
LINE
  5
26F
100
AcDbEntity
  8
CURVE
100
AcDbLine
 62
250
  6
CONTINUOUS
 10
-3.8764957345
 20
9.9697474424
 11
-2.8764968393
 21
10.546740994
  0
LINE
  5
270
100
AcDbEntity
  8
CURVE
100
AcDbLine
 62
250
  6
CONTINUOUS
 10
-1.8247320708
 20
-11.2725583291
 11
-2.1782027299
 21
-11.0684688006
  0
LINE
  5
271
100
AcDbEntity
  8
CURVE
100
AcDbLine
 62
250
  6
CONTINUOUS
 10
-3.5768613573
 20
-11.4287823717
 11
-2.9035373097
 21
-12.2664776222
  0
LINE
  5
272
100
AcDbEntity
  8
CURVE
100
AcDbLine
 62
250
  6
CONTINUOUS
 10
-1.2762555036
 20
-14.2906717192
 11
-0.6029307489
 21
-15.1283673779
  0
LINE
  5
273
100
AcDbEntity
  8
CURVE
100
AcDbLine
 62
250
  6
CONTINUOUS
 10
-2.7266800042
 20
-12.0153028591
 11
-3.4000040518
 21
-11.1776076087
  0
LINE
  5
274
100
AcDbEntity
  8
CURVE
100
AcDbLine
 62
250
  6
CONTINUOUS
 10
-0.4260734434
 20
-14.8771926149
 11
-1.0993981981
 21
-14.0394969562
  0
LWPOLYLINE
  5
275
100
AcDbEntity
  8
COPY_PUBLISH
100
AcDbPolyline
 62
250
  6
CONTINUOUS
 90
9
 70
0
 10
-9.5821430695
 20
24.6666057195
 10
-9.5810265336
 20
24.6473347226
 10
-9.5749351097
 20
24.6177740865
 10
-9.5635849463
 20
24.588693945
 10
-9.547102322
 20
24.560445487
 10
-9.5257551105
 20
24.5334315242
 10
-9.4998615558
 20
24.5079550148
 10
-9.4697212376
 20
24.4842292411
 10
-9.4356964604
 20
24.4624798297
  0
LWPOLYLINE
  5
276
100
AcDbEntity
  8
ASSI
100
AcDbPolyline
 62
250
  6
CONTINUOUS
 90
9
 70
0
 10
-9.5821430695
 20
24.6666057195
 10
-9.5810265336
 20
24.6473347226
 10
-9.5749351097
 20
24.6177740865
 10
-9.5635849463
 20
24.588693945
 10
-9.547102322
 20
24.560445487
 10
-9.5257551105
 20
24.5334315242
 10
-9.4998615558
 20
24.5079550148
 10
-9.4697212376
 20
24.4842292411
 10
-9.4356964604
 20
24.4624798297
  0
LINE
  5
277
100
AcDbEntity
  8
CURVE
100
AcDbLine
 62
7
  6
CONTINUOUS
 10
-2.2375995848
 20
10.7080793648
 11
-1.4379516905
 21
11.5077272591
  0
LINE
  5
278
100
AcDbEntity
  8
CURVE
100
AcDbLine
 62
7
  6
CONTINUOUS
 10
-1.0111557012
 20
11.9345232485
 11
-0.3808751708
 21
12.5648037789
  0
LINE
  5
279
100
AcDbEntity
  8
CURVE
100
AcDbLine
 62
7
  6
CONTINUOUS
 10
-2.0014675737
 20
10.5241899479
 11
-1.3273760925
 21
11.1982814291
  0
LINE
  5
27A
100
AcDbEntity
  8
CURVE
100
AcDbLine
 62
7
  6
CONTINUOUS
 10
-0.7530888531
 20
11.7725686685
 11
-0.012043249
 21
12.5136142726
  0
LINE
  5
27B
100
AcDbEntity
  8
CURVE
100
AcDbLine
 62
7
  6
CONTINUOUS
 10
-1.6760600061
 20
10.4295760875
 11
-1.3051936757
 21
10.8004424179
  0
LINE
  5
27C
100
AcDbEntity
  8
CURVE
100
AcDbLine
 62
7
  6
CONTINUOUS
 10
-2.1782027299
 20
9.5074119357
 11
-1.9865808397
 21
9.6990338259
  0
LINE
  5
27D
100
AcDbEntity
  8
CURVE
100
AcDbLine
 62
7
  6
CONTINUOUS
 10
-2.1782027299
 20
9.0873905076
 11
-1.8247320708
 21
9.4408611667
  0
LINE
  5
27E
100
AcDbEntity
  8
CURVE
100
AcDbLine
 62
7
  6
CONTINUOUS
 10
-0.5873404585
 20
10.678252779
 11
-0.5555095703
 21
10.7100836673
  0
LINE
  5
27F
100
AcDbEntity
  8
CURVE
100
AcDbLine
 62
7
  6
CONTINUOUS
 10
-2.1782027299
 20
8.6673690796
 11
-1.8247320708
 21
9.0208397387
  0
LINE
  5
280
100
AcDbEntity
  8
CURVE
100
AcDbLine
 62
7
  6
CONTINUOUS
 10
-0.547976978
 20
10.2975948315
 11
-0.2892329345
 21
10.556338875
  0
LINE
  5
281
100
AcDbEntity
  8
CURVE
100
AcDbLine
 62
7
  6
CONTINUOUS
 10
-2.1782027299
 20
8.2473476516
 11
-1.8247320708
 21
8.6008183107
  0
LINE
  5
282
100
AcDbEntity
  8
CURVE
100
AcDbLine
 62
7
  6
CONTINUOUS
 10
-1.0396200681
 20
9.3859303134
 11
-0.8283579065
 21
9.597192475
  0
LINE
  5
283
100
AcDbEntity
  8
CURVE
100
AcDbLine
 62
7
  6
CONTINUOUS
 10
-0.2817003422
 20
10.1438500393
 11
-0.0229562987
 21
10.4025940827
  0
LINE
  5
284
100
AcDbEntity
  8
CURVE
100
AcDbLine
 62
250
  6
CONTINUOUS
 10
-0.8764997559
 20
9.6805630433
 11
-1.1264379614
 21
9.5362789313
  0
LWPOLYLINE
  5
285
100
AcDbEntity
  8
RACCORDO
100
AcDbPolyline
 62
7
  6
CONTINUOUS
 90
9
 70
0
 10
8.4604648411
 20
-12.4464671801
 10
8.4328353201
 20
-12.4325975621
 10
8.3978396146
 20
-12.4202249609
 10
8.3611818259
 20
-12.4125287802
 10
8.3233696008
 20
-12.4095185515
 10
8.2848197514
 20
-12.4111582475
 10
8.2457098645
 20
-12.4173982622
 10
8.2063402244
 20
-12.4282069282
 10
8.19951186
 20
-12.4305468269
  0
LINE
  5
286
100
AcDbEntity
  8
CURVE
100
AcDbLine
 62
250
  6
CONTINUOUS
 10
-3.5768613573
 20
-13.0579671621
 11
-3.4000040518
 21
-13.5133723083
  0
LINE
  5
287
100
AcDbEntity
  8
CURVE
100
AcDbLine
 62
250
  6
CONTINUOUS
 10
-2.7266800042
 20
-13.4532147906
 11
-2.9035373097
 21
-12.9978096444
  0
LINE
  5
288
100
AcDbEntity
  8
CURVE
100
AcDbLine
 62
7
  6
CONTINUOUS
 10
-1.9564515058
 20
8.0490774477
 11
-1.8247320708
 21
8.1807968827
  0
LINE
  5
289
100
AcDbEntity
  8
CURVE
100
AcDbLine
 62
7
  6
CONTINUOUS
 10
-0.8858657486
 20
9.1196632049
 11
-0.6746035411
 21
9.3309254124
  0
LINE
  5
28A
100
AcDbEntity
  8
CURVE
100
AcDbLine
 62
7
  6
CONTINUOUS
 10
-0.0154237065
 20
9.990105247
 11
0.243320337
 21
10.2488492905
  0
LINE
  5
28B
100
AcDbEntity
  8
CURVE
100
AcDbLine
 62
7
  6
CONTINUOUS
 10
-0.7321114291
 20
8.8533960963
 11
-0.5208491757
 21
9.0646583498
  0
LINE
  5
28C
100
AcDbEntity
  8
CURVE
100
AcDbLine
 62
7
  6
CONTINUOUS
 10
0.2508529293
 20
9.8363604547
 11
0.5095969728
 21
10.0951044982
  0
LINE
  5
28D
100
AcDbEntity
  8
CURVE
100
AcDbLine
 62
7
  6
CONTINUOUS
 10
-0.5783571096
 20
8.5871289878
 11
-0.3670948102
 21
8.7983912872
  0
LINE
  5
28E
100
AcDbEntity
  8
CURVE
100
AcDbLine
 62
7
  6
CONTINUOUS
 10
0.5171295651
 20
9.6826156625
 11
0.7758736086
 21
9.941359706
  0
LINE
  5
28F
100
AcDbEntity
  8
CURVE
100
AcDbLine
 62
7
  6
CONTINUOUS
 10
-0.4246027901
 20
8.3208618792
 11
-0.2133404448
 21
8.5321242246
  0
LINE
  5
290
100
AcDbEntity
  8
CURVE
100
AcDbLine
 62
7
  6
CONTINUOUS
 10
0.7834062008
 20
9.5288708702
 11
0.8270307886
 21
9.572495458
  0
LINE
  5
291
100
AcDbEntity
  8
CURVE
100
AcDbLine
 62
7
  6
CONTINUOUS
 10
-0.2708484707
 20
8.0545947707
 11
-0.0595860794
 21
8.265857162
  0
LINE
  5
292
100
AcDbEntity
  8
CURVE
100
AcDbLine
 62
7
  6
CONTINUOUS
 10
-0.0660455638
 20
7.8393762495
 11
0.094168286
 21
7.9995900994
  0
LINE
  5
293
100
AcDbEntity
  8
CURVE
100
AcDbLine
 62
250
  6
CONTINUOUS
 10
-0.1264397733
 20
7.8045121296
 11
0.1234991393
 21
7.9487958332
  0
LINE
  5
294
100
AcDbEntity
  8
RACCORDO
100
AcDbLine
 62
7
  6
CONTINUOUS
 10
7.1657213758
 20
8.8411441739
 11
8.1995493845
 21
9.2059287712
  0
LINE
  5
295
100
AcDbEntity
  8
RACCORDO
100
AcDbLine
 62
250
  6
CONTINUOUS
 10
8.2867969932
 20
9.2012255294
 11
7.1657213758
 21
8.8056294955
  0
LWPOLYLINE
  5
296
100
AcDbEntity
  8
RACCORDO
100
AcDbPolyline
 62
250
  6
CONTINUOUS
 90
7
 70
0
 10
8.1995493845
 20
9.2059287712
 10
8.2017257452
 20
9.2066222212
 10
8.2114552756
 20
9.2080790621
 10
8.2218277392
 20
9.2071069685
 10
8.2326676892
 20
9.2037223231
 10
8.2437917988
 20
9.1979823102
 10
8.2550119096
 20
9.1899839581
  0
LINE
  5
297
100
AcDbEntity
  8
RACCORDO
100
AcDbLine
 62
250
  6
CONTINUOUS
 10
8.950557843
 20
-12.8480778817
 11
8.2550119096
 21
-12.4464783769
  0
LINE
  5
298
100
AcDbEntity
  8
RACCORDO
100
AcDbLine
 62
7
  6
CONTINUOUS
 10
8.950557843
 20
-12.7294247126
 11
8.4606268691
 21
-12.4465447086
  0
LINE
  5
299
100
AcDbEntity
  8
CURVE
100
AcDbLine
 62
250
  6
CONTINUOUS
 10
-1.2762555036
 20
-12.8527597877
 11
-1.0993981981
 21
-13.308164934
  0
LINE
  5
29A
100
AcDbEntity
  8
CURVE
100
AcDbLine
 62
250
  6
CONTINUOUS
 10
-4.8299655893
 20
13.1781010011
 11
-4.8299655893
 21
12.7699613898
  0
LINE
  5
29B
100
AcDbEntity
  8
DRAFT
100
AcDbLine
 62
7
  6
CONTINUOUS
 10
8.950557843
 20
8.7634235444
 11
8.6323597915
 21
8.5989552047
  0
LINE
  5
29C
100
AcDbEntity
  8
RACCORDO
100
AcDbLine
 62
7
  6
CONTINUOUS
 10
8.0746822556
 20
8.6975860123
 11
7.166046301
 21
8.2929187435
  0
LINE
  5
29D
100
AcDbEntity
  8
CURVE
100
AcDbLine
 62
250
  6
CONTINUOUS
 10
-0.4260734434
 20
-13.2480078246
 11
-0.6029307489
 21
-12.7926026783
  0
LWPOLYLINE
  5
29E
100
AcDbEntity
  8
CURVE
100
AcDbPolyline
 62
250
  6
CONTINUOUS
 90
17
 70
0
 10
-2.4611508013
 20
-12.8878537411
 10
-2.452396209
 20
-12.9960040791
 10
-2.4264658921
 20
-13.110144588
 10
-2.3843475281
 20
-13.2259276913
 10
-2.3265127539
 20
-13.3409096071
 10
-2.2571874177
 20
-13.4466888829
 10
-2.1781217989
 20
-13.5412918854
 10
-2.0923274825
 20
-13.6211152157
 10
-2.0014677539
 20
-13.6840481337
 10
-1.9121815154
 20
-13.7254922821
 10
-1.826296162
 20
-13.7451406223
 10
-1.7470830401
 20
-13.7422447553
 10
-1.6764227539
 20
-13.7162634256
 10
-1.6194782807
 20
-13.6690950265
 10
-1.5770836679
 20
-13.6022789733
 10
-1.5508537131
 20
-13.5183602686
 10
-1.5417847065
 20
-13.4186841554
  0
LWPOLYLINE
  5
29F
100
AcDbEntity
  8
CURVE
100
AcDbPolyline
 62
250
  6
CONTINUOUS
 90
17
 70
0
 10
-1.5417847065
 20
-13.4186842018
 10
-1.5505392987
 20
-13.3105338638
 10
-1.5764696157
 20
-13.1963933548
 10
-1.6185879797
 20
-13.0806102515
 10
-1.6764227539
 20
-12.9656283357
 10
-1.7457480901
 20
-12.8598490599
 10
-1.8248137089
 20
-12.7652460574
 10
-1.9106080253
 20
-12.6854227271
 10
-2.0014677539
 20
-12.6224898092
 10
-2.0907539924
 20
-12.5810456608
 10
-2.1766393458
 20
-12.5613973205
 10
-2.2558524676
 20
-12.5642931875
 10
-2.3265127539
 20
-12.5902745173
 10
-2.3834572271
 20
-12.6374429163
 10
-2.4258518399
 20
-12.7042589696
 10
-2.4520817947
 20
-12.7881776742
 10
-2.4611508013
 20
-12.8878537875
  0
LWPOLYLINE
  5
2A0
100
AcDbEntity
  8
DRAFT
100
AcDbPolyline
 62
7
  6
CONTINUOUS
 90
4
 70
0
 10
-2.7086961574
 20
-1.2323152264
 10
-2.7079985648
 20
-1.2436851582
 10
-2.7061992974
 20
-1.2551532008
 10
-2.7033048449
 20
-1.2666934793
  0
LWPOLYLINE
  5
2A1
100
AcDbEntity
  8
ASSI
100
AcDbPolyline
 62
7
  6
CONTINUOUS
 90
4
 70
0
 10
-2.7086961574
 20
-1.2323152264
 10
-2.7079985648
 20
-1.2436851582
 10
-2.7061992974
 20
-1.2551532008
 10
-2.7033048449
 20
-1.2666934793
  0
LWPOLYLINE
  5
2A2
100
AcDbEntity
  8
0
100
AcDbPolyline
 62
7
  6
CONTINUOUS
 90
13
 70
0
 10
-2.7086961574
 20
-1.2323152264
 10
-2.7080070495
 20
-1.2436566261
 10
-2.7062128729
 20
-1.2551075494
 10
-2.7033136276
 20
-1.2666679964
 10
-2.699222885
 20
-1.278537225
 10
-2.6940270736
 20
-1.2905159772
 10
-2.6879854793
 20
-1.3020064793
 10
-2.6810551811
 20
-1.312983954
 10
-2.6732791
 20
-1.3234731787
 10
-2.6650452843
 20
-1.3329507112
 10
-2.6564830838
 20
-1.3412420708
 10
-2.6474631488
 20
-1.3485217382
 10
-2.6379854793
 20
-1.3547897134
  0
LINE
  5
2A3
100
AcDbEntity
  8
CURVE
100
AcDbLine
 62
250
  6
CONTINUOUS
 10
-2.0017109986
 20
12.1570303899
 11
-2.0012238021
 21
10.525596605
  0
LINE
  5
2A4
100
AcDbEntity
  8
CURVE
100
AcDbLine
 62
250
  6
CONTINUOUS
 10
-3.4155950492
 20
11.9533215662
 11
-3.4155950492
 21
12.3614611775
  0
LINE
  5
2A5
100
AcDbEntity
  8
0
100
AcDbLine
 62
7
  6
CONTINUOUS
 10
-2.7086961574
 20
0.2373312719
 11
-2.7086961574
 21
-1.2323152264
  0
LINE
  5
2A6
100
AcDbEntity
  8
DRAFT
100
AcDbLine
 62
7
  6
CONTINUOUS
 10
-2.7086961574
 20
0.2373312719
 11
-2.7086961574
 21
-1.2323152264
  0
LINE
  5
2A7
100
AcDbEntity
  8
ASSI
100
AcDbLine
 62
7
  6
CONTINUOUS
 10
-2.7086961574
 20
0.2373312719
 11
-2.7086961574
 21
-1.2323152264
  0
LINE
  5
2A8
100
AcDbEntity
  8
CURVE
100
AcDbLine
 62
250
  6
CONTINUOUS
 10
-2.1782027299
 20
14.7084776021
 11
-2.1782027299
 21
13.0759175237
  0
LINE
  5
2A9
100
AcDbEntity
  8
CURVE
100
AcDbLine
 62
250
  6
CONTINUOUS
 10
-2.1782027299
 20
9.8096739037
 11
-2.1782027299
 21
8.1771138253
  0
LINE
  5
2AA
100
AcDbEntity
  8
CURVE
100
AcDbLine
 62
250
  6
CONTINUOUS
 10
-2.1782027299
 20
-11.0684688006
 11
-2.1782027299
 21
-11.9663199357
  0
LINE
  5
2AB
100
AcDbEntity
  8
CURVE
100
AcDbLine
 62
250
  6
CONTINUOUS
 10
-2.1782027299
 20
-14.1355655224
 11
-2.1782027299
 21
-15.0334166575
  0
LINE
  5
2AC
100
AcDbEntity
  8
CURVE
100
AcDbLine
 62
250
  6
CONTINUOUS
 10
-1.8247320708
 20
-15.2375061861
 11
-1.8247320708
 21
-14.3396550509
  0
LINE
  5
2AD
100
AcDbEntity
  8
CURVE
100
AcDbLine
 62
250
  6
CONTINUOUS
 10
-1.8247320708
 20
-12.1704094643
 11
-1.8247320708
 21
-11.2725583291
  0
LINE
  5
2AE
100
AcDbEntity
  8
CURVE
100
AcDbLine
 62
250
  6
CONTINUOUS
 10
-1.8247320708
 20
7.9730242967
 11
-1.8247320708
 21
9.6055843752
  0
LINE
  5
2AF
100
AcDbEntity
  8
CURVE
100
AcDbLine
 62
250
  6
CONTINUOUS
 10
-1.8247320708
 20
12.8718279951
 11
-1.8247320708
 21
14.5043880736
  0
LWPOLYLINE
  5
2B0
100
AcDbEntity
  8
DRAFT
100
AcDbPolyline
 62
7
  6
CONTINUOUS
 90
4
 70
0
 10
-2.7033048449
 20
0.2654837722
 10
-2.7061992974
 20
0.2572859349
 10
-2.7079985648
 20
0.2478956412
 10
-2.7086961574
 20
0.2373312719
  0
LWPOLYLINE
  5
2B1
100
AcDbEntity
  8
ASSI
100
AcDbPolyline
 62
7
  6
CONTINUOUS
 90
4
 70
0
 10
-2.7033048449
 20
0.2654837722
 10
-2.7061992974
 20
0.2572859349
 10
-2.7079985648
 20
0.2478956412
 10
-2.7086961574
 20
0.2373312719
  0
LWPOLYLINE
  5
2B2
100
AcDbEntity
  8
0
100
AcDbPolyline
 62
7
  6
CONTINUOUS
 90
7
 70
0
 10
-2.688615655
 20
0.282733279
 10
-2.6940270736
 20
0.2785925324
 10
-2.699222885
 20
0.2726137729
 10
-2.7033136276
 20
0.2654684314
 10
-2.7062128729
 20
0.2572559602
 10
-2.7080070495
 20
0.247876907
 10
-2.7086961574
 20
0.2373312719
  0
LWPOLYLINE
  5
2B3
100
AcDbEntity
  8
DRAFT
100
AcDbPolyline
 62
7
  6
CONTINUOUS
 90
4
 70
0
 10
-2.6886156031
 20
0.2827333105
 10
-2.6940192538
 20
0.2786035035
 10
-2.6992096419
 20
0.272639866
 10
-2.7032983551
 20
0.2655021529
  0
LWPOLYLINE
  5
2B4
100
AcDbEntity
  8
ASSI
100
AcDbPolyline
 62
7
  6
CONTINUOUS
 90
4
 70
0
 10
-2.6886156031
 20
0.2827333105
 10
-2.6940192538
 20
0.2786035035
 10
-2.6992096419
 20
0.272639866
 10
-2.7032983551
 20
0.2655021529
  0
LINE
  5
2B5
100
AcDbEntity
  8
DRAFT
100
AcDbLine
 62
7
  6
CONTINUOUS
 10
6.7202441037
 20
8.0226023865
 11
7.1657213758
 21
8.2936483274
  0
LINE
  5
2B6
100
AcDbEntity
  8
ASSI
100
AcDbLine
 62
7
  6
CONTINUOUS
 10
6.7202441037
 20
8.0226023865
 11
7.1657213758
 21
8.2936483274
  0
LWPOLYLINE
  5
2B7
100
AcDbEntity
  8
DRAFT
100
AcDbPolyline
 62
7
  6
CONTINUOUS
 90
4
 70
0
 10
-1.3380966266
 20
-2.099096601
 10
-1.3298704324
 20
-2.0991252152
 10
-1.3221101596
 20
-2.0976127486
 10
-1.3158264435
 20
-2.0949958647
  0
LWPOLYLINE
  5
2B8
100
AcDbEntity
  8
ASSI
100
AcDbPolyline
 62
7
  6
CONTINUOUS
 90
4
 70
0
 10
-1.3380966266
 20
-2.099096601
 10
-1.3298704324
 20
-2.0991252152
 10
-1.3221101596
 20
-2.0976127486
 10
-1.3158264435
 20
-2.0949958647
  0
LWPOLYLINE
  5
2B9
100
AcDbEntity
  8
DRAFT
100
AcDbPolyline
 62
7
  6
CONTINUOUS
 90
4
 70
0
 10
-1.3651932732
 20
-2.0896839814
 10
-1.3556951362
 20
-2.094362602
 10
-1.3466629207
 20
-2.0975001419
 10
-1.3381157904
 20
-2.0990930296
  0
LWPOLYLINE
  5
2BA
100
AcDbEntity
  8
ASSI
100
AcDbPolyline
 62
7
  6
CONTINUOUS
 90
4
 70
0
 10
-1.3651932732
 20
-2.0896839814
 10
-1.3556951362
 20
-2.094362602
 10
-1.3466629207
 20
-2.0975001419
 10
-1.3381157904
 20
-2.0990930296
  0
LWPOLYLINE
  5
2BB
100
AcDbEntity
  8
0
100
AcDbPolyline
 62
7
  6
CONTINUOUS
 90
7
 70
0
 10
-1.3651932732
 20
-2.0896839814
 10
-1.3557156037
 20
-2.0943605813
 10
-1.3466956687
 20
-2.0974969087
 10
-1.3381334682
 20
-2.0990929637
 10
-1.3298996526
 20
-2.0991236351
 10
-1.3221235714
 20
-2.0976140341
 10
-1.3158264963
 20
-2.0949958937
  0
LINE
  5
2BC
100
AcDbEntity
  8
0
100
AcDbLine
 62
7
  6
CONTINUOUS
 10
-2.6379854793
 20
-1.3547897134
 11
-1.3651932732
 21
-2.0896839814
  0
LINE
  5
2BD
100
AcDbEntity
  8
DRAFT
100
AcDbLine
 62
7
  6
CONTINUOUS
 10
-2.6379854793
 20
-1.3547897134
 11
-1.3651932732
 21
-2.0896839814
  0
LINE
  5
2BE
100
AcDbEntity
  8
ASSI
100
AcDbLine
 62
7
  6
CONTINUOUS
 10
-2.6379854793
 20
-1.3547897134
 11
-1.3651932732
 21
-2.0896839814
  0
LWPOLYLINE
  5
2BF
100
AcDbEntity
  8
DRAFT
100
AcDbPolyline
 62
7
  6
CONTINUOUS
 90
4
 70
0
 10
-2.6650629621
 20
-1.3329303632
 10
-2.6565158319
 20
-1.3412074873
 10
-2.6474836163
 20
-1.3485001235
 10
-2.6379854793
 20
-1.3547897134
  0
LWPOLYLINE
  5
2C0
100
AcDbEntity
  8
ASSI
100
AcDbPolyline
 62
7
  6
CONTINUOUS
 90
4
 70
0
 10
-2.6650629621
 20
-1.3329303632
 10
-2.6565158319
 20
-1.3412074873
 10
-2.6474836163
 20
-1.3485001235
 10
-2.6379854793
 20
-1.3547897134
  0
LWPOLYLINE
  5
2C1
100
AcDbEntity
  8
DRAFT
100
AcDbPolyline
 62
7
  6
CONTINUOUS
 90
7
 70
0
 10
-2.7032983551
 20
-1.2667193542
 10
-2.6992096419
 20
-1.2785786109
 10
-2.6940192538
 20
-1.2905359784
 10
-2.6879854793
 20
-1.3020064793
 10
-2.6810685929
 20
-1.312967181
 10
-2.6733083202
 20
-1.323441016
 10
-2.6650821259
 20
-1.3329118048
  0
LWPOLYLINE
  5
2C2
100
AcDbEntity
  8
ASSI
100
AcDbPolyline
 62
7
  6
CONTINUOUS
 90
7
 70
0
 10
-2.7032983551
 20
-1.2667193542
 10
-2.6992096419
 20
-1.2785786109
 10
-2.6940192538
 20
-1.2905359784
 10
-2.6879854793
 20
-1.3020064793
 10
-2.6810685929
 20
-1.312967181
 10
-2.6733083202
 20
-1.323441016
 10
-2.6650821259
 20
-1.3329118048
  0
LWPOLYLINE
  5
2C3
100
AcDbEntity
  8
DRAFT
100
AcDbPolyline
 62
7
  6
CONTINUOUS
 90
13
 70
0
 10
-1.2944825951
 20
-0.5792179148
 10
-1.2951801877
 20
-0.567847983
 10
-1.2969794551
 20
-0.5563799404
 10
-1.2998803974
 20
-0.5448137869
 10
-1.3039691106
 20
-0.5329545302
 10
-1.3091594987
 20
-0.5209971627
 10
-1.3151932732
 20
-0.5095266619
 10
-1.3221101596
 20
-0.4985659602
 10
-1.3298704324
 20
-0.4880921251
 10
-1.3380966266
 20
-0.4786213364
 10
-1.3466629207
 20
-0.4703256539
 10
-1.3556951362
 20
-0.4630330177
 10
-1.3651932732
 20
-0.4567434278
  0
LWPOLYLINE
  5
2C4
100
AcDbEntity
  8
ASSI
100
AcDbPolyline
 62
7
  6
CONTINUOUS
 90
13
 70
0
 10
-1.2944825951
 20
-0.5792179148
 10
-1.2951801877
 20
-0.567847983
 10
-1.2969794551
 20
-0.5563799404
 10
-1.2998803974
 20
-0.5448137869
 10
-1.3039691106
 20
-0.5329545302
 10
-1.3091594987
 20
-0.5209971627
 10
-1.3151932732
 20
-0.5095266619
 10
-1.3221101596
 20
-0.4985659602
 10
-1.3298704324
 20
-0.4880921251
 10
-1.3380966266
 20
-0.4786213364
 10
-1.3466629207
 20
-0.4703256539
 10
-1.3556951362
 20
-0.4630330177
 10
-1.3651932732
 20
-0.4567434278
  0
LWPOLYLINE
  5
2C5
100
AcDbEntity
  8
0
100
AcDbPolyline
 62
7
  6
CONTINUOUS
 90
4
 70
0
 10
-1.2944825951
 20
-0.5792179148
 10
-1.295171703
 20
-0.5678765151
 10
-1.2969658796
 20
-0.5564255917
 10
-1.2998651249
 20
-0.5448651447
  0
LINE
  5
2C6
100
AcDbEntity
  8
0
100
AcDbLine
 62
7
  6
CONTINUOUS
 10
-1.2944825951
 20
-2.048864413
 11
-1.2944825951
 21
-0.5792179148
  0
LINE
  5
2C7
100
AcDbEntity
  8
DRAFT
100
AcDbLine
 62
7
  6
CONTINUOUS
 10
-1.2944825951
 20
-2.048864413
 11
-1.2944825951
 21
-0.5792179148
  0
LINE
  5
2C8
100
AcDbEntity
  8
ASSI
100
AcDbLine
 62
7
  6
CONTINUOUS
 10
-1.2944825951
 20
-2.048864413
 11
-1.2944825951
 21
-0.5792179148
  0
LINE
  5
2C9
100
AcDbEntity
  8
CURVE
100
AcDbLine
 62
250
  6
CONTINUOUS
 10
-0.5873404585
 20
10.7284624232
 11
-0.5873404585
 21
10.3203228118
  0
LINE
  5
2CA
100
AcDbEntity
  8
DRAFT
100
AcDbLine
 62
7
  6
CONTINUOUS
 10
-1.2951801877
 20
-2.0594287824
 11
-1.2944825951
 21
-2.048864413
  0
LINE
  5
2CB
100
AcDbEntity
  8
ASSI
100
AcDbLine
 62
7
  6
CONTINUOUS
 10
-1.2951801877
 20
-2.0594287824
 11
-1.2944825951
 21
-2.048864413
  0
LWPOLYLINE
  5
2CC
100
AcDbEntity
  8
0
100
AcDbPolyline
 62
7
  6
CONTINUOUS
 90
4
 70
0
 10
-1.2998651249
 20
-2.0770015725
 10
-1.2969658796
 20
-2.0687891013
 10
-1.295171703
 20
-2.0594100482
 10
-1.2944825951
 20
-2.048864413
  0
LINE
  5
2CD
100
AcDbEntity
  8
DRAFT
100
AcDbLine
 62
7
  6
CONTINUOUS
 10
8.950557843
 20
6.3979279759
 11
8.6323597915
 21
6.1949491816
  0
LINE
  5
2CE
100
AcDbEntity
  8
DRAFT
100
AcDbLine
 62
7
  6
CONTINUOUS
 10
6.7202441037
 20
3.9402510026
 11
7.1657213758
 21
4.2112969434
  0
LINE
  5
2CF
100
AcDbEntity
  8
ASSI
100
AcDbLine
 62
7
  6
CONTINUOUS
 10
6.7202441037
 20
3.9402510026
 11
7.1657213758
 21
4.2112969434
  0
LINE
  5
2D0
100
AcDbEntity
  8
RACCORDO
100
AcDbLine
 62
250
  6
CONTINUOUS
 10
6.9433114057
 20
4.503007728
 11
6.7202441037
 21
4.3742114635
  0
LINE
  5
2D1
100
AcDbEntity
  8
ASSI
100
AcDbLine
 62
250
  6
CONTINUOUS
 10
6.9433114057
 20
4.503007728
 11
6.7202441037
 21
4.3742114635
  0
LINE
  5
2D2
100
AcDbEntity
  8
RACCORDO
100
AcDbLine
 62
250
  6
CONTINUOUS
 10
7.084732762
 20
4.258058754
 11
6.7202441037
 21
4.0476075708
  0
LINE
  5
2D3
100
AcDbEntity
  8
ASSI
100
AcDbLine
 62
250
  6
CONTINUOUS
 10
7.084732762
 20
4.258058754
 11
6.7202441037
 21
4.0476075708
  0
LINE
  5
2D4
100
AcDbEntity
  8
RACCORDO
100
AcDbLine
 62
7
  6
CONTINUOUS
 10
8.0746822556
 20
6.268875521
 11
6.9433114057
 21
5.6370347005
  0
LWPOLYLINE
  5
2D5
100
AcDbEntity
  8
DRAFT
100
AcDbPolyline
 62
7
  6
CONTINUOUS
 90
7
 70
0
 10
-2.6379854793
 20
0.2781508402
 10
-2.6474836163
 20
0.2828294609
 10
-2.6565158319
 20
0.2859670008
 10
-2.6650821259
 20
0.2875634599
 10
-2.6733083202
 20
0.2875920741
 10
-2.6810685929
 20
0.2860796075
 10
-2.6886156031
 20
0.2827333105
  0
LWPOLYLINE
  5
2D6
100
AcDbEntity
  8
ASSI
100
AcDbPolyline
 62
7
  6
CONTINUOUS
 90
7
 70
0
 10
-2.6379854793
 20
0.2781508402
 10
-2.6474836163
 20
0.2828294609
 10
-2.6565158319
 20
0.2859670008
 10
-2.6650821259
 20
0.2875634599
 10
-2.6733083202
 20
0.2875920741
 10
-2.6810685929
 20
0.2860796075
 10
-2.6886156031
 20
0.2827333105
  0
LWPOLYLINE
  5
2D7
100
AcDbEntity
  8
0
100
AcDbPolyline
 62
7
  6
CONTINUOUS
 90
4
 70
0
 10
-2.6379854793
 20
0.2781508402
 10
-2.6474631488
 20
0.2828274401
 10
-2.6564830838
 20
0.2859637676
 10
-2.6650452843
 20
0.2875598226
  0
LINE
  5
2D8
100
AcDbEntity
  8
0
100
AcDbLine
 62
7
  6
CONTINUOUS
 10
-1.3651932732
 20
-0.4567434278
 11
-2.6379854793
 21
0.2781508402
  0
LINE
  5
2D9
100
AcDbEntity
  8
DRAFT
100
AcDbLine
 62
7
  6
CONTINUOUS
 10
-1.3651932732
 20
-0.4567434278
 11
-2.6379854793
 21
0.2781508402
  0
LINE
  5
2DA
100
AcDbEntity
  8
ASSI
100
AcDbLine
 62
7
  6
CONTINUOUS
 10
-1.3651932732
 20
-0.4567434278
 11
-2.6379854793
 21
0.2781508402
  0
LWPOLYLINE
  5
2DB
100
AcDbEntity
  8
0
100
AcDbPolyline
 62
7
  6
CONTINUOUS
 90
4
 70
0
 10
-1.3381334682
 20
-0.47858243
 10
-1.3466956687
 20
-0.4702910704
 10
-1.3557156037
 20
-0.463011403
 10
-1.3651932732
 20
-0.4567434278
  0
LWPOLYLINE
  5
2DC
100
AcDbEntity
  8
0
100
AcDbPolyline
 62
7
  6
CONTINUOUS
 90
4
 70
0
 10
-1.3151932732
 20
-0.5095266619
 10
-1.3221235714
 20
-0.4985491871
 10
-1.3298996526
 20
-0.4880599624
 10
-1.3381157904
 20
-0.4786027779
  0
LWPOLYLINE
  5
2DD
100
AcDbEntity
  8
0
100
AcDbPolyline
 62
7
  6
CONTINUOUS
 90
4
 70
0
 10
-1.2998739076
 20
-0.5448396618
 10
-1.3039558676
 20
-0.5329959161
 10
-1.3091516789
 20
-0.521017164
 10
-1.3151932732
 20
-0.5095266619
  0
LINE
  5
2DE
100
AcDbEntity
  8
CURVE
100
AcDbLine
 62
250
  6
CONTINUOUS
 10
0.8270307886
 20
9.50368258
 11
0.8270307886
 21
9.9118221913
  0
LWPOLYLINE
  5
2DF
100
AcDbEntity
  8
0
100
AcDbPolyline
 62
7
  6
CONTINUOUS
 90
4
 70
0
 10
-1.3158264963
 20
-2.0949958937
 10
-1.3091516789
 20
-2.0901256735
 10
-1.3039558676
 20
-2.084146914
 10
-1.2998739076
 20
-2.0770169133
  0
LWPOLYLINE
  5
2E0
100
AcDbEntity
  8
DRAFT
100
AcDbPolyline
 62
7
  6
CONTINUOUS
 90
6
 70
0
 10
-1.3158264435
 20
-2.0949958647
 10
-1.3091594987
 20
-2.0901366446
 10
-1.3039691106
 20
-2.0841730071
 10
-1.2998803974
 20
-2.077035294
 10
-1.2969794551
 20
-2.068819076
 10
-1.2951801877
 20
-2.0594287824
  0
LWPOLYLINE
  5
2E1
100
AcDbEntity
  8
ASSI
100
AcDbPolyline
 62
7
  6
CONTINUOUS
 90
6
 70
0
 10
-1.3158264435
 20
-2.0949958647
 10
-1.3091594987
 20
-2.0901366446
 10
-1.3039691106
 20
-2.0841730071
 10
-1.2998803974
 20
-2.077035294
 10
-1.2969794551
 20
-2.068819076
 10
-1.2951801877
 20
-2.0594287824
  0
LWPOLYLINE
  5
2E2
100
AcDbEntity
  8
0
100
AcDbPolyline
 62
7
  6
CONTINUOUS
 90
4
 70
0
 10
-2.6650629621
 20
0.2875598884
 10
-2.6732791
 20
0.287590494
 10
-2.6810551811
 20
0.286080893
 10
-2.688615655
 20
0.282733279
  0
LWPOLYLINE
  5
2E3
100
AcDbEntity
  8
RACCORDO
100
AcDbPolyline
 62
250
  6
CONTINUOUS
 90
9
 70
0
 10
8.1269326551
 20
-2.3166747955
 10
8.1085265484
 20
-2.3090233722
 10
8.0889309241
 20
-2.3033469995
 10
8.0685104203
 20
-2.2997468878
 10
8.0473395203
 20
-2.2982014134
 10
8.0245439873
 20
-2.2987614408
 10
7.9998139178
 20
-2.3017345764
 10
7.9735213564
 20
-2.307376873
 10
7.9457537542
 20
-2.3159272808
  0
LWPOLYLINE
  5
2E4
100
AcDbEntity
  8
ASSI
100
AcDbPolyline
 62
250
  6
CONTINUOUS
 90
9
 70
0
 10
8.1269326551
 20
-2.3166747955
 10
8.1085265484
 20
-2.3090233722
 10
8.0889309241
 20
-2.3033469995
 10
8.0685104203
 20
-2.2997468878
 10
8.0473395203
 20
-2.2982014134
 10
8.0245439873
 20
-2.2987614408
 10
7.9998139178
 20
-2.3017345764
 10
7.9735213564
 20
-2.307376873
 10
7.9457537542
 20
-2.3159272808
  0
LWPOLYLINE
  5
2E5
100
AcDbEntity
  8
RACCORDO
100
AcDbPolyline
 62
7
  6
CONTINUOUS
 90
10
 70
0
 10
8.1387597612
 20
-2.322937255
 10
8.1136781495
 20
-2.3096565272
 10
8.0797382939
 20
-2.2953069658
 10
8.0442024478
 20
-2.2842417708
 10
8.0074175544
 20
-2.2766427269
 10
7.9697380922
 20
-2.2726271513
 10
7.9314742517
 20
-2.2722592079
 10
7.892972979
 20
-2.275563098
 10
7.8545727527
 20
-2.2824959513
 10
7.8158984289
 20
-2.2932012392
  0
LWPOLYLINE
  5
2E6
100
AcDbEntity
  8
ASSI
100
AcDbPolyline
 62
7
  6
CONTINUOUS
 90
10
 70
0
 10
8.1387597612
 20
-2.322937255
 10
8.1136781495
 20
-2.3096565272
 10
8.0797382939
 20
-2.2953069658
 10
8.0442024478
 20
-2.2842417708
 10
8.0074175544
 20
-2.2766427269
 10
7.9697380922
 20
-2.2726271513
 10
7.9314742517
 20
-2.2722592079
 10
7.892972979
 20
-2.275563098
 10
7.8545727527
 20
-2.2824959513
 10
7.8158984289
 20
-2.2932012392
  0
LWPOLYLINE
  5
2E7
100
AcDbEntity
  8
RACCORDO
100
AcDbPolyline
 62
250
  6
CONTINUOUS
 90
6
 70
0
 10
7.9457537542
 20
-2.3159272808
 10
7.9193467376
 20
-2.3017506462
 10
7.8927633285
 20
-2.292253291
 10
7.8664531356
 20
-2.2875958454
 10
7.840861147
 20
-2.2878570814
 10
7.8158984289
 20
-2.2932012392
  0
LWPOLYLINE
  5
2E8
100
AcDbEntity
  8
ASSI
100
AcDbPolyline
 62
250
  6
CONTINUOUS
 90
6
 70
0
 10
7.9457537542
 20
-2.3159272808
 10
7.9193467376
 20
-2.3017506462
 10
7.8927633285
 20
-2.292253291
 10
7.8664531356
 20
-2.2875958454
 10
7.840861147
 20
-2.2878570814
 10
7.8158984289
 20
-2.2932012392
  0
LINE
  5
2E9
100
AcDbEntity
  8
RACCORDO
100
AcDbLine
 62
250
  6
CONTINUOUS
 10
7.1675424549
 20
-2.8505008631
 11
7.2510740828
 21
-2.8987309781
  0
LINE
  5
2EA
100
AcDbEntity
  8
ASSI
100
AcDbLine
 62
250
  6
CONTINUOUS
 10
7.1675424549
 20
-2.8505008631
 11
7.2510740828
 21
-2.8987309781
  0
LINE
  5
2EB
100
AcDbEntity
  8
RACCORDO
100
AcDbLine
 62
250
  6
CONTINUOUS
 10
7.9457537542
 20
-2.3159272808
 11
8.2583934296
 21
-2.4964415111
  0
LINE
  5
2EC
100
AcDbEntity
  8
ASSI
100
AcDbLine
 62
250
  6
CONTINUOUS
 10
7.9457537542
 20
-2.3159272808
 11
8.2583934296
 21
-2.4964415111
  0
LINE
  5
2ED
100
AcDbEntity
  8
RACCORDO
100
AcDbLine
 62
7
  6
CONTINUOUS
 10
8.1383263888
 20
-2.3226860061
 11
8.4420724669
 21
-2.4980651848
  0
LINE
  5
2EE
100
AcDbEntity
  8
ASSI
100
AcDbLine
 62
7
  6
CONTINUOUS
 10
8.1383263888
 20
-2.3226860061
 11
8.4420724669
 21
-2.4980651848
  0
LINE
  5
2EF
100
AcDbEntity
  8
CURVE
100
AcDbLine
 62
250
  6
CONTINUOUS
 10
-4.1264346471
 20
10.4026543374
 11
-3.8764957345
 21
9.9697474424
  0
LINE
  5
2F0
100
AcDbEntity
  8
CURVE
100
AcDbLine
 62
250
  6
CONTINUOUS
 10
-3.4000040518
 20
-11.1776076087
 11
-3.5768613573
 21
-11.4287823717
  0
LINE
  5
2F1
100
AcDbEntity
  8
CURVE
100
AcDbLine
 62
250
  6
CONTINUOUS
 10
-2.8764968393
 20
10.546740994
 11
-3.1264357519
 21
10.979647889
  0
LINE
  5
2F2
100
AcDbEntity
  8
CURVE
100
AcDbLine
 62
250
  6
CONTINUOUS
 10
-1.1264379614
 20
9.5362789313
 11
-0.1264397733
 21
7.8045121296
  0
LINE
  5
2F3
100
AcDbEntity
  8
CURVE
100
AcDbLine
 62
250
  6
CONTINUOUS
 10
-4.1264346471
 20
14.7327064739
 11
-3.1264357519
 21
13.0003767159
  0
LWPOLYLINE
  5
2F4
100
AcDbEntity
  8
RACCORDO
100
AcDbPolyline
 62
7
  6
CONTINUOUS
 90
13
 70
0
 10
6.9433114057
 20
-17.133454607
 10
6.9446896216
 20
-17.1561374064
 10
6.9482779748
 20
-17.1790392532
 10
6.9540764655
 20
-17.2021601472
 10
6.9622579507
 20
-17.2258986043
 10
6.9726495734
 20
-17.2498561086
 10
6.984732762
 20
-17.2728371128
 10
6.9985933584
 20
-17.2947920623
 10
7.0141455207
 20
-17.3157705117
 10
7.030613152
 20
-17.3347255766
 10
7.0477375531
 20
-17.3513082958
 10
7.0657774231
 20
-17.3658676306
 10
7.084732762
 20
-17.378403581
  0
LWPOLYLINE
  5
2F5
100
AcDbEntity
  8
ASSI
100
AcDbPolyline
 62
7
  6
CONTINUOUS
 90
13
 70
0
 10
6.9433114057
 20
-17.133454607
 10
6.9446896216
 20
-17.1561374064
 10
6.9482779748
 20
-17.1790392532
 10
6.9540764655
 20
-17.2021601472
 10
6.9622579507
 20
-17.2258986043
 10
6.9726495734
 20
-17.2498561086
 10
6.984732762
 20
-17.2728371128
 10
6.9985933584
 20
-17.2947920623
 10
7.0141455207
 20
-17.3157705117
 10
7.030613152
 20
-17.3347255766
 10
7.0477375531
 20
-17.3513082958
 10
7.0657774231
 20
-17.3658676306
 10
7.084732762
 20
-17.378403581
  0
LWPOLYLINE
  5
2F6
100
AcDbEntity
  8
COPY_PUBLISH
100
AcDbPolyline
 62
250
  6
CONTINUOUS
 90
9
 70
0
 10
5.4325177079
 20
-26.2740129708
 10
5.4343905448
 20
-26.3148951431
 10
5.4399892141
 20
-26.3531814897
 10
5.4492544013
 20
-26.3884663911
 10
5.4620879479
 20
-26.4203760262
 10
5.4783538906
 20
-26.4485723324
 10
5.4978799019
 20
-26.4727565877
 10
5.5204591161
 20
-26.4926725752
 10
5.5360590184
 20
-26.5028814014
  0
LWPOLYLINE
  5
2F7
100
AcDbEntity
  8
ASSI
100
AcDbPolyline
 62
250
  6
CONTINUOUS
 90
9
 70
0
 10
5.4325177079
 20
-26.2740129708
 10
5.4343905448
 20
-26.3148951431
 10
5.4399892141
 20
-26.3531814897
 10
5.4492544013
 20
-26.3884663911
 10
5.4620879479
 20
-26.4203760262
 10
5.4783538906
 20
-26.4485723324
 10
5.4978799019
 20
-26.4727565877
 10
5.5204591161
 20
-26.4926725752
 10
5.5360590184
 20
-26.5028814014
  0
LINE
  5
2F8
100
AcDbEntity
  8
COPY_PUBLISH
100
AcDbLine
 62
250
  6
CONTINUOUS
 10
5.4325177079
 20
15.8777593114
 11
5.4325177079
 21
-26.2740129708
  0
LINE
  5
2F9
100
AcDbEntity
  8
ASSI
100
AcDbLine
 62
250
  6
CONTINUOUS
 10
5.4325177079
 20
15.8777593114
 11
5.4325177079
 21
-26.2740129708
  0
LINE
  5
2FA
100
AcDbEntity
  8
CURVE
100
AcDbLine
 62
250
  6
CONTINUOUS
 10
-2.9035373097
 20
-12.2664776222
 11
-2.7266800042
 21
-12.0153028591
  0
LINE
  5
2FB
100
AcDbEntity
  8
CURVE
100
AcDbLine
 62
7
  6
CONTINUOUS
 10
-3.4861926201
 20
-11.5415850717
 11
-3.2762187744
 21
-11.331611226
  0
LINE
  5
2FC
100
AcDbEntity
  8
RACCORDO
100
AcDbLine
 62
7
  6
CONTINUOUS
 10
7.2510740828
 20
-2.8987309781
 11
8.2583934296
 21
-2.4964415111
  0
LINE
  5
2FD
100
AcDbEntity
  8
ASSI
100
AcDbLine
 62
7
  6
CONTINUOUS
 10
7.2510740828
 20
-2.8987309781
 11
8.2583934296
 21
-2.4964415111
  0
LINE
  5
2FE
100
AcDbEntity
  8
RACCORDO
100
AcDbLine
 62
7
  6
CONTINUOUS
 10
7.8158247424
 20
-2.2932252663
 11
7.1657213758
 21
-2.5054336285
  0
LINE
  5
2FF
100
AcDbEntity
  8
ASSI
100
AcDbLine
 62
7
  6
CONTINUOUS
 10
7.8158247424
 20
-2.2932252663
 11
7.1657213758
 21
-2.5054336285
  0
LINE
  5
300
100
AcDbEntity
  8
RACCORDO
100
AcDbLine
 62
250
  6
CONTINUOUS
 10
7.9457537542
 20
-2.3159272808
 11
7.1657213758
 21
-2.570547395
  0
LINE
  5
301
100
AcDbEntity
  8
ASSI
100
AcDbLine
 62
250
  6
CONTINUOUS
 10
7.9457537542
 20
-2.3159272808
 11
7.1657213758
 21
-2.570547395
  0
LINE
  5
302
100
AcDbEntity
  8
CURVE
100
AcDbLine
 62
250
  6
CONTINUOUS
 10
0.1234991393
 20
7.9487958332
 11
-0.8764997559
 21
9.6805630433
  0
LINE
  5
303
100
AcDbEntity
  8
CURVE
100
AcDbLine
 62
250
  6
CONTINUOUS
 10
-1.1264379614
 20
12.1341983568
 11
-0.8764997559
 21
11.7012918701
  0
LINE
  5
304
100
AcDbEntity
  8
CURVE
100
AcDbLine
 62
250
  6
CONTINUOUS
 10
-2.8764968393
 20
13.1446604195
 11
-3.8764957345
 21
14.8769901775
  0
LWPOLYLINE
  5
305
100
AcDbEntity
  8
COPY_PUBLISH
100
AcDbPolyline
 62
250
  6
CONTINUOUS
 90
16
 70
0
 10
6.1302483864
 20
15.8724855727
 10
6.1273584387
 20
15.9158624947
 10
6.1207097378
 20
15.9610678903
 10
6.110375545
 20
16.0076038759
 10
6.0964678936
 20
16.0549634487
 10
6.0791410103
 20
16.102619559
 10
6.0585934948
 20
16.1500308146
 10
6.0350603679
 20
16.1966655647
 10
6.0087991882
 20
16.2420226919
 10
5.9800917156
 20
16.2856190029
 10
5.9492088091
 20
16.3270321491
 10
5.9165296775
 20
16.3657433662
 10
5.8825498609
 20
16.4011942835
 10
5.84770168
 20
16.4329970801
 10
5.8123287117
 20
16.4608992561
 10
5.7768161449
 20
16.4846481602
  0
LWPOLYLINE
  5
306
100
AcDbEntity
  8
ASSI
100
AcDbPolyline
 62
250
  6
CONTINUOUS
 90
16
 70
0
 10
6.1302483864
 20
15.8724855727
 10
6.1273584387
 20
15.9158624947
 10
6.1207097378
 20
15.9610678903
 10
6.110375545
 20
16.0076038759
 10
6.0964678936
 20
16.0549634487
 10
6.0791410103
 20
16.102619559
 10
6.0585934948
 20
16.1500308146
 10
6.0350603679
 20
16.1966655647
 10
6.0087991882
 20
16.2420226919
 10
5.9800917156
 20
16.2856190029
 10
5.9492088091
 20
16.3270321491
 10
5.9165296775
 20
16.3657433662
 10
5.8825498609
 20
16.4011942835
 10
5.84770168
 20
16.4329970801
 10
5.8123287117
 20
16.4608992561
 10
5.7768161449
 20
16.4846481602
  0
LWPOLYLINE
  5
307
100
AcDbEntity
  8
RACCORDO
100
AcDbPolyline
 62
7
  6
CONTINUOUS
 90
13
 70
0
 10
6.9433114057
 20
4.503007728
 10
6.9446896216
 20
4.4803249286
 10
6.9482779748
 20
4.4574230819
 10
6.9540764655
 20
4.4343021879
 10
6.9622579507
 20
4.4105637308
 10
6.9726495734
 20
4.3866062264
 10
6.984732762
 20
4.3636252222
 10
6.9985933584
 20
4.3416702727
 10
7.0141455207
 20
4.3206918233
 10
7.030613152
 20
4.3017367584
 10
7.0477375531
 20
4.2851540392
 10
7.0657774231
 20
4.2705947044
 10
7.084732762
 20
4.258058754
  0
LWPOLYLINE
  5
308
100
AcDbEntity
  8
ASSI
100
AcDbPolyline
 62
7
  6
CONTINUOUS
 90
13
 70
0
 10
6.9433114057
 20
4.503007728
 10
6.9446896216
 20
4.4803249286
 10
6.9482779748
 20
4.4574230819
 10
6.9540764655
 20
4.4343021879
 10
6.9622579507
 20
4.4105637308
 10
6.9726495734
 20
4.3866062264
 10
6.984732762
 20
4.3636252222
 10
6.9985933584
 20
4.3416702727
 10
7.0141455207
 20
4.3206918233
 10
7.030613152
 20
4.3017367584
 10
7.0477375531
 20
4.2851540392
 10
7.0657774231
 20
4.2705947044
 10
7.084732762
 20
4.258058754
  0
LINE
  5
309
100
AcDbEntity
  8
COPY_PUBLISH
100
AcDbLine
 62
250
  6
CONTINUOUS
 10
6.1302483864
 20
15.8724855727
 11
6.1302483864
 21
-26.2792867095
  0
LINE
  5
30A
100
AcDbEntity
  8
ASSI
100
AcDbLine
 62
250
  6
CONTINUOUS
 10
6.1302483864
 20
15.8724855727
 11
6.1302483864
 21
-26.2792867095
  0
LINE
  5
30B
100
AcDbEntity
  8
0
100
AcDbLine
 62
7
  6
CONTINUOUS
 10
6.7202441037
 20
-25.9733999633
 11
6.7202441037
 21
16.2131400254
  0
LINE
  5
30C
100
AcDbEntity
  8
ASSI
100
AcDbLine
 62
7
  6
CONTINUOUS
 10
6.7202441037
 20
-25.9733999633
 11
6.7202441037
 21
16.2131400254
  0
LINE
  5
30D
100
AcDbEntity
  8
RACCORDO
100
AcDbLine
 62
7
  6
CONTINUOUS
 10
6.9433114057
 20
-17.133454607
 11
6.9433114057
 21
-13.4781370047
  0
LINE
  5
30E
100
AcDbEntity
  8
ASSI
100
AcDbLine
 62
7
  6
CONTINUOUS
 10
6.9433114057
 20
-17.133454607
 11
6.9433114057
 21
-13.4781370047
  0
LINE
  5
30F
100
AcDbEntity
  8
RACCORDO
100
AcDbLine
 62
7
  6
CONTINUOUS
 10
6.9433114057
 20
4.503007728
 11
6.9433114057
 21
8.1583253303
  0
LINE
  5
310
100
AcDbEntity
  8
ASSI
100
AcDbLine
 62
7
  6
CONTINUOUS
 10
6.9433114057
 20
4.503007728
 11
6.9433114057
 21
8.1583253303
  0
LINE
  5
311
100
AcDbEntity
  8
RACCORDO
100
AcDbLine
 62
7
  6
CONTINUOUS
 10
7.1657213758
 20
-25.6069609106
 11
7.1657213758
 21
-17.4251653916
  0
LINE
  5
312
100
AcDbEntity
  8
ASSI
100
AcDbLine
 62
7
  6
CONTINUOUS
 10
7.1657213758
 20
-25.6069609106
 11
7.1657213758
 21
-17.4251653916
  0
LINE
  5
313
100
AcDbEntity
  8
RACCORDO
100
AcDbLine
 62
7
  6
CONTINUOUS
 10
7.1657213758
 20
-13.3428140076
 11
7.1657213758
 21
-6.3014640719
  0
LINE
  5
314
100
AcDbEntity
  8
ASSI
100
AcDbLine
 62
7
  6
CONTINUOUS
 10
7.1657213758
 20
-13.3428140076
 11
7.1657213758
 21
-6.3014640719
  0
LINE
  5
315
100
AcDbEntity
  8
RACCORDO
100
AcDbLine
 62
7
  6
CONTINUOUS
 10
7.1657213758
 20
-2.8300529923
 11
7.1657213758
 21
4.2112969434
  0
LINE
  5
316
100
AcDbEntity
  8
ASSI
100
AcDbLine
 62
7
  6
CONTINUOUS
 10
7.1657213758
 20
-2.8300529923
 11
7.1657213758
 21
4.2112969434
  0
LINE
  5
317
100
AcDbEntity
  8
RACCORDO
100
AcDbLine
 62
7
  6
CONTINUOUS
 10
7.1657213758
 20
8.2936483274
 11
7.1657213758
 21
16.4754438463
  0
LINE
  5
318
100
AcDbEntity
  8
ASSI
100
AcDbLine
 62
7
  6
CONTINUOUS
 10
7.1657213758
 20
8.2936483274
 11
7.1657213758
 21
16.4754438463
  0
LINE
  5
319
100
AcDbEntity
  8
CURVE
100
AcDbLine
 62
250
  6
CONTINUOUS
 10
-1.0993981981
 20
-14.0394969562
 11
-1.2762555036
 21
-14.2906717192
  0
LINE
  5
31A
100
AcDbEntity
  8
CURVE
100
AcDbLine
 62
7
  6
CONTINUOUS
 10
-3.2990272223
 20
-11.7744411019
 11
-3.0890533766
 21
-11.5644672563
  0
LINE
  5
31B
100
AcDbEntity
  8
CURVE
100
AcDbLine
 62
7
  6
CONTINUOUS
 10
-3.1118618245
 20
-12.0072971321
 11
-2.9018879788
 21
-11.7973232865
  0
LINE
  5
31C
100
AcDbEntity
  8
CURVE
100
AcDbLine
 62
7
  6
CONTINUOUS
 10
-2.1782027299
 20
-11.0736380376
 11
-2.1749256422
 21
-11.0703609499
  0
LINE
  5
31D
100
AcDbEntity
  8
CURVE
100
AcDbLine
 62
7
  6
CONTINUOUS
 10
-2.9246964267
 20
-12.2401531624
 11
-2.7905380532
 21
-12.1059947889
  0
LINE
  5
31E
100
AcDbEntity
  8
CURVE
100
AcDbLine
 62
7
  6
CONTINUOUS
 10
-2.1782027299
 20
-11.4936594656
 11
-1.9086490065
 21
-11.2241057422
  0
LINE
  5
31F
100
AcDbEntity
  8
CURVE
100
AcDbLine
 62
7
  6
CONTINUOUS
 10
-3.5057079781
 20
-13.2411861418
 11
-3.2975326301
 21
-13.0330107939
  0
LINE
  5
320
100
AcDbEntity
  8
CURVE
100
AcDbLine
 62
7
  6
CONTINUOUS
 10
-2.1782027299
 20
-11.9136808936
 11
-1.8247320708
 21
-11.5602102345
  0
LINE
  5
321
100
AcDbEntity
  8
CURVE
100
AcDbLine
 62
7
  6
CONTINUOUS
 10
-3.3537392285
 20
-13.5092388203
 11
-2.8864107388
 21
-13.0419103305
  0
LINE
  5
322
100
AcDbEntity
  8
CURVE
100
AcDbLine
 62
7
  6
CONTINUOUS
 10
-1.9452971226
 20
-12.1007967144
 11
-1.8247320708
 21
-11.9802316625
  0
LINE
  5
323
100
AcDbEntity
  8
CURVE
100
AcDbLine
 62
7
  6
CONTINUOUS
 10
-2.8925096698
 20
-13.4680306896
 11
-2.7689217786
 21
-13.3444427984
  0
LINE
  5
324
100
AcDbEntity
  8
CURVE
100
AcDbLine
 62
7
  6
CONTINUOUS
 10
-2.4476773908
 20
-13.0231984105
 11
-2.031009142
 21
-12.6065301617
  0
LINE
  5
325
100
AcDbEntity
  8
CURVE
100
AcDbLine
 62
7
  6
CONTINUOUS
 10
-2.3333518082
 20
-13.328894256
 11
-1.7985839154
 21
-12.7941263632
  0
LWPOLYLINE
  5
326
100
AcDbEntity
  8
RACCORDO
100
AcDbPolyline
 62
250
  6
CONTINUOUS
 90
8
 70
0
 10
8.2867969932
 20
9.2012255294
 10
8.3178098566
 20
9.2088955379
 10
8.3477779954
 20
9.212974691
 10
8.3763744717
 20
9.2134721449
 10
8.4034508701
 20
9.2104807629
 10
8.4289911093
 20
9.2040471868
 10
8.4528021311
 20
9.1941587984
 10
8.4604843547
 20
9.189999819
  0
LINE
  5
327
100
AcDbEntity
  8
DRAFT
100
AcDbLine
 62
7
  6
CONTINUOUS
 10
8.6323597915
 20
6.1949491816
 11
8.0746822556
 21
6.268875521
  0
LINE
  5
328
100
AcDbEntity
  8
CURVE
100
AcDbLine
 62
250
  6
CONTINUOUS
 10
-2.1782027299
 20
8.1771138253
 11
-1.8247320708
 21
7.9730242967
  0
LINE
  5
329
100
AcDbEntity
  8
RACCORDO
100
AcDbLine
 62
7
  6
CONTINUOUS
 10
7.1657213758
 20
4.2112969434
 11
7.084732762
 21
4.258058754
  0
LINE
  5
32A
100
AcDbEntity
  8
ASSI
100
AcDbLine
 62
7
  6
CONTINUOUS
 10
7.1657213758
 20
4.2112969434
 11
7.084732762
 21
4.258058754
  0
LINE
  5
32B
100
AcDbEntity
  8
CURVE
100
AcDbLine
 62
250
  6
CONTINUOUS
 10
-1.8247320708
 20
9.6055843752
 11
-2.1782027299
 21
9.8096739037
  0
LINE
  5
32C
100
AcDbEntity
  8
CURVE
100
AcDbLine
 62
250
  6
CONTINUOUS
 10
0.1234991393
 20
12.2788479698
 11
-0.1264397733
 21
12.7117548648
  0
LINE
  5
32D
100
AcDbEntity
  8
DRAFT
100
AcDbLine
 62
7
  6
CONTINUOUS
 10
8.0746822556
 20
8.6975860123
 11
8.0746822556
 21
6.268875521
  0
LINE
  5
32E
100
AcDbEntity
  8
DRAFT
100
AcDbLine
 62
7
  6
CONTINUOUS
 10
8.0746822556
 20
-15.367586814
 11
8.0746822556
 21
-12.9388763227
  0
LINE
  5
32F
100
AcDbEntity
  8
RACCORDO
100
AcDbLine
 62
7
  6
CONTINUOUS
 10
8.5429024528
 20
-2.7253681305
 11
8.5429024528
 21
-4.7302863745
  0
LINE
  5
330
100
AcDbEntity
  8
ASSI
100
AcDbLine
 62
7
  6
CONTINUOUS
 10
8.5429024528
 20
-2.7253681305
 11
8.5429024528
 21
-4.7302863745
  0
LINE
  5
331
100
AcDbEntity
  8
DRAFT
100
AcDbLine
 62
7
  6
CONTINUOUS
 10
8.6323597915
 20
8.5989552047
 11
8.6323597915
 21
6.1949491816
  0
LINE
  5
332
100
AcDbEntity
  8
DRAFT
100
AcDbLine
 62
7
  6
CONTINUOUS
 10
8.6323597915
 20
-15.4415131534
 11
8.6323597915
 21
-13.0375071303
  0
LINE
  5
333
100
AcDbEntity
  8
RACCORDO
100
AcDbLine
 62
7
  6
CONTINUOUS
 10
8.950557843
 20
8.9069921422
 11
8.950557843
 21
8.7634235444
  0
LINE
  5
334
100
AcDbEntity
  8
DRAFT
100
AcDbLine
 62
7
  6
CONTINUOUS
 10
8.950557843
 20
8.7634235444
 11
8.950557843
 21
6.3979279759
  0
LINE
  5
335
100
AcDbEntity
  8
RACCORDO
100
AcDbLine
 62
7
  6
CONTINUOUS
 10
8.950557843
 20
-12.7294701928
 11
8.950557843
 21
-12.8730387906
  0
LINE
  5
336
100
AcDbEntity
  8
DRAFT
100
AcDbLine
 62
7
  6
CONTINUOUS
 10
8.950557843
 20
-15.2385343591
 11
8.950557843
 21
-12.8730387906
  0
LWPOLYLINE
  5
337
100
AcDbEntity
  8
COPY_PUBLISH
100
AcDbPolyline
 62
250
  6
CONTINUOUS
 90
9
 70
0
 10
6.1302483864
 20
-26.2792867095
 10
6.1273587586
 20
-26.3214445105
 10
6.1207108486
 20
-26.3608320217
 10
6.1103778628
 20
-26.3970155046
 10
6.0964717011
 20
-26.4296002021
 10
6.0791465614
 20
-26.4582226352
 10
6.0586012701
 20
-26.4825595324
 10
6.035071407
 20
-26.5023435586
 10
6.0163214256
 20
-26.5137053194
  0
LWPOLYLINE
  5
338
100
AcDbEntity
  8
ASSI
100
AcDbPolyline
 62
250
  6
CONTINUOUS
 90
9
 70
0
 10
6.1302483864
 20
-26.2792867095
 10
6.1273587586
 20
-26.3214445105
 10
6.1207108486
 20
-26.3608320217
 10
6.1103778628
 20
-26.3970155046
 10
6.0964717011
 20
-26.4296002021
 10
6.0791465614
 20
-26.4582226352
 10
6.0586012701
 20
-26.4825595324
 10
6.035071407
 20
-26.5023435586
 10
6.0163214256
 20
-26.5137053194
  0
LINE
  5
339
100
AcDbEntity
  8
CURVE
100
AcDbLine
 62
250
  6
CONTINUOUS
 10
-0.6029307489
 20
-15.1283673779
 11
-0.4260734434
 21
-14.8771926149
  0
LINE
  5
33A
100
AcDbEntity
  8
CURVE
100
AcDbLine
 62
7
  6
CONTINUOUS
 10
-2.1521529803
 20
-13.5677168561
 11
-1.6330319342
 21
-13.04859581
  0
LINE
  5
33B
100
AcDbEntity
  8
CURVE
100
AcDbLine
 62
7
  6
CONTINUOUS
 10
-1.8953862281
 20
-13.7309715319
 11
-1.5430478772
 21
-13.3786331811
  0
LINE
  5
33C
100
AcDbEntity
  8
CURVE
100
AcDbLine
 62
7
  6
CONTINUOUS
 10
-1.2037850114
 20
-13.0393703153
 11
-0.9917563696
 21
-12.8273416735
  0
LINE
  5
33D
100
AcDbEntity
  8
CURVE
100
AcDbLine
 62
7
  6
CONTINUOUS
 10
-2.1782027299
 20
-14.4338094618
 11
-1.9891281077
 21
-14.2447348396
  0
LINE
  5
33E
100
AcDbEntity
  8
CURVE
100
AcDbLine
 62
7
  6
CONTINUOUS
 10
-1.0479627888
 20
-13.3035695207
 11
-0.584487377
 21
-12.8400941089
  0
LINE
  5
33F
100
AcDbEntity
  8
CURVE
100
AcDbLine
 62
7
  6
CONTINUOUS
 10
-2.1782027299
 20
-14.8538308898
 11
-1.8247320708
 21
-14.5003602307
  0
LINE
  5
340
100
AcDbEntity
  8
CURVE
100
AcDbLine
 62
7
  6
CONTINUOUS
 10
-0.5867335848
 20
-13.2623617446
 11
-0.4669984169
 21
-13.1426265768
  0
LINE
  5
341
100
AcDbEntity
  8
CURVE
100
AcDbLine
 62
7
  6
CONTINUOUS
 10
-2.0257762239
 20
-15.1214258118
 11
-1.8247320708
 21
-14.9203816587
  0
LINE
  5
342
100
AcDbEntity
  8
CURVE
100
AcDbLine
 62
7
  6
CONTINUOUS
 10
-1.2400571571
 20
-14.335706745
 11
-1.0300833011
 21
-14.125732889
  0
LINE
  5
343
100
AcDbEntity
  8
CURVE
100
AcDbLine
 62
7
  6
CONTINUOUS
 10
-1.0528917009
 20
-14.5685627168
 11
-0.8429178449
 21
-14.3585888608
  0
LINE
  5
344
100
AcDbEntity
  8
RACCORDO
100
AcDbLine
 62
7
  6
CONTINUOUS
 10
7.2510740828
 20
-6.1289221801
 11
8.2583934296
 21
-5.3054260139
  0
LINE
  5
345
100
AcDbEntity
  8
ASSI
100
AcDbLine
 62
7
  6
CONTINUOUS
 10
7.2510740828
 20
-6.1289221801
 11
8.2583934296
 21
-5.3054260139
  0
LWPOLYLINE
  5
346
100
AcDbEntity
  8
CURVE
100
AcDbPolyline
 62
250
  6
CONTINUOUS
 90
81
 70
0
 10
-2.0014675737
 20
10.5241899479
 10
-1.9727887156
 20
10.5082977161
 10
-1.9441579466
 20
10.4937589607
 10
-1.9156233238
 20
10.4806009329
 10
-1.8872329044
 20
10.4688508841
 10
-1.8590347456
 20
10.4585360656
 10
-1.8318934836
 20
10.449920566
 10
-1.8050155454
 20
10.4426945572
 10
-1.7784378546
 20
10.4368697445
 10
-1.7521973345
 20
10.4324578329
 10
-1.7263309087
 20
10.4294705277
 10
-1.7014936197
 20
10.4279374066
 10
-1.6770836553
 20
10.4277649279
 10
-1.6531371947
 20
10.4289468673
 10
-1.6296904173
 20
10.4314770002
 10
-1.6067795021
 20
10.4353491022
 10
-1.5844406286
 20
10.440556949
 10
-1.5627099758
 20
10.447094316
 10
-1.541623723
 20
10.4549549789
 10
-1.5212180496
 20
10.4641327131
 10
-1.5015291346
 20
10.4746212943
 10
-1.4825879809
 20
10.4864129019
 10
-1.4644235852
 20
10.4994813936
 10
-1.4470595187
 20
10.5137985984
 10
-1.4305193521
 20
10.5293363457
 10
-1.4148266564
 20
10.5460664647
 10
-1.4000050025
 20
10.5639607846
 10
-1.3860779614
 20
10.5829911347
 10
-1.3730691039
 20
10.6031293442
 10
-1.3610020011
 20
10.6243472424
 10
-1.3499002238
 20
10.6466166584
 10
-1.3395397952
 20
10.6705151069
 10
-1.3302275661
 20
10.6954517342
 10
-1.3219717748
 20
10.7213885282
 10
-1.3147806595
 20
10.7482874768
 10
-1.3086624585
 20
10.7761105678
 10
-1.3034865195
 20
10.80571287
 10
-1.2994598409
 20
10.8362013182
 10
-1.2965831008
 20
10.8675206616
 10
-1.2948569773
 20
10.8996156493
 10
-1.2942821486
 20
10.9324310306
 10
-1.2948584682
 20
10.9658925632
 10
-1.2965850669
 20
10.9999625947
 10
-1.2994615368
 20
11.0345852239
 10
-1.30348747
 20
11.0697045493
 10
-1.3086624585
 20
11.1052646698
 10
-1.3147806786
 20
11.1401391817
 10
-1.3219719939
 20
11.1753284903
 10
-1.3302279757
 20
11.2107849905
 10
-1.3395401952
 20
11.2464610774
 10
-1.3499002238
 20
11.2823091459
 10
-1.3610033274
 20
11.3173911253
 10
-1.3730715535
 20
11.3525360573
 10
-1.3860812966
 20
11.3876885791
 10
-1.4000089515
 20
11.4227933278
 10
-1.4148309131
 20
11.4577949407
 10
-1.4305235759
 20
11.4926380549
 10
-1.4470633347
 20
11.5272673078
 10
-1.4644265843
 20
11.5616273364
 10
-1.4825897194
 20
11.5956627781
 10
-1.5015291346
 20
11.62931827
 10
-1.5212191417
 20
11.6625397058
 10
-1.5416256505
 20
11.6952778903
 10
-1.5627124872
 20
11.7274848852
 10
-1.5844434778
 20
11.7591127522
 10
-1.6067824482
 20
11.790113553
 10
-1.6296932245
 20
11.8204393494
 10
-1.6531396326
 20
11.8500422031
 10
-1.6770854987
 20
11.8788741758
 10
-1.7014946487
 20
11.9068873293
 10
-1.7263309087
 20
11.9340337252
 10
-1.7521974962
 20
11.960916217
 10
-1.7784380504
 20
11.986806319
 10
-1.8050156953
 20
12.0116729141
 10
-1.8318935549
 20
12.0354848853
 10
-1.8590347531
 20
12.0582111154
 10
-1.8872632946
 20
12.0804812769
 10
-1.915684511
 20
12.1015353101
 10
-1.9442501768
 20
12.121345148
 10
-1.9729120663
 20
12.1398827241
 10
-2.0016219542
 20
12.1571199715
  0
LWPOLYLINE
  5
347
100
AcDbEntity
  8
CURVE
100
AcDbPolyline
 62
250
  6
CONTINUOUS
 90
81
 70
0
 10
-2.0016219542
 20
12.1571199715
 10
-2.0303117488
 20
12.1730184548
 10
-2.058953395
 20
12.1875635509
 10
-2.0874989703
 20
12.2007284198
 10
-2.1159005523
 20
12.2124862216
 10
-2.1441102182
 20
12.2228101161
 10
-2.1712711028
 20
12.2314382578
 10
-2.1981688413
 20
12.2386770065
 10
-2.2247663709
 20
12.2445139392
 10
-2.2510266285
 20
12.2489366331
 10
-2.2769125514
 20
12.2519326653
 10
-2.3017478696
 20
12.2534710049
 10
-2.326155988
 20
12.2536481974
 10
-2.3501005592
 20
12.2524703133
 10
-2.373545236
 20
12.2499434228
 10
-2.3964536712
 20
12.2460735963
 10
-2.4187895174
 20
12.2408669041
 10
-2.4405164276
 20
12.2343294165
 10
-2.4615980543
 20
12.2264672037
 10
-2.4819980504
 20
12.2172863363
 10
-2.5016800685
 20
12.2067928844
 10
-2.5206052909
 20
12.1949997408
 10
-2.5387531283
 20
12.181929125
 10
-2.5561001451
 20
12.1676094281
 10
-2.5726229057
 20
12.1520690411
 10
-2.5882979744
 20
12.1353363552
 10
-2.6031019157
 20
12.1174397613
 10
-2.617011294
 20
12.0984076505
 10
-2.6300026736
 20
12.0782684141
 10
-2.642052619
 20
12.0570504429
 10
-2.6531376945
 20
12.0347821281
 10
-2.6634816541
 20
12.0108861292
 10
-2.6727781982
 20
11.985953455
 10
-2.6810192595
 20
11.9600221634
 10
-2.6881967705
 20
11.9331303119
 10
-2.6943026638
 20
11.9053159582
 10
-2.6994674651
 20
11.8757247065
 10
-2.7034850815
 20
11.8452492269
 10
-2.7063553308
 20
11.8139448808
 10
-2.7080780307
 20
11.7818670292
 10
-2.7086529989
 20
11.7490710333
 10
-2.708079518
 20
11.7155934297
 10
-2.7063572921
 20
11.6815080062
 10
-2.7034867732
 20
11.6468704668
 10
-2.6994684132
 20
11.6117365155
 10
-2.6943026638
 20
11.5761618562
 10
-2.6881967896
 20
11.5412828454
 10
-2.6810194783
 20
11.5060888244
 10
-2.6727786071
 20
11.4706270872
 10
-2.6634820535
 20
11.4349449279
 10
-2.6531376945
 20
11.3990896406
 10
-2.6420539434
 20
11.3640130673
 10
-2.6300051202
 20
11.3288723671
 10
-2.6170146259
 20
11.2937230209
 10
-2.6031058617
 20
11.2586205097
 10
-2.5883022286
 20
11.2236203144
 10
-2.5726271278
 20
11.1887779159
 10
-2.5561039603
 20
11.1541487952
 10
-2.5387561272
 20
11.1197884331
 10
-2.5206070296
 20
11.0857523106
 10
-2.5016800685
 20
11.0520959087
 10
-2.4819991428
 20
11.0188707463
 10
-2.4615999823
 20
10.9861289658
 10
-2.4405189396
 20
10.9539186754
 10
-2.4187923673
 20
10.9222879836
 10
-2.3964566178
 20
10.8912849986
 10
-2.3735480437
 20
10.8609578288
 10
-2.3501029974
 20
10.8313545824
 10
-2.3261578316
 20
10.8025233679
 10
-2.3017488988
 20
10.7745122936
 10
-2.2769125514
 20
10.7473694678
 10
-2.2510267905
 20
10.7204729814
 10
-2.2247665671
 20
10.6945711066
 10
-2.1981689915
 20
10.6696940357
 10
-2.1712711743
 20
10.645871961
 10
-2.1441102257
 20
10.623135075
 10
-2.1158700173
 20
10.6008590179
 10
-2.0874375836
 20
10.5797976166
 10
-2.0588609888
 20
10.5599797312
 10
-2.0301882974
 20
10.5414342216
 10
-2.0014675737
 20
10.5241899479
  0
LINE
  5
348
100
AcDbEntity
  8
CURVE
100
AcDbLine
 62
250
  6
CONTINUOUS
 10
-4.8299655893
 20
12.7699613898
 11
-3.4155950492
 21
11.9533215662
  0
LINE
  5
349
100
AcDbEntity
  8
CURVE
100
AcDbLine
 62
250
  6
CONTINUOUS
 10
-0.5873404585
 20
10.3203228118
 11
0.8270307886
 21
9.50368258
  0
LINE
  5
34A
100
AcDbEntity
  8
CURVE
100
AcDbLine
 62
250
  6
CONTINUOUS
 10
0.8270307886
 20
9.9118221913
 11
-0.5873404585
 21
10.7284624232
  0
LINE
  5
34B
100
AcDbEntity
  8
CURVE
100
AcDbLine
 62
250
  6
CONTINUOUS
 10
-3.4155950492
 20
12.3614611775
 11
-4.8299655893
 21
13.1781010011
  0
LINE
  5
34C
100
AcDbEntity
  8
CURVE
100
AcDbLine
 62
7
  6
CONTINUOUS
 10
-0.8657262447
 20
-14.8014186887
 11
-0.6557523887
 21
-14.5914448327
  0
LINE
  5
34D
100
AcDbEntity
  8
CURVE
100
AcDbLine
 62
7
  6
CONTINUOUS
 10
-0.6785607885
 20
-15.0342746605
 11
-0.4685869325
 21
-14.8243008045
  0
LINE
  5
34E
100
AcDbEntity
  8
DRAFT
100
AcDbLine
 62
7
  6
CONTINUOUS
 10
8.6323597915
 20
8.5989552047
 11
8.0746822556
 21
8.6975860123
  0
LINE
  5
34F
100
AcDbEntity
  8
CURVE
100
AcDbLine
 62
250
  6
CONTINUOUS
 10
-2.1782027299
 20
13.0759175237
 11
-1.8247320708
 21
12.8718279951
  0
LWPOLYLINE
  5
350
100
AcDbEntity
  8
RACCORDO
100
AcDbPolyline
 62
7
  6
CONTINUOUS
 90
9
 70
0
 10
8.4604648411
 20
9.1899951549
 10
8.4328353201
 20
9.2038647729
 10
8.3978396146
 20
9.2162373741
 10
8.3611818259
 20
9.2239335548
 10
8.3233696008
 20
9.2269437835
 10
8.2848197514
 20
9.2253040875
 10
8.2457098645
 20
9.2190640728
 10
8.2063402244
 20
9.2082554068
 10
8.19951186
 20
9.2059155081
  0
LINE
  5
351
100
AcDbEntity
  8
CURVE
100
AcDbLine
 62
250
  6
CONTINUOUS
 10
-1.8247320708
 20
14.5043880736
 11
-2.1782027299
 21
14.7084776021
  0
LINE
  5
352
100
AcDbEntity
  8
RACCORDO
100
AcDbLine
 62
250
  6
CONTINUOUS
 10
8.950557843
 20
8.7883844534
 11
8.2550119096
 21
9.1899839581
  0
LINE
  5
353
100
AcDbEntity
  8
RACCORDO
100
AcDbLine
 62
7
  6
CONTINUOUS
 10
8.950557843
 20
8.9070376224
 11
8.4606268691
 21
9.1899176265
  0
LINE
  5
354
100
AcDbEntity
  8
DRAFT
100
AcDbLine
 62
7
  6
CONTINUOUS
 10
6.7202441037
 20
-13.6138599485
 11
7.1657213758
 21
-13.3428140076
  0
LINE
  5
355
100
AcDbEntity
  8
ASSI
100
AcDbLine
 62
7
  6
CONTINUOUS
 10
6.7202441037
 20
-13.6138599485
 11
7.1657213758
 21
-13.3428140076
  0
LINE
  5
356
100
AcDbEntity
  8
RACCORDO
100
AcDbLine
 62
7
  6
CONTINUOUS
 10
8.0746822556
 20
-12.9388763227
 11
7.166046301
 21
-13.3435435915
  0
LINE
  5
357
100
AcDbEntity
  8
RACCORDO
100
AcDbLine
 62
7
  6
CONTINUOUS
 10
7.1657213758
 20
-12.7953181612
 11
8.1995493845
 21
-12.4305335639
  0
LINE
  5
358
100
AcDbEntity
  8
RACCORDO
100
AcDbLine
 62
250
  6
CONTINUOUS
 10
8.2867969932
 20
-12.4352368056
 11
7.1657213758
 21
-12.8308328395
  0
LWPOLYLINE
  5
359
100
AcDbEntity
  8
RACCORDO
100
AcDbPolyline
 62
250
  6
CONTINUOUS
 90
7
 70
0
 10
8.1995493845
 20
-12.4305335639
 10
8.2017257452
 20
-12.4298401138
 10
8.2114552756
 20
-12.428383273
 10
8.2218277392
 20
-12.4293553665
 10
8.2326676892
 20
-12.4327400119
 10
8.2437917988
 20
-12.4384800248
 10
8.2550119096
 20
-12.4464783769
  0
LINE
  5
35A
100
AcDbEntity
  8
DRAFT
100
AcDbLine
 62
7
  6
CONTINUOUS
 10
8.950557843
 20
-12.8730387906
 11
8.6323597915
 21
-13.0375071303
  0
LINE
  5
35B
100
AcDbEntity
  8
COPY_PUBLISH
100
AcDbLine
 62
250
  6
CONTINUOUS
 10
5.4325177079
 20
15.8777593114
 11
-9.4356964604
 21
24.4624798297
  0
LINE
  5
35C
100
AcDbEntity
  8
ASSI
100
AcDbLine
 62
250
  6
CONTINUOUS
 10
5.4325177079
 20
15.8777593114
 11
-9.4356964604
 21
24.4624798297
  0
LINE
  5
35D
100
AcDbEntity
  8
COPY_PUBLISH
100
AcDbLine
 62
250
  6
CONTINUOUS
 10
5.7768161497
 20
16.484648163
 11
-9.0913980187
 21
25.0693686813
  0
LINE
  5
35E
100
AcDbEntity
  8
ASSI
100
AcDbLine
 62
250
  6
CONTINUOUS
 10
5.7768161497
 20
16.484648163
 11
-9.0913980187
 21
25.0693686813
  0
LINE
  5
35F
100
AcDbEntity
  8
DRAFT
100
AcDbLine
 62
7
  6
CONTINUOUS
 10
8.950557843
 20
-15.2385343591
 11
8.6323597915
 21
-15.4415131534
  0
LINE
  5
360
100
AcDbEntity
  8
DRAFT
100
AcDbLine
 62
7
  6
CONTINUOUS
 10
6.7202441037
 20
-17.6962113324
 11
7.1657213758
 21
-17.4251653916
  0
LINE
  5
361
100
AcDbEntity
  8
ASSI
100
AcDbLine
 62
7
  6
CONTINUOUS
 10
6.7202441037
 20
-17.6962113324
 11
7.1657213758
 21
-17.4251653916
  0
LINE
  5
362
100
AcDbEntity
  8
RACCORDO
100
AcDbLine
 62
250
  6
CONTINUOUS
 10
6.9433114057
 20
-17.133454607
 11
6.7202441037
 21
-17.2622508715
  0
LINE
  5
363
100
AcDbEntity
  8
ASSI
100
AcDbLine
 62
250
  6
CONTINUOUS
 10
6.9433114057
 20
-17.133454607
 11
6.7202441037
 21
-17.2622508715
  0
LINE
  5
364
100
AcDbEntity
  8
RACCORDO
100
AcDbLine
 62
250
  6
CONTINUOUS
 10
7.084732762
 20
-17.378403581
 11
6.7202441037
 21
-17.5888547642
  0
LINE
  5
365
100
AcDbEntity
  8
ASSI
100
AcDbLine
 62
250
  6
CONTINUOUS
 10
7.084732762
 20
-17.378403581
 11
6.7202441037
 21
-17.5888547642
  0
LINE
  5
366
100
AcDbEntity
  8
RACCORDO
100
AcDbLine
 62
7
  6
CONTINUOUS
 10
8.0746822556
 20
-15.367586814
 11
6.9433114057
 21
-15.9994276345
  0
LINE
  5
367
100
AcDbEntity
  8
0
100
AcDbLine
 62
7
  6
CONTINUOUS
 10
6.366811867
 20
16.8253026157
 11
-8.5315129884
 21
25.4274086673
  0
LINE
  5
368
100
AcDbEntity
  8
ASSI
100
AcDbLine
 62
7
  6
CONTINUOUS
 10
6.366811867
 20
16.8253026157
 11
-8.5315129884
 21
25.4274086673
  0
LINE
  5
369
100
AcDbEntity
  8
RACCORDO
100
AcDbLine
 62
7
  6
CONTINUOUS
 10
6.848140457
 20
17.0267847249
 11
-8.0228920848
 21
25.6131325367
  0
LINE
  5
36A
100
AcDbEntity
  8
ASSI
100
AcDbLine
 62
7
  6
CONTINUOUS
 10
6.848140457
 20
17.0267847249
 11
-8.0228920848
 21
25.6131325367
  0
LINE
  5
36B
100
AcDbEntity
  8
RACCORDO
100
AcDbLine
 62
250
  6
CONTINUOUS
 10
7.1657213758
 20
-25.6069609106
 11
6.7202441037
 21
-25.9242190533
  0
LINE
  5
36C
100
AcDbEntity
  8
ASSI
100
AcDbLine
 62
250
  6
CONTINUOUS
 10
7.1657213758
 20
-25.6069609106
 11
6.7202441037
 21
-25.9242190533
  0
LINE
  5
36D
100
AcDbEntity
  8
RACCORDO
100
AcDbLine
 62
7
  6
CONTINUOUS
 10
7.0844029225
 20
-25.8060106268
 11
6.7068767627
 21
-26.0748756302
  0
LINE
  5
36E
100
AcDbEntity
  8
ASSI
100
AcDbLine
 62
7
  6
CONTINUOUS
 10
7.0844029225
 20
-25.8060106268
 11
6.7068767627
 21
-26.0748756302
  0
LINE
  5
36F
100
AcDbEntity
  8
0
100
AcDbLine
 62
250
  6
CONTINUOUS
 10
6.1302483864
 20
-26.2792867095
 11
6.7202441037
 21
-25.9733999633
  0
LINE
  5
370
100
AcDbEntity
  8
ASSI
100
AcDbLine
 62
250
  6
CONTINUOUS
 10
6.1302483864
 20
-26.2792867095
 11
6.7202441037
 21
-25.9733999633
  0
LINE
  5
371
100
AcDbEntity
  8
COPY_PUBLISH
100
AcDbLine
 62
7
  6
CONTINUOUS
 10
6.0162077659
 20
-26.5137643024
 11
6.6101282163
 21
-26.2058427553
  0
LINE
  5
372
100
AcDbEntity
  8
ASSI
100
AcDbLine
 62
7
  6
CONTINUOUS
 10
6.0162077659
 20
-26.5137643024
 11
6.6101282163
 21
-26.2058427553
  0
LWPOLYLINE
  5
373
100
AcDbEntity
  8
COPY_PUBLISH
100
AcDbPolyline
 62
250
  6
CONTINUOUS
 90
16
 70
0
 10
6.1302483864
 20
-26.2792867095
 10
6.0910214135
 20
-26.2986590778
 10
6.048544445
 20
-26.3155930458
 10
6.0032702215
 20
-26.3299081575
 10
5.9556758278
 20
-26.3414530077
 10
5.9062735853
 20
-26.3501027937
 10
5.8556073856
 20
-26.3557639373
 10
5.8042291072
 20
-26.3583789726
 10
5.7526751471
 20
-26.3579247337
 10
5.7014779222
 20
-26.3544076218
 10
5.6511128844
 20
-26.3478541798
 10
5.6021882722
 20
-26.3383373191
 10
5.5554017304
 20
-26.3260117067
 10
5.5112779645
 20
-26.3110610927
 10
5.4701863666
 20
-26.2936584507
 10
5.4325177079
 20
-26.2740129708
  0
LWPOLYLINE
  5
374
100
AcDbEntity
  8
ASSI
100
AcDbPolyline
 62
250
  6
CONTINUOUS
 90
16
 70
0
 10
6.1302483864
 20
-26.2792867095
 10
6.0910214135
 20
-26.2986590778
 10
6.048544445
 20
-26.3155930458
 10
6.0032702215
 20
-26.3299081575
 10
5.9556758278
 20
-26.3414530077
 10
5.9062735853
 20
-26.3501027937
 10
5.8556073856
 20
-26.3557639373
 10
5.8042291072
 20
-26.3583789726
 10
5.7526751471
 20
-26.3579247337
 10
5.7014779222
 20
-26.3544076218
 10
5.6511128844
 20
-26.3478541798
 10
5.6021882722
 20
-26.3383373191
 10
5.5554017304
 20
-26.3260117067
 10
5.5112779645
 20
-26.3110610927
 10
5.4701863666
 20
-26.2936584507
 10
5.4325177079
 20
-26.2740129708
  0
ARC
  5
375
100
AcDbEntity
  8
COPY_PUBLISH
100
AcDbCircle
 62
7
  6
CONTINUOUS
 10
5.7860710985
 20
-26.0698756742
 40
0.5
100
AcDbArc
 50
239.9984015654
 51
297.4194204711
  0
ARC
  5
376
100
AcDbEntity
  8
COPY_PUBLISH
100
AcDbCircle
 62
7
  6
CONTINUOUS
 10
-9.0821430698
 20
-17.4851551559
 40
0.5
100
AcDbArc
 50
179.9840060021
 51
239.998401565
  0
ARC
  5
377
100
AcDbEntity
  8
COPY_PUBLISH
100
AcDbCircle
 62
7
  6
CONTINUOUS
 10
-9.0821430698
 20
24.6666171264
 40
0.5
100
AcDbArc
 50
122.5992954234
 51
180.0013071251
  0
ARC
  5
378
100
AcDbEntity
  8
ASSI
100
AcDbCircle
 62
7
  6
CONTINUOUS
 10
5.7860710985
 20
-26.0698756742
 40
0.5
100
AcDbArc
 50
239.9984015654
 51
297.4194204711
  0
ARC
  5
379
100
AcDbEntity
  8
ASSI
100
AcDbCircle
 62
7
  6
CONTINUOUS
 10
-9.0821430698
 20
-17.4851551559
 40
0.5
100
AcDbArc
 50
179.9840060021
 51
239.998401565
  0
ARC
  5
37A
100
AcDbEntity
  8
ASSI
100
AcDbCircle
 62
7
  6
CONTINUOUS
 10
-9.0821430698
 20
24.6666171264
 40
0.5
100
AcDbArc
 50
122.5992954233
 51
180.0013071257
  0
ELLIPSE
  5
37B
100
AcDbEntity
  8
RACCORDO
100
AcDbEllipse
 62
7
  6
CONTINUOUS
 10
-8.0221658762
 20
25.2438981557
 30
0.0
 11
-0.2245667503
 21
0.3916366537
 31
0.0
 40
0.576009292
 41
-0.7808516838
 42
-0.0566951759
  0
ELLIPSE
  5
37C
100
AcDbEntity
  8
RACCORDO
100
AcDbEllipse
 62
7
  6
CONTINUOUS
 10
6.8474142484
 20
-25.4223329235
 30
0.0
 11
-0.2245667503
 21
0.3916366537
 31
0.0
 40
0.576009292
 41
-3.0848974781
 42
-2.3539294839
  0
ELLIPSE
  5
37D
100
AcDbEntity
  8
RACCORDO
100
AcDbEllipse
 62
7
  6
CONTINUOUS
 10
6.8474142484
 20
16.6583889514
 30
0.0
 11
-0.224044438
 21
0.3907502414
 31
0.0
 40
0.5786435377
 41
-2.35161679
 42
-0.7831019366
  0
ELLIPSE
  5
37E
100
AcDbEntity
  8
RACCORDO
100
AcDbEllipse
 62
7
  6
CONTINUOUS
 10
6.3665695176
 20
16.4170674668
 30
0.0
 11
-0.2500121049
 21
0.4330057129
 31
0.0
 40
0.5777274115
 41
-2.3559002616
 42
-0.7857891675
  0
ELLIPSE
  5
37F
100
AcDbEntity
  8
RACCORDO
100
AcDbEllipse
 62
7
  6
CONTINUOUS
 10
-8.5312706391
 20
25.0188936595
 30
0.0
 11
-0.2501834304
 21
0.4333025529
 31
0.0
 40
0.5769361983
 41
5.4980815048
 42
6.3093462599
  0
ELLIPSE
  5
380
100
AcDbEntity
  8
RACCORDO
100
AcDbEllipse
 62
7
  6
CONTINUOUS
 10
6.3665695176
 20
-25.768912858
 30
0.0
 11
-0.2501834304
 21
0.4333025529
 31
0.0
 40
0.5769361983
 41
3.1154316834
 42
3.9265999453
  0
ELLIPSE
  5
381
100
AcDbEntity
  8
RACCORDO
100
AcDbEllipse
 62
7
  6
CONTINUOUS
 10
7.2690099566
 20
-6.2386192259
 30
0.0
 11
0.0721267462
 21
0.1315494275
 31
0.0
 40
0.5620258809
 41
0.9475571809
 42
2.3438205825
  0
ELLIPSE
  5
382
100
AcDbEntity
  8
RACCORDO
100
AcDbEllipse
 62
7
  6
CONTINUOUS
 10
8.1986071835
 20
-4.9397691944
 30
0.0
 11
0.2404224873
 21
0.4384980918
 31
0.0
 40
0.5620258809
 41
-2.1940354727
 42
-0.7977720711
  0
ELLIPSE
  5
383
100
AcDbEntity
  8
RACCORDO
100
AcDbEllipse
 62
7
  6
CONTINUOUS
 10
7.2690099566
 20
-2.7672081463
 30
0.0
 11
0.0721267462
 21
0.1315494275
 31
0.0
 40
0.5620258809
 41
2.3438205825
 42
3.7400839841
  0
ELLIPSE
  5
384
100
AcDbEntity
  8
RACCORDO
100
AcDbEllipse
 62
7
  6
CONTINUOUS
 10
8.1986071835
 20
-2.9348509504
 30
0.0
 11
0.2404224873
 21
0.4384980918
 31
0.0
 40
0.5620258809
 41
5.4854132361
 42
6.8816766377
  0
ELLIPSE
  5
385
100
AcDbEntity
  8
ASSI
100
AcDbEllipse
 62
7
  6
CONTINUOUS
 10
6.8474142484
 20
-25.4223329235
 30
0.0
 11
-0.2245667503
 21
0.3916366537
 31
0.0
 40
0.576009292
 41
-3.0848974781
 42
-2.3539294839
  0
ELLIPSE
  5
386
100
AcDbEntity
  8
ASSI
100
AcDbEllipse
 62
7
  6
CONTINUOUS
 10
6.8474142484
 20
16.6583889514
 30
0.0
 11
-0.224044438
 21
0.3907502414
 31
0.0
 40
0.5786435377
 41
-2.35161679
 42
-0.7831019366
  0
ELLIPSE
  5
387
100
AcDbEntity
  8
ASSI
100
AcDbEllipse
 62
7
  6
CONTINUOUS
 10
6.3665695176
 20
16.4170674668
 30
0.0
 11
-0.2500121049
 21
0.4330057129
 31
0.0
 40
0.5777274115
 41
-2.3559002616
 42
-0.7857891675
  0
ELLIPSE
  5
388
100
AcDbEntity
  8
ASSI
100
AcDbEllipse
 62
7
  6
CONTINUOUS
 10
-8.5312706391
 20
25.0188936595
 30
0.0
 11
-0.2501834304
 21
0.4333025529
 31
0.0
 40
0.5769361983
 41
5.4980815048
 42
6.3093462599
  0
ELLIPSE
  5
389
100
AcDbEntity
  8
ASSI
100
AcDbEllipse
 62
7
  6
CONTINUOUS
 10
-8.0221658762
 20
25.2438981557
 30
0.0
 11
-0.2245667503
 21
0.3916366537
 31
0.0
 40
0.576009292
 41
-0.7808516838
 42
-0.0566951759
  0
ELLIPSE
  5
38A
100
AcDbEntity
  8
ASSI
100
AcDbEllipse
 62
7
  6
CONTINUOUS
 10
8.1986071835
 20
-4.9397691944
 30
0.0
 11
0.2404224873
 21
0.4384980918
 31
0.0
 40
0.5620258809
 41
-2.1940354727
 42
-0.7977720711
  0
ELLIPSE
  5
38B
100
AcDbEntity
  8
ASSI
100
AcDbEllipse
 62
7
  6
CONTINUOUS
 10
6.3665695176
 20
-25.768912858
 30
0.0
 11
-0.2501834304
 21
0.4333025529
 31
0.0
 40
0.5769361983
 41
3.1154316834
 42
3.9265999453
  0
ELLIPSE
  5
38C
100
AcDbEntity
  8
ASSI
100
AcDbEllipse
 62
7
  6
CONTINUOUS
 10
7.2690099566
 20
-6.2386192259
 30
0.0
 11
0.0721267462
 21
0.1315494275
 31
0.0
 40
0.5620258809
 41
0.9475571809
 42
2.3438205825
  0
ELLIPSE
  5
38D
100
AcDbEntity
  8
ASSI
100
AcDbEllipse
 62
7
  6
CONTINUOUS
 10
7.2690099566
 20
-2.7672081463
 30
0.0
 11
0.0721267462
 21
0.1315494275
 31
0.0
 40
0.5620258809
 41
2.3438205825
 42
3.7400839841
  0
ELLIPSE
  5
38E
100
AcDbEntity
  8
ASSI
100
AcDbEllipse
 62
7
  6
CONTINUOUS
 10
8.1986071835
 20
-2.9348509504
 30
0.0
 11
0.2404224873
 21
0.4384980918
 31
0.0
 40
0.5620258809
 41
5.4854132361
 42
6.8816766377
  0
ENDSEC
  0
SECTION
  2
OBJECTS
  0
DICTIONARY
  5
C
100
AcDbDictionary
280
0
281
1
  3
ACAD_GROUP
350
D
  3
ACAD_MLINESTYLE
350
17
  3
ACAD_LAYOUT
350
1A
  3
ACAD_PLOTSETTINGS
350
19
  3
ACAD_PLOTSTYLENAME
350
E
  0
DICTIONARY
  5
D
102
{ACAD_REACTORS
330
C
102
}
100
AcDbDictionary
280
0
281
1
  0
ACDBDICTIONARYWDFLT
  5
E
102
{ACAD_REACTORS
330
C
102
}
100
AcDbDictionary
281
1
  3
Normal
350
F
100
AcDbDictionaryWithDefault
340
F
  0
DICTIONARY
  5
17
102
{ACAD_REACTORS
330
C
102
}
100
AcDbDictionary
280
0
281
1
  3
Standard
350
18
  0
DICTIONARY
  5
19
102
{ACAD_REACTORS
330
C
102
}
100
AcDbDictionary
281
1
  0
DICTIONARY
  5
1A
102
{ACAD_REACTORS
330
C
102
}
100
AcDbDictionary
281
1
  3
Model
350
38F
  3
Layout1
350
390
  0
ACDBPLACEHOLDER
  5
F
102
{ACAD_REACTORS
330
E
102
}
  0
MLINESTYLE
  5
18
102
{ACAD_REACTORS
330
17
102
}
100
AcDbMlineStyle
  2
STANDARD
 70
0
  3

 62
256
 51
90.0
 52
90.0
 71
2
 49
0.5
 62
256
  6
BYLAYER
 49
-0.5
 62
256
  6
BYLAYER
  0
LAYOUT
  5
38F
102
{ACAD_REACTORS
330
1A
102
}
100
AcDbPlotSettings
  1

  2
none_device
  4
ISO_A4_(297.00_x_210.00_MM)
  6

 40
0.0
 41
0.0
 42
0.0
 43
0.0
 44
297.0
 45
210.0
 46
0.0
 47
0.0
 48
0.0
 49
0.0
140
0.0
141
0.0
142
1.0
143
1.0
 70
1024
 72
1
 73
0
 74
0
  7

 75
0
147
1.0
148
0.0
149
0.0
100
AcDbLayout
  1
Model
 70
0
 71
0
 10
0.0
 20
0.0
 11
297.0
 21
210.0
 12
0.0
 22
0.0
 32
0.0
 14
0.0
 24
0.0
 34
0.0
 15
0.0
 25
0.0
 35
0.0
146
0.0
 13
0.0
 23
0.0
 33
0.0
 16
1.0
 26
0.0
 36
0.0
 17
0.0
 27
1.0
 37
0.0
 76
0
330
21A
345
0
346
0
  0
LAYOUT
  5
390
102
{ACAD_REACTORS
330
1A
102
}
100
AcDbPlotSettings
  1

  2
none_device
  4
ISO_A4_(297.00_x_210.00_MM)
  6

 40
0.0
 41
0.0
 42
0.0
 43
0.0
 44
297.0
 45
210.0
 46
0.0
 47
0.0
 48
0.0
 49
0.0
140
0.0
141
0.0
142
1.0
143
1.0
 70
0
 72
1
 73
0
 74
0
  7

 75
0
147
1.0
148
0.0
149
0.0
100
AcDbLayout
  1
Layout1
 70
0
 71
1
 10
0.0
 20
0.0
 11
297.0
 21
210.0
 12
0.0
 22
0.0
 32
0.0
 14
0.0
 24
0.0
 34
0.0
 15
0.0
 25
0.0
 35
0.0
146
0.0
 13
0.0
 23
0.0
 33
0.0
 16
1.0
 26
0.0
 36
0.0
 17
0.0
 27
1.0
 37
0.0
 76
0
330
21B
345
0
346
0
  0
ENDSEC
  0
EOF
