  0
SECTION
  2
HEADER
  9
$ACADVER
  1
AC1024
  9
$DWGCODEPAGE
  3
ANSI_1252
  9
$EXTMAX
 10
297.0
 20
210.0
 30
0.0
  9
$EXTMIN
 10
0.0
 20
0.0
 30
0.0
  9
$LIMMIN
 10
0.0
 20
0.0
  9
$LIMMAX
 10
297.0
 20
210.0
  9
$VIEWCTR
 10
148.5
 20
105.0
  9
$VIEWSIZE
 40
210.0
  9
$CLAYER
  8
0
  9
$LTSCALE
 40
16.335
  9
$CELTYPE
  6
BYLAYER
  9
$DIMSCALE
 40
1.0
  9
$DIMASZ
 40
3.0
  9
$DIMEXO
 40
0.5
  9
$DIMDLI
 40
11.286
  9
$DIMEXE
 40
1.5
  9
$DIMCEN
 40
2.673
  9
$DIMLFAC
 40
1.0
  9
$DIMBLK
  1
_FILLED
  9
$DIMALT
 70
0
  9
$DIMALTF
 40
0.0393700787
  9
$DIMTXT
 40
3.0
  9
$DIMTOL
 70
1
  9
$DIMLIM
 70
0
  9
$DIMTFAC
 40
1.0
  9
$DIMTP
 40
0.01
  9
$DIMTM
 40
0.01
  9
$DIMGAP
 40
0.625
  9
$DIMDSEP
 70
44
  9
$AUNITS
 70
0
  9
$PDMODE
 70
3
  9
$PDSIZE
 40
3.0
  9
$HANDSEED
  5
382
  9
$TILEMODE
 70
1
  9
$MEASUREMENT
 70
1
  9
$INSUNITS
 70
4
  0
ENDSEC
  0
SECTION
  2
CLASSES
  0
CLASS
  1
ACDBDICTIONARYWDFLT
  2
AcDbDictionaryWithDefault
  3
AutoCAD 2000
 90
0
 91
1
280
0
281
0
  0
CLASS
  1
ACDBPLACEHOLDER
  2
AcDbPlaceHolder
  3
AutoCAD 2000
 90
0
 91
1
280
0
281
0
  0
CLASS
  1
LAYOUT
  2
AcDbLayout
  3
AutoCAD 2000
 90
0
 91
0
280
0
281
0
  0
ENDSEC
  0
SECTION
  2
TABLES
  0
TABLE
  2
VPORT
  5
8
100
AcDbSymbolTable
 70
2
  0
VPORT
  5
1F4
100
AcDbSymbolTableRecord
100
AcDbViewportTableRecord
  2
*ACTIVE
 70
0
 10
0.0
 20
0.0
 11
1.0
 21
1.0
 12
148.5
 22
105.0
 13
0.0
 23
0.0
 14
1.0
 24
1.0
 15
0.0
 25
0.0
 16
0.0
 26
0.0
 36
1.0
 17
0.0
 27
0.0
 37
0.0
 40
210.0
 41
1.4142857143
 42
50.0
 43
0.0
 44
0.0
 50
0.0
 51
0.0
 71
0
 72
100
 73
1
 74
1
 75
0
 76
0
 77
0
 78
0
  0
ENDTAB
  0
TABLE
  2
LTYPE
  5
5
100
AcDbSymbolTable
 70
6
  0
LTYPE
  5
14
100
AcDbSymbolTableRecord
100
AcDbLinetypeTableRecord
  2
BYBLOCK
 70
0
  3

 72
65
 73
0
 40
0.0
  0
LTYPE
  5
15
100
AcDbSymbolTableRecord
100
AcDbLinetypeTableRecord
  2
BYLAYER
 70
0
  3

 72
65
 73
0
 40
0.0
  0
LTYPE
  5
16
100
AcDbSymbolTableRecord
100
AcDbLinetypeTableRecord
  2
CONTINUOUS
 70
64
  3
Solid line
 72
65
 73
0
 40
0.0
  0
LTYPE
  5
1F5
100
AcDbSymbolTableRecord
100
AcDbLinetypeTableRecord
  2
CENTER
 70
64
  3
____ _ ____ _ ____ _ ____ _ ____ _ ____ _ ____
 72
65
 73
4
 40
0.6
 49
0.375
 74
0
 49
-0.075
 74
0
 49
0.075
 74
0
 49
-0.075
 74
0
  0
LTYPE
  5
1F6
100
AcDbSymbolTableRecord
100
AcDbLinetypeTableRecord
  2
HIDDEN
 70
64
  3
- - - - - - - - - - - - - - - - - - - -
 72
65
 73
2
 40
0.2
 49
0.1
 74
0
 49
-0.1
 74
0
  0
LTYPE
  5
1F7
100
AcDbSymbolTableRecord
100
AcDbLinetypeTableRecord
  2
PHANTOM
 70
64
  3
_____ _ _ _____ _ _ _____ _ _ _____
 72
65
 73
6
 40
0.8
 49
0.45
 74
0
 49
-0.05
 74
0
 49
0.1
 74
0
 49
-0.05
 74
0
 49
0.1
 74
0
 49
-0.05
 74
0
  0
LTYPE
  5
1F8
100
AcDbSymbolTableRecord
100
AcDbLinetypeTableRecord
  2
DOT
 70
64
  3
. . . . . . . . . . . . . . . . . . . .
 72
65
 73
2
 40
0.2
 49
0.1
 74
0
 49
-0.1
 74
0
  0
LTYPE
  5
1F9
100
AcDbSymbolTableRecord
100
AcDbLinetypeTableRecord
  2
DASHED
 70
64
  3
- - - - - - - - - - - - - - - - - - - -
 72
65
 73
2
 40
0.2
 49
0.1
 74
0
 49
-0.1
 74
0
  0
ENDTAB
  0
TABLE
  2
LAYER
  5
2
100
AcDbSymbolTable
 70
36
  0
LAYER
  5
10
100
AcDbSymbolTableRecord
100
AcDbLayerTableRecord
  2
0
 70
0
 62
7
  6
CONTINUOUS
370
-3
390
F
  0
LAYER
  5
1FA
100
AcDbSymbolTableRecord
100
AcDbLayerTableRecord
  2
DEFAULT_1
 70
0
 62
7
  6
CENTER
370
-3
390
F
  0
LAYER
  5
1FB
100
AcDbSymbolTableRecord
100
AcDbLayerTableRecord
  2
DEFAULT_2
 70
0
 62
7
  6
HIDDEN
370
-3
390
F
  0
LAYER
  5
1FC
100
AcDbSymbolTableRecord
100
AcDbLayerTableRecord
  2
DEFAULT_3
 70
0
 62
7
  6
PHANTOM
370
-3
390
F
  0
LAYER
  5
1FD
100
AcDbSymbolTableRecord
100
AcDbLayerTableRecord
  2
ASSI
 70
0
 62
7
  6
CONTINUOUS
370
-3
390
F
  0
LAYER
  5
1FE
100
AcDbSymbolTableRecord
100
AcDbLayerTableRecord
  2
COORDINATE
 70
0
 62
7
  6
CONTINUOUS
370
-3
390
F
  0
LAYER
  5
1FF
100
AcDbSymbolTableRecord
100
AcDbLayerTableRecord
  2
COPY_PUBLISH
 70
0
 62
7
  6
CONTINUOUS
370
-3
390
F
  0
LAYER
  5
200
100
AcDbSymbolTableRecord
100
AcDbLayerTableRecord
  2
COSMETICI
 70
0
 62
7
  6
CONTINUOUS
370
-3
390
F
  0
LAYER
  5
201
100
AcDbSymbolTableRecord
100
AcDbLayerTableRecord
  2
CURVE
 70
0
 62
7
  6
CONTINUOUS
370
-3
390
F
  0
LAYER
  5
202
100
AcDbSymbolTableRecord
100
AcDbLayerTableRecord
  2
DRAFT
 70
0
 62
7
  6
CONTINUOUS
370
-3
390
F
  0
LAYER
  5
203
100
AcDbSymbolTableRecord
100
AcDbLayerTableRecord
  2
IMPORT_IGES
 70
0
 62
7
  6
CONTINUOUS
370
-3
390
F
  0
LAYER
  5
204
100
AcDbSymbolTableRecord
100
AcDbLayerTableRecord
  2
INTF_2
 70
0
 62
7
  6
CONTINUOUS
370
-3
390
F
  0
LAYER
  5
205
100
AcDbSymbolTableRecord
100
AcDbLayerTableRecord
  2
INTF_3
 70
0
 62
7
  6
CONTINUOUS
370
-3
390
F
  0
LAYER
  5
206
100
AcDbSymbolTableRecord
100
AcDbLayerTableRecord
  2
INTF_4
 70
0
 62
7
  6
CONTINUOUS
370
-3
390
F
  0
LAYER
  5
207
100
AcDbSymbolTableRecord
100
AcDbLayerTableRecord
  2
INTF_5
 70
0
 62
7
  6
CONTINUOUS
370
-3
390
F
  0
LAYER
  5
208
100
AcDbSymbolTableRecord
100
AcDbLayerTableRecord
  2
INTF_6
 70
0
 62
7
  6
CONTINUOUS
370
-3
390
F
  0
LAYER
  5
209
100
AcDbSymbolTableRecord
100
AcDbLayerTableRecord
  2
INTF_7
 70
0
 62
7
  6
CONTINUOUS
370
-3
390
F
  0
LAYER
  5
20A
100
AcDbSymbolTableRecord
100
AcDbLayerTableRecord
  2
INTF_9
 70
0
 62
7
  6
CONTINUOUS
370
-3
390
F
  0
LAYER
  5
20B
100
AcDbSymbolTableRecord
100
AcDbLayerTableRecord
  2
INTF_BLANK
 70
0
 62
7
  6
CONTINUOUS
370
-3
390
F
  0
LAYER
  5
20C
100
AcDbSymbolTableRecord
100
AcDbLayerTableRecord
  2
INTF_RED
 70
0
 62
7
  6
CONTINUOUS
370
-3
390
F
  0
LAYER
  5
20D
100
AcDbSymbolTableRecord
100
AcDbLayerTableRecord
  2
NOTE
 70
0
 62
7
  6
CONTINUOUS
370
-3
390
F
  0
LAYER
  5
20E
100
AcDbSymbolTableRecord
100
AcDbLayerTableRecord
  2
PIANI
 70
0
 62
7
  6
CONTINUOUS
370
-3
390
F
  0
LAYER
  5
20F
100
AcDbSymbolTableRecord
100
AcDbLayerTableRecord
  2
PUNTI
 70
0
 62
7
  6
CONTINUOUS
370
-3
390
F
  0
LAYER
  5
210
100
AcDbSymbolTableRecord
100
AcDbLayerTableRecord
  2
RACCORDO
 70
0
 62
7
  6
CONTINUOUS
370
-3
390
F
  0
LAYER
  5
211
100
AcDbSymbolTableRecord
100
AcDbLayerTableRecord
  2
RGB____0____0____0__
 70
0
 62
7
  6
CONTINUOUS
370
-3
390
F
  0
LAYER
  5
212
100
AcDbSymbolTableRecord
100
AcDbLayerTableRecord
  2
SIMBOLI
 70
0
 62
7
  6
CONTINUOUS
370
-3
390
F
  0
LAYER
  5
213
100
AcDbSymbolTableRecord
100
AcDbLayerTableRecord
  2
SMUSSO
 70
0
 62
7
  6
CONTINUOUS
370
-3
390
F
  0
LAYER
  5
214
100
AcDbSymbolTableRecord
100
AcDbLayerTableRecord
  2
SNAPLINE
 70
0
 62
7
  6
CONTINUOUS
370
-3
390
F
  0
LAYER
  5
215
100
AcDbSymbolTableRecord
100
AcDbLayerTableRecord
  2
SUPERFICI
 70
0
 62
7
  6
CONTINUOUS
370
-3
390
F
  0
LAYER
  5
216
100
AcDbSymbolTableRecord
100
AcDbLayerTableRecord
  2
TRASH
 70
0
 62
7
  6
CONTINUOUS
370
-3
390
F
  0
ENDTAB
  0
TABLE
  2
STYLE
  5
3
100
AcDbSymbolTable
 70
1
  0
STYLE
  5
11
100
AcDbSymbolTableRecord
100
AcDbTextStyleTableRecord
  2
STANDARD
 70
0
 40
0.0
 41
0.8
 50
0.0
 71
0
 42
0.2
  3
txt
  4

  0
STYLE
  5
217
100
AcDbSymbolTableRecord
100
AcDbTextStyleTableRecord
  2
TEXTSTYLE_1
 70
0
 40
0.0
 41
0.8
 50
0.0
 71
0
 42
0.2
  3
gdt
  4

  0
ENDTAB
  0
TABLE
  2
VIEW
  5
6
100
AcDbSymbolTable
 70
0
  0
ENDTAB
  0
TABLE
  2
UCS
  5
7
100
AcDbSymbolTable
 70
0
  0
ENDTAB
  0
TABLE
  2
APPID
  5
9
100
AcDbSymbolTable
 70
1
  0
APPID
  5
218
100
AcDbSymbolTableRecord
100
AcDbRegAppTableRecord
  2
ACAD
 70
0
  0
ENDTAB
  0
TABLE
  2
BLOCK_RECORD
  5
1
100
AcDbSymbolTable
 70
0
  0
BLOCK_RECORD
  5
219
100
AcDbSymbolTableRecord
100
AcDbBlockTableRecord
  2
*Model_Space
  0
BLOCK_RECORD
  5
21A
100
AcDbSymbolTableRecord
100
AcDbBlockTableRecord
  2
*Paper_Space
  0
BLOCK_RECORD
  5
21B
100
AcDbSymbolTableRecord
100
AcDbBlockTableRecord
  2
_FILLED
  0
ENDTAB
  0
TABLE
  2
DIMSTYLE
  5
A
100
AcDbSymbolTable
 70
1
100
AcDbDimStyleTable
 71
0
  0
DIMSTYLE
105
21C
100
AcDbSymbolTableRecord
100
AcDbDimStyleTableRecord
  2
STANDARD
 70
0
  3

  4

 40
1.0
 41
3.0
 42
0.5
 43
0.38
 44
1.5
 45
0.0
 46
0.0
 47
0.01
 48
0.01
140
3.0
141
0.09
142
0.0
143
25.4
144
1.0
145
0.0
146
1.0
147
0.625
 71
1
 72
0
 73
0
 74
0
 75
0
 76
0
 77
1
 78
8
 79
2
170
0
171
1
172
0
173
0
174
0
175
0
176
0
177
0
178
0
270
2
179
2
271
2
272
2
273
2
274
2
275
0
280
0
281
0
282
0
283
1
284
8
285
0
286
0
287
3
288
0
340
11
278
44
341
21B
342
21B
343
21B
344
21B
  0
ENDTAB
  0
ENDSEC
  0
SECTION
  2
BLOCKS
  0
BLOCK
  5
20
100
AcDbEntity
  8
0
100
AcDbBlockBegin
  2
*Model_Space
 70
0
 10
0.0
 20
0.0
 30
0.0
  3
*Model_Space
  1

  0
ENDBLK
  5
21
100
AcDbEntity
  8
0
100
AcDbBlockEnd
  0
BLOCK
  5
1C
100
AcDbEntity
  8
0
100
AcDbBlockBegin
  2
*Paper_Space
 70
0
 10
0.0
 20
0.0
 30
0.0
  3
*Paper_Space
  1

  0
ENDBLK
  5
1D
100
AcDbEntity
  8
0
100
AcDbBlockEnd
  0
BLOCK
  5
21D
100
AcDbEntity
  8
0
100
AcDbBlockBegin
  2
_FILLED
 70
64
 10
0.0
 20
0.0
  3
_FILLED
  1

  0
SOLID
  5
21E
100
AcDbEntity
  8
0
  6
BYBLOCK
 62
0
100
AcDbTrace
 10
0.0
 20
0.0
 11
-1.0
 21
0.3166666667
 12
-1.0
 22
-0.3166666667
 13
-1.0
 23
-0.3166666667
  0
ENDBLK
  5
21F
100
AcDbEntity
  8
0
  6
BYBLOCK
 62
0
100
AcDbBlockEnd
  0
ENDSEC
  0
SECTION
  2
ENTITIES
  0
LINE
  5
220
100
AcDbEntity
  8
COPY_PUBLISH
100
AcDbLine
 62
7
  6
CONTINUOUS
 10
-9.3515170199
 20
25.0878506424
 11
-8.7879075893
 21
25.4482723393
  0
LWPOLYLINE
  5
221
100
AcDbEntity
  8
COPY_PUBLISH
100
AcDbPolyline
 62
250
  6
CONTINUOUS
 90
9
 70
0
 10
-9.3515170199
 20
25.0878506424
 10
-9.3310150726
 20
25.0990236254
 10
-9.3020176473
 20
25.109302083
 10
-9.2705583671
 20
25.1147215879
 10
-9.2370231316
 20
25.1152043262
 10
-9.2019213288
 20
25.1107717861
 10
-9.1657023214
 20
25.1015446201
 10
-9.1287261726
 20
25.0876759083
 10
-9.0913980187
 20
25.0693686813
  0
LINE
  5
222
100
AcDbEntity
  8
RACCORDO
100
AcDbLine
 62
7
  6
CONTINUOUS
 10
-8.2335890689
 20
25.6422352556
 11
-8.6250358839
 21
25.4662884874
  0
LINE
  5
223
100
AcDbEntity
  8
RACCORDO
100
AcDbLine
 62
250
  6
CONTINUOUS
 10
-8.0228920848
 20
25.6131325367
 11
-8.4897450234
 21
25.4032923678
  0
LINE
  5
224
100
AcDbEntity
  8
0
100
AcDbLine
 62
250
  6
CONTINUOUS
 10
-9.0913980187
 20
25.0693686813
 11
-8.5315129884
 21
25.4274086673
  0
LINE
  5
225
100
AcDbEntity
  8
COPY_PUBLISH
100
AcDbLine
 62
7
  6
CONTINUOUS
 10
-9.3321551499
 20
-17.9181608831
 11
5.5360590184
 21
-26.5028814014
  0
LINE
  5
226
100
AcDbEntity
  8
COPY_PUBLISH
100
AcDbLine
 62
250
  6
CONTINUOUS
 10
-9.4356964604
 20
-17.6892924525
 11
5.4325177079
 21
-26.2740129708
  0
LWPOLYLINE
  5
227
100
AcDbEntity
  8
COPY_PUBLISH
100
AcDbPolyline
 62
250
  6
CONTINUOUS
 90
9
 70
0
 10
-9.3321551499
 20
-17.9181608831
 10
-9.3477550522
 20
-17.9079520568
 10
-9.3703342664
 20
-17.8880360694
 10
-9.3898602777
 20
-17.8638518141
 10
-9.4061262204
 20
-17.8356555079
 10
-9.418959767
 20
-17.8037458728
 10
-9.4282249543
 20
-17.7684609714
 10
-9.4338236235
 20
-17.7301746248
 10
-9.4356964604
 20
-17.6892924525
  0
LWPOLYLINE
  5
228
100
AcDbEntity
  8
RACCORDO
100
AcDbPolyline
 62
250
  6
CONTINUOUS
 90
8
 70
0
 10
8.2867970935
 20
-12.435236738
 10
8.3178082864
 20
-12.4275670697
 10
8.3477731327
 20
-12.4234880192
 10
8.3763640344
 20
-12.4229897357
 10
8.4034338821
 20
-12.4259785446
 10
8.4289694485
 20
-12.4324079934
 10
8.4527781298
 20
-12.4422913538
 10
8.4604847802
 20
-12.4464627611
  0
LINE
  5
229
100
AcDbEntity
  8
DRAFT
100
AcDbLine
 62
7
  6
CONTINUOUS
 10
8.6323597915
 20
-15.4415131534
 11
8.0746822556
 21
-15.367586814
  0
LINE
  5
22A
100
AcDbEntity
  8
0
100
AcDbLine
 62
250
  6
CONTINUOUS
 10
6.366811867
 20
16.8253026157
 11
5.7768161497
 21
16.484648163
  0
LINE
  5
22B
100
AcDbEntity
  8
RACCORDO
100
AcDbLine
 62
250
  6
CONTINUOUS
 10
6.848140457
 20
17.0267847249
 11
6.4029611898
 21
16.80210139
  0
LINE
  5
22C
100
AcDbEntity
  8
RACCORDO
100
AcDbLine
 62
250
  6
CONTINUOUS
 10
7.1657213758
 20
16.4754438463
 11
6.7185134404
 21
16.2497366364
  0
LWPOLYLINE
  5
22D
100
AcDbEntity
  8
COPY_PUBLISH
100
AcDbPolyline
 62
250
  6
CONTINUOUS
 90
16
 70
0
 10
6.1302483864
 20
15.8724855727
 10
6.09102414
 20
15.853114416
 10
6.048550163
 20
15.8361812727
 10
6.0032790783
 20
15.821866591
 10
5.9556876555
 20
15.8103217371
 10
5.9062882916
 20
15.8016715916
 10
5.8556254091
 20
15.7960098066
 10
5.8042518192
 20
15.7933937865
 10
5.7527028114
 20
15.7938464797
 10
5.7015082977
 20
15.7973616503
 10
5.6511431056
 20
15.8039132116
 10
5.6022162132
 20
15.8134285835
 10
5.5554250552
 20
15.8257535732
 10
5.5112946266
 20
15.840704861
 10
5.4701950335
 20
15.8581097531
 10
5.4325177079
 20
15.8777593114
  0
LINE
  5
22E
100
AcDbEntity
  8
DRAFT
100
AcDbLine
 62
7
  6
CONTINUOUS
 10
8.6323597915
 20
-13.0375071303
 11
8.0746822556
 21
-12.9388763227
  0
LINE
  5
22F
100
AcDbEntity
  8
RACCORDO
100
AcDbLine
 62
7
  6
CONTINUOUS
 10
7.1657213758
 20
-17.4251653916
 11
7.084732762
 21
-17.378403581
  0
LWPOLYLINE
  5
230
100
AcDbEntity
  8
COPY_PUBLISH
100
AcDbPolyline
 62
250
  6
CONTINUOUS
 90
9
 70
0
 10
-9.5821430698
 20
-17.4851551559
 10
-9.5810283847
 20
-17.5044215866
 10
-9.574940323
 20
-17.5339806572
 10
-9.5635934169
 20
-17.5630608879
 10
-9.5471133712
 20
-17.5913106624
 10
-9.5257672382
 20
-17.6183272906
 10
-9.4998725164
 20
-17.643807647
 10
-9.4697283012
 20
-17.6675380369
 10
-9.4356964604
 20
-17.6892924525
  0
LINE
  5
231
100
AcDbEntity
  8
COPY_PUBLISH
100
AcDbLine
 62
7
  6
CONTINUOUS
 10
-9.5821430698
 20
-17.4851551559
 11
-9.5821430698
 21
24.6666171264
  0
LINE
  5
232
100
AcDbEntity
  8
COPY_PUBLISH
100
AcDbLine
 62
250
  6
CONTINUOUS
 10
-9.4356964604
 20
-17.6892924525
 11
-9.4356964604
 21
24.4624798297
  0
LWPOLYLINE
  5
233
100
AcDbEntity
  8
COPY_PUBLISH
100
AcDbPolyline
 62
250
  6
CONTINUOUS
 90
16
 70
0
 10
-9.4356964604
 20
24.4624798297
 10
-9.4338236235
 20
24.5055247071
 10
-9.4282249543
 20
24.5502762566
 10
-9.418959767
 20
24.596260364
 10
-9.4061262204
 20
24.642989857
 10
-9.3898602777
 20
24.6899696662
 10
-9.3703342664
 20
24.7367020699
 10
-9.3477550522
 20
24.7826919679
 10
-9.3223618476
 20
24.8274521265
 10
-9.2944236774
 20
24.8705083404
 10
-9.2642365285
 20
24.9114044564
 10
-9.2321202148
 20
24.9497072061
 10
-9.1984149884
 20
24.9850107958
 10
-9.1634779348
 20
25.0169412064
 10
-9.1276791899
 20
25.0451601556
 10
-9.0913980187
 20
25.0693686813
  0
LWPOLYLINE
  5
234
100
AcDbEntity
  8
COPY_PUBLISH
100
AcDbPolyline
 62
250
  6
CONTINUOUS
 90
16
 70
0
 10
5.7768161497
 20
16.484648163
 10
5.7405349785
 20
16.4604396372
 10
5.7047362336
 20
16.4322206881
 10
5.66979918
 20
16.4002902775
 10
5.6360939535
 20
16.3649866878
 10
5.6039776398
 20
16.3266839381
 10
5.573790491
 20
16.2857878221
 10
5.5458523207
 20
16.2427316081
 10
5.5204591161
 20
16.1979714496
 10
5.4978799019
 20
16.1519815516
 10
5.4783538906
 20
16.1052491479
 10
5.4620879479
 20
16.0582693387
 10
5.4492544013
 20
16.0115398457
 10
5.4399892141
 20
15.9655557383
 10
5.4343905448
 20
15.9208041887
 10
5.4325177079
 20
15.8777593114
  0
LINE
  5
235
100
AcDbEntity
  8
0
100
AcDbLine
 62
250
  6
CONTINUOUS
 10
6.7202441037
 20
16.2131400254
 11
6.1302483864
 21
15.8724855727
  0
LINE
  5
236
100
AcDbEntity
  8
RACCORDO
100
AcDbLine
 62
7
  6
CONTINUOUS
 10
7.8158247424
 20
13.2197099928
 11
7.1657213758
 21
13.0075016306
  0
LINE
  5
237
100
AcDbEntity
  8
RACCORDO
100
AcDbLine
 62
250
  6
CONTINUOUS
 10
7.9457537542
 20
13.1970079783
 11
7.1657213758
 21
12.942387864
  0
LWPOLYLINE
  5
238
100
AcDbEntity
  8
COPY_PUBLISH
100
AcDbPolyline
 62
250
  6
CONTINUOUS
 90
9
 70
0
 10
-9.5821430695
 20
24.6666057195
 10
-9.5810265336
 20
24.6473347226
 10
-9.5749351097
 20
24.6177740865
 10
-9.5635849463
 20
24.588693945
 10
-9.547102322
 20
24.560445487
 10
-9.5257551105
 20
24.5334315242
 10
-9.4998615558
 20
24.5079550148
 10
-9.4697212376
 20
24.4842292411
 10
-9.4356964604
 20
24.4624798297
  0
LINE
  5
239
100
AcDbEntity
  8
RACCORDO
100
AcDbLine
 62
7
  6
CONTINUOUS
 10
7.2795249851
 20
12.6255666144
 11
8.2583934296
 21
13.016493748
  0
LWPOLYLINE
  5
23A
100
AcDbEntity
  8
RACCORDO
100
AcDbPolyline
 62
7
  6
CONTINUOUS
 90
9
 70
0
 10
8.4604653459
 20
-12.4464674698
 10
8.4328342394
 20
-12.432597108
 10
8.397838421
 20
-12.4202246249
 10
8.3611805996
 20
-12.4125285954
 10
8.3233684178
 20
-12.4095185269
 10
8.2848186634
 20
-12.4111583577
 10
8.2457089241
 20
-12.4173984665
 10
8.2063395028
 20
-12.4282071678
 10
8.1995118466
 20
-12.4305468317
  0
LINE
  5
23B
100
AcDbEntity
  8
RACCORDO
100
AcDbLine
 62
7
  6
CONTINUOUS
 10
7.1657213758
 20
8.8411441739
 11
8.1995493845
 21
9.2059287712
  0
LINE
  5
23C
100
AcDbEntity
  8
RACCORDO
100
AcDbLine
 62
250
  6
CONTINUOUS
 10
8.2867970935
 20
9.201225597
 11
7.1657213758
 21
8.8056294955
  0
LWPOLYLINE
  5
23D
100
AcDbEntity
  8
RACCORDO
100
AcDbPolyline
 62
250
  6
CONTINUOUS
 90
7
 70
0
 10
8.1995493845
 20
9.2059287712
 10
8.2017257452
 20
9.2066222212
 10
8.2114552756
 20
9.2080790621
 10
8.2218277392
 20
9.2071069685
 10
8.2326676892
 20
9.2037223231
 10
8.2437917988
 20
9.1979823102
 10
8.2550119096
 20
9.1899839581
  0
LINE
  5
23E
100
AcDbEntity
  8
RACCORDO
100
AcDbLine
 62
250
  6
CONTINUOUS
 10
8.950557843
 20
-12.8480778817
 11
8.2550119096
 21
-12.4464783769
  0
LINE
  5
23F
100
AcDbEntity
  8
RACCORDO
100
AcDbLine
 62
7
  6
CONTINUOUS
 10
8.950557843
 20
-12.7294247126
 11
8.4606268768
 21
-12.446544713
  0
LWPOLYLINE
  5
240
100
AcDbEntity
  8
0
100
AcDbPolyline
 62
7
  6
CONTINUOUS
 90
6
 70
0
 10
-4.4184493213
 20
-1.2474151222
 10
-4.4176634404
 20
-1.2586289848
 10
-4.4157281397
 20
-1.2701243653
 10
-4.4126564563
 20
-1.2817148097
 10
-4.4084353531
 20
-1.2935867722
 10
-4.4030648301
 20
-1.3057402526
  0
LWPOLYLINE
  5
241
100
AcDbEntity
  8
0
100
AcDbPolyline
 62
7
  6
CONTINUOUS
 90
3
 70
0
 10
-3.5226852447
 20
-1.4847353369
 10
-3.5234711255
 20
-1.4735214744
 10
-3.5254023506
 20
-1.4620503023
  0
LWPOLYLINE
  5
242
100
AcDbEntity
  8
DRAFT
100
AcDbPolyline
 62
7
  6
CONTINUOUS
 90
6
 70
0
 10
-3.5226830396
 20
-1.484754007
 10
-3.5234634122
 20
-1.4735611516
 10
-3.5253956085
 20
-1.4620757446
 10
-3.5284684939
 20
-1.4504797835
 10
-3.532693203
 20
-1.4385912708
 10
-3.5380697359
 20
-1.4264102066
  0
LWPOLYLINE
  5
243
100
AcDbEntity
  8
DRAFT
100
AcDbPolyline
 62
7
  6
CONTINUOUS
 90
4
 70
0
 10
-4.9176733914
 20
1.5948816513
 10
-4.9190985056
 20
1.5847760288
 10
-4.9193492693
 20
1.5742565927
 10
-4.9184322286
 20
1.5634008371
  0
LWPOLYLINE
  5
244
100
AcDbEntity
  8
DRAFT
100
AcDbPolyline
 62
7
  6
CONTINUOUS
 90
13
 70
0
 10
-3.9960098816
 20
1.1547967873
 10
-3.9945847674
 20
1.1649024098
 10
-3.9943340038
 20
1.1754218459
 10
-3.9952575907
 20
1.1863550954
 10
-3.997409774
 20
1.1978858264
 10
-4.0007363078
 20
1.2098303708
 10
-4.0050744549
 20
1.2216377254
 10
-4.0104740406
 20
1.2333173661
 10
-4.0168852395
 20
1.2448598169
 10
-4.0239958384
 20
1.2556856467
 10
-4.0317017664
 20
1.2656017119
 10
-4.0401070945
 20
1.2748011561
 10
-4.0492118226
 20
1.2832839793
  0
LWPOLYLINE
  5
245
100
AcDbEntity
  8
0
100
AcDbPolyline
 62
7
  6
CONTINUOUS
 90
13
 70
0
 10
-4.9176733914
 20
1.5948816516
 10
-4.9191104497
 20
1.5848636414
 10
-4.9193683794
 20
1.5743967717
 10
-4.9184471805
 20
1.5634810427
 10
-4.9162913995
 20
1.5519169136
 10
-4.9129564898
 20
1.5399039251
 10
-4.9086088125
 20
1.5280406995
 10
-4.9031970025
 20
1.516334524
 10
-4.8967724249
 20
1.5047781113
 10
-4.8896555353
 20
1.4939482224
 10
-4.8819531523
 20
1.4840371109
 10
-4.8735584574
 20
1.4748525232
 10
-4.8644714505
 20
1.4663944593
  0
LWPOLYLINE
  5
246
100
AcDbEntity
  8
0
100
AcDbPolyline
 62
7
  6
CONTINUOUS
 90
4
 70
0
 10
-3.9960098816
 20
1.1547967873
 10
-3.9945728233
 20
1.1648147974
 10
-3.9943148936
 20
1.1752816669
 10
-3.9952360925
 20
1.1861973958
  0
LWPOLYLINE
  5
247
100
AcDbEntity
  8
DRAFT
100
AcDbPolyline
 62
7
  6
CONTINUOUS
 90
34
 70
0
 10
-3.479495843
 20
0.5337824566
 10
-3.4987791146
 20
0.420029934
 10
-3.510302608
 20
0.2997396298
 10
-3.5138859233
 20
0.1751223533
 10
-3.5094258301
 20
0.0463923521
 10
-3.4970255589
 20
-0.0866646213
 10
-3.4768144016
 20
-0.2224805
 10
-3.4485873273
 20
-0.3614935671
 10
-3.412549367
 20
-0.5032655395
 10
-3.3694449043
 20
-0.6449135006
 10
-3.3193221251
 20
-0.7859718301
 10
-3.2621328437
 20
-0.9269061483
 10
-3.1984768867
 20
-1.0662303996
 10
-3.1280233744
 20
-1.2043939587
 10
-3.0511031865
 20
-1.3409474508
 10
-2.9693087891
 20
-1.4730566961
 10
-2.8828347448
 20
-1.6002237817
 10
-2.7914864909
 20
-1.7229466205
 10
-2.6962728054
 20
-1.8398847707
 10
-2.5968622015
 20
-1.951283048
 10
-2.493586166
 20
-2.0568966368
 10
-2.3884479369
 20
-2.1546506484
 10
-2.2816382179
 20
-2.2442024957
 10
-2.1729663052
 20
-2.3258947657
 10
-2.0638633258
 20
-2.3986803309
 10
-1.9541954111
 20
-2.4625281474
 10
-1.8440964298
 20
-2.5174692591
 10
-1.7353991147
 20
-2.5625496693
 10
-1.6281308956
 20
-2.5975764109
 10
-1.5222643429
 20
-2.6227424511
 10
-1.4195499006
 20
-2.6376726942
 10
-1.3201456567
 20
-2.6422278023
 10
-1.2238935232
 20
-2.6365471132
 10
-1.1320696807
 20
-2.6206735449
  0
LINE
  5
248
100
AcDbEntity
  8
0
100
AcDbLine
 62
7
  6
CONTINUOUS
 10
-4.8547308416
 20
1.8769381897
 11
-4.9176733914
 21
1.5948816516
  0
LINE
  5
249
100
AcDbEntity
  8
DRAFT
100
AcDbLine
 62
7
  6
CONTINUOUS
 10
-4.8547308416
 20
1.8769381896
 11
-4.9176733914
 21
1.5948816513
  0
LINE
  5
24A
100
AcDbEntity
  8
0
100
AcDbLine
 62
7
  6
CONTINUOUS
 10
-4.0589524313
 20
0.8727402492
 11
-3.9960098816
 21
1.1547967873
  0
LINE
  5
24B
100
AcDbEntity
  8
DRAFT
100
AcDbLine
 62
7
  6
CONTINUOUS
 10
-4.0589524314
 20
0.8727402489
 11
-3.9960098816
 21
1.1547967873
  0
LWPOLYLINE
  5
24C
100
AcDbEntity
  8
DRAFT
100
AcDbPolyline
 62
7
  6
CONTINUOUS
 90
4
 70
0
 10
-4.8434488147
 20
1.8995205355
 10
-4.8481729298
 20
1.8933699534
 10
-4.8519370686
 20
1.8858379959
 10
-4.8547308416
 20
1.8769381896
  0
LWPOLYLINE
  5
24D
100
AcDbEntity
  8
0
100
AcDbPolyline
 62
7
  6
CONTINUOUS
 90
4
 70
0
 10
-4.0702221997
 20
0.8501681324
 10
-4.0654902125
 20
0.8563296016
 10
-4.061733623
 20
0.8638536406
 10
-4.0589524313
 20
0.8727402492
  0
LWPOLYLINE
  5
24E
100
AcDbEntity
  8
0
100
AcDbPolyline
 62
7
  6
CONTINUOUS
 90
6
 70
0
 10
-4.8363843029
 20
1.9052183153
 10
-4.8376406011
 20
1.9043672499
 10
-4.8434610734
 20
1.8995103062
 10
-4.8481930606
 20
1.893348837
 10
-4.85194965
 20
1.8858247982
 10
-4.8547308416
 20
1.8769381897
  0
LINE
  5
24F
100
AcDbEntity
  8
0
100
AcDbLine
 62
7
  6
CONTINUOUS
 10
-4.8363843029
 20
1.9052183153
 11
-4.8376406011
 21
1.9043672499
  0
LWPOLYLINE
  5
250
100
AcDbEntity
  8
DRAFT
100
AcDbPolyline
 62
7
  6
CONTINUOUS
 90
3
 70
0
 10
-4.8363830272
 20
1.9052190872
 10
-4.8376183225
 20
1.904383956
 10
-4.8434488147
 20
1.8995205355
  0
LINE
  5
251
100
AcDbEntity
  8
DRAFT
100
AcDbLine
 62
7
  6
CONTINUOUS
 10
8.950557843
 20
8.7634235444
 11
8.6323597915
 21
8.5989552047
  0
LINE
  5
252
100
AcDbEntity
  8
DRAFT
100
AcDbLine
 62
7
  6
CONTINUOUS
 10
8.0746822556
 20
8.6975860123
 11
7.166046301
 21
8.2929187435
  0
LWPOLYLINE
  5
253
100
AcDbEntity
  8
DRAFT
100
AcDbPolyline
 62
7
  6
CONTINUOUS
 90
3
 70
0
 10
0.2024403584
 20
-4.2408029805
 10
0.2100326721
 20
-4.2395542151
 10
0.2178134744
 20
-4.2364476574
  0
LWPOLYLINE
  5
254
100
AcDbEntity
  8
DRAFT
100
AcDbPolyline
 62
7
  6
CONTINUOUS
 90
4
 70
0
 10
-1.8330713734
 20
-4.1973975939
 10
-1.8248451792
 20
-4.1974262081
 10
-1.8170849064
 20
-4.1959137415
 10
-1.8108011903
 20
-4.1932968577
  0
LWPOLYLINE
  5
255
100
AcDbEntity
  8
DRAFT
100
AcDbPolyline
 62
7
  6
CONTINUOUS
 90
4
 70
0
 10
-1.86016802
 20
-4.1879849743
 10
-1.850669883
 20
-4.1926635949
 10
-1.8416376675
 20
-4.1958011348
 10
-1.8330901685
 20
-4.1973940912
  0
LWPOLYLINE
  5
256
100
AcDbEntity
  8
DRAFT
100
AcDbPolyline
 62
7
  6
CONTINUOUS
 90
7
 70
0
 10
-2.1430107325
 20
-3.0076389192
 10
-2.1525088695
 20
-3.0029602985
 10
-2.161541085
 20
-2.9998227586
 10
-2.1701073791
 20
-2.9982262995
 10
-2.1783335733
 20
-2.9981976853
 10
-2.1860938461
 20
-2.9997101519
 10
-2.1936408562
 20
-3.0030564489
  0
LWPOLYLINE
  5
257
100
AcDbEntity
  8
0
100
AcDbPolyline
 62
7
  6
CONTINUOUS
 90
7
 70
0
 10
-1.86016802
 20
-4.1879849743
 10
-1.8506899578
 20
-4.1926616131
 10
-1.8416697871
 20
-4.1957979639
 10
-1.833107508
 20
-4.1973940267
 10
-1.8248738387
 20
-4.1974246586
 10
-1.8170980609
 20
-4.1959150024
 10
-1.8108012421
 20
-4.1932968861
  0
LWPOLYLINE
  5
258
100
AcDbEntity
  8
0
100
AcDbPolyline
 62
7
  6
CONTINUOUS
 90
4
 70
0
 10
-2.1430107325
 20
-3.0076389192
 10
-2.1524887947
 20
-3.0029622803
 10
-2.1615089654
 20
-2.9998259295
 10
-2.1700712445
 20
-2.9982298667
  0
LINE
  5
259
100
AcDbEntity
  8
0
100
AcDbLine
 62
7
  6
CONTINUOUS
 10
-2.1430107325
 20
-4.0246751369
 11
-1.86016802
 21
-4.1879849743
  0
LINE
  5
25A
100
AcDbEntity
  8
DRAFT
100
AcDbLine
 62
7
  6
CONTINUOUS
 10
-2.1430107325
 20
-4.0246751369
 11
-1.86016802
 21
-4.1879849743
  0
LINE
  5
25B
100
AcDbEntity
  8
0
100
AcDbLine
 62
7
  6
CONTINUOUS
 10
-1.86016802
 20
-3.1709487565
 11
-2.1430107325
 21
-3.0076389192
  0
LINE
  5
25C
100
AcDbEntity
  8
DRAFT
100
AcDbLine
 62
7
  6
CONTINUOUS
 10
-1.86016802
 20
-3.1709487565
 11
-2.1430107325
 21
-3.0076389192
  0
LWPOLYLINE
  5
25D
100
AcDbEntity
  8
DRAFT
100
AcDbPolyline
 62
7
  6
CONTINUOUS
 90
4
 70
0
 10
-2.170088584
 20
-4.0028154296
 10
-2.161541085
 20
-4.0110929108
 10
-2.1525088695
 20
-4.018385547
 10
-2.1430107325
 20
-4.0246751369
  0
LWPOLYLINE
  5
25E
100
AcDbEntity
  8
0
100
AcDbPolyline
 62
7
  6
CONTINUOUS
 90
4
 70
0
 10
-1.833107508
 20
-3.1927885051
 10
-1.8416697871
 20
-3.1844970625
 10
-1.8506899578
 20
-3.1772171464
 10
-1.86016802
 20
-3.1709487565
  0
LWPOLYLINE
  5
25F
100
AcDbEntity
  8
DRAFT
100
AcDbPolyline
 62
7
  6
CONTINUOUS
 90
7
 70
0
 10
-4.2056024161
 20
-1.6956667135
 10
-4.1972768122
 20
-1.7049565495
 10
-4.1883803736
 20
-1.713362253
 10
-4.179350383
 20
-1.7204765286
 10
-4.1701805496
 20
-1.726238547
 10
-4.1608771642
 20
-1.7307091376
 10
-4.1518963811
 20
-1.733663493
  0
LWPOLYLINE
  5
260
100
AcDbEntity
  8
DRAFT
100
AcDbPolyline
 62
7
  6
CONTINUOUS
 90
4
 70
0
 10
-4.2267169374
 20
-1.6628997054
 10
-4.2202495983
 20
-1.674706174
 10
-4.2132114245
 20
-1.68562851
 10
-4.2056191108
 20
-1.6956446889
  0
LWPOLYLINE
  5
261
100
AcDbEntity
  8
DRAFT
100
AcDbPolyline
 62
7
  6
CONTINUOUS
 90
13
 70
0
 10
-3.7144176285
 20
-1.0692507538
 10
-3.7208849677
 20
-1.0574442852
 10
-3.7279231414
 20
-1.0465219492
 10
-3.7355321499
 20
-1.0364837457
 10
-3.7438577538
 20
-1.0271939097
 10
-3.7527541923
 20
-1.0187882062
 10
-3.761784183
 20
-1.0116739306
 10
-3.7709540163
 20
-1.0059119121
 10
-3.7802574018
 20
-1.0014413215
 10
-3.7892381849
 20
-0.9984869662
 10
-3.7977443142
 20
-0.9971237818
 10
-3.8059278411
 20
-0.9972768327
 10
-3.8137887658
 20
-0.9989461187
  0
LWPOLYLINE
  5
262
100
AcDbEntity
  8
0
100
AcDbPolyline
 62
7
  6
CONTINUOUS
 90
13
 70
0
 10
-4.2267169374
 20
-1.6628997054
 10
-4.220268621
 20
-1.674683059
 10
-4.2132418609
 20
-1.685591526
 10
-4.205636657
 20
-1.6956251065
 10
-4.1973048363
 20
-1.7049238472
 10
-4.1883945718
 20
-1.7133477015
 10
-4.179350383
 20
-1.7204765286
 10
-4.170165483
 20
-1.7262447003
 10
-4.1608466587
 20
-1.7307178448
 10
-4.1518587902
 20
-1.7336727066
 10
-4.1433568377
 20
-1.7350348673
 10
-4.135185841
 20
-1.7348787452
 10
-4.1273458001
 20
-1.7332043405
  0
LWPOLYLINE
  5
263
100
AcDbEntity
  8
0
100
AcDbPolyline
 62
7
  6
CONTINUOUS
 90
4
 70
0
 10
-3.7144176283
 20
-1.0692507541
 10
-3.7208659448
 20
-1.0574674004
 10
-3.727892705
 20
-1.0465589333
 10
-3.7354979089
 20
-1.0365253527
  0
LINE
  5
264
100
AcDbEntity
  8
0
100
AcDbLine
 62
7
  6
CONTINUOUS
 10
-4.4030648301
 20
-1.3057402526
 11
-4.2267169374
 21
-1.6628997054
  0
LINE
  5
265
100
AcDbEntity
  8
DRAFT
100
AcDbLine
 62
7
  6
CONTINUOUS
 10
-4.4030648301
 20
-1.3057402525
 11
-4.2267169374
 21
-1.6628997054
  0
LINE
  5
266
100
AcDbEntity
  8
0
100
AcDbLine
 62
7
  6
CONTINUOUS
 10
-3.5380697359
 20
-1.4264102066
 11
-3.7144176283
 21
-1.0692507541
  0
LINE
  5
267
100
AcDbEntity
  8
DRAFT
100
AcDbLine
 62
7
  6
CONTINUOUS
 10
-3.5380697359
 20
-1.4264102066
 11
-3.7144176285
 21
-1.0692507538
  0
LWPOLYLINE
  5
268
100
AcDbEntity
  8
DRAFT
100
AcDbPolyline
 62
7
  6
CONTINUOUS
 90
3
 70
0
 10
-4.9086088181
 20
1.5280407131
 10
-4.9032092325
 20
1.5163610725
 10
-4.8967779312
 20
1.5047880159
  0
LWPOLYLINE
  5
269
100
AcDbEntity
  8
DRAFT
100
AcDbPolyline
 62
7
  6
CONTINUOUS
 90
4
 70
0
 10
-4.4157322153
 20
-1.2701001569
 10
-4.4126660721
 20
-1.2816706757
 10
-4.408441363
 20
-1.2935591884
 10
-4.4030648301
 20
-1.3057402525
  0
LWPOLYLINE
  5
26A
100
AcDbEntity
  8
0
100
AcDbPolyline
 62
7
  6
CONTINUOUS
 90
4
 70
0
 10
-3.5254064262
 20
-1.4620260938
 10
-3.5284781096
 20
-1.4504356494
 10
-3.5326992129
 20
-1.438563687
 10
-3.5380697359
 20
-1.4264102066
  0
LWPOLYLINE
  5
26B
100
AcDbEntity
  8
DRAFT
100
AcDbPolyline
 62
7
  6
CONTINUOUS
 90
4
 70
0
 10
-4.9184256823
 20
1.5633233431
 10
-4.916273499
 20
1.5517926122
 10
-4.9129469652
 20
1.5398480677
 10
-4.9086088181
 20
1.5280407131
  0
LWPOLYLINE
  5
26C
100
AcDbEntity
  8
0
100
AcDbPolyline
 62
7
  6
CONTINUOUS
 90
4
 70
0
 10
-3.9952360925
 20
1.1861973958
 10
-3.9973918736
 20
1.1977615249
 10
-4.0007267832
 20
1.2097745134
 10
-4.0050744606
 20
1.221637739
  0
LINE
  5
26D
100
AcDbEntity
  8
0
100
AcDbLine
 62
7
  6
CONTINUOUS
 10
-3.9952360925
 20
1.1861973958
 11
-3.9952510444
 21
1.1862776015
  0
LWPOLYLINE
  5
26E
100
AcDbEntity
  8
DRAFT
100
AcDbPolyline
 62
7
  6
CONTINUOUS
 90
4
 70
0
 10
-2.7811529061
 20
1.9284368496
 10
-2.7804553135
 20
1.9170669178
 10
-2.7786560461
 20
1.9055988752
 10
-2.7757614687
 20
1.8940580987
  0
LWPOLYLINE
  5
26F
100
AcDbEntity
  8
DRAFT
100
AcDbPolyline
 62
7
  6
CONTINUOUS
 90
4
 70
0
 10
-2.2137214106
 20
-3.9022006499
 10
-2.213023818
 20
-3.9135705817
 10
-2.2112245506
 20
-3.9250386243
 10
-2.2083299732
 20
-3.9365794008
  0
LWPOLYLINE
  5
270
100
AcDbEntity
  8
DRAFT
100
AcDbPolyline
 62
7
  6
CONTINUOUS
 90
13
 70
0
 10
-1.7894573419
 20
-3.2934232435
 10
-1.7901549345
 20
-3.2820533117
 10
-1.791954202
 20
-3.2705852691
 10
-1.7948551442
 20
-3.2590191157
 10
-1.7989438575
 20
-3.247159859
 10
-1.8041342456
 20
-3.2352024915
 10
-1.81016802
 20
-3.2237319906
 10
-1.8170849064
 20
-3.2127712889
 10
-1.8248451792
 20
-3.2022974539
 10
-1.8330713734
 20
-3.1928266651
 10
-1.8416376675
 20
-3.1845309826
 10
-1.850669883
 20
-3.1772383464
 10
-1.86016802
 20
-3.1709487565
  0
LWPOLYLINE
  5
271
100
AcDbEntity
  8
0
100
AcDbPolyline
 62
7
  6
CONTINUOUS
 90
13
 70
0
 10
-2.7811529061
 20
1.9284368496
 10
-2.7804636355
 20
1.9170949024
 10
-2.7786693613
 20
1.9056436506
 10
-2.7757700834
 20
1.8940830941
 10
-2.7716793797
 20
1.8822140569
 10
-2.7664836723
 20
1.870235715
 10
-2.760442228
 20
1.8587455967
 10
-2.7535121872
 20
1.8477684437
 10
-2.7457364094
 20
1.8372795143
 10
-2.7375027401
 20
1.8278021112
 10
-2.7289404609
 20
1.8195106686
 10
-2.7199202903
 20
1.8122307524
 10
-2.710442228
 20
1.8059623626
  0
LWPOLYLINE
  5
272
100
AcDbEntity
  8
0
100
AcDbPolyline
 62
7
  6
CONTINUOUS
 90
13
 70
0
 10
-2.2137214106
 20
-3.9022006499
 10
-2.21303214
 20
-3.9135425971
 10
-2.2112378658
 20
-3.924993849
 10
-2.2083385879
 20
-3.9365544055
 10
-2.2042478842
 20
-3.9484234427
 10
-2.1990521768
 20
-3.9604017845
 10
-2.1930107325
 20
-3.9718919028
 10
-2.1860806917
 20
-3.9828690558
 10
-2.1783049139
 20
-3.9933579853
 10
-2.1700712445
 20
-4.0028353884
 10
-2.1615089654
 20
-4.0111268309
 10
-2.1524887947
 20
-4.0184067471
 10
-2.1430107325
 20
-4.0246751369
  0
LWPOLYLINE
  5
273
100
AcDbEntity
  8
0
100
AcDbPolyline
 62
7
  6
CONTINUOUS
 90
4
 70
0
 10
-1.7894573419
 20
-3.2934232435
 10
-1.7901466125
 20
-3.2820812963
 10
-1.7919408868
 20
-3.2706300445
 10
-1.7948401646
 20
-3.259069488
  0
LINE
  5
274
100
AcDbEntity
  8
0
100
AcDbLine
 62
7
  6
CONTINUOUS
 10
-2.7811529061
 20
2.091730905
 11
-2.7811529061
 21
1.9284368496
  0
LINE
  5
275
100
AcDbEntity
  8
DRAFT
100
AcDbLine
 62
7
  6
CONTINUOUS
 10
-2.7811529061
 20
2.091730905
 11
-2.7811529061
 21
1.9284368496
  0
LINE
  5
276
100
AcDbEntity
  8
0
100
AcDbLine
 62
7
  6
CONTINUOUS
 10
-2.2137214106
 20
-3.0484584875
 11
-2.2137214106
 21
-3.9022006499
  0
LINE
  5
277
100
AcDbEntity
  8
DRAFT
100
AcDbLine
 62
7
  6
CONTINUOUS
 10
-2.2137214106
 20
-3.0484584875
 11
-2.2137214106
 21
-3.9022006499
  0
LINE
  5
278
100
AcDbEntity
  8
0
100
AcDbLine
 62
7
  6
CONTINUOUS
 10
-1.7894573419
 20
-4.1471654059
 11
-1.7894573419
 21
-3.2934232435
  0
LINE
  5
279
100
AcDbEntity
  8
DRAFT
100
AcDbLine
 62
7
  6
CONTINUOUS
 10
-1.7894573419
 20
-4.1471654059
 11
-1.7894573419
 21
-3.2934232435
  0
LINE
  5
27A
100
AcDbEntity
  8
0
100
AcDbLine
 62
7
  6
CONTINUOUS
 10
-1.646289915
 20
1.191534154
 11
-1.646289915
 21
0.5728752776
  0
LINE
  5
27B
100
AcDbEntity
  8
DRAFT
100
AcDbLine
 62
7
  6
CONTINUOUS
 10
-1.646289915
 20
1.191534154
 11
-1.646289915
 21
0.5728752776
  0
LINE
  5
27C
100
AcDbEntity
  8
0
100
AcDbLine
 62
7
  6
CONTINUOUS
 10
-3.523087895
 20
-1.495108319
 11
-3.5226852447
 21
-1.4847353369
  0
LWPOLYLINE
  5
27D
100
AcDbEntity
  8
DRAFT
100
AcDbPolyline
 62
7
  6
CONTINUOUS
 90
3
 70
0
 10
-2.7793239205
 20
2.1227360031
 10
-2.7806826064
 20
2.1075919464
 10
-2.7811529061
 20
2.091730905
  0
LWPOLYLINE
  5
27E
100
AcDbEntity
  8
DRAFT
100
AcDbPolyline
 62
7
  6
CONTINUOUS
 90
3
 70
0
 10
-2.7739242091
 20
2.1509286423
 10
-2.7770768486
 20
2.1371630752
 10
-2.7793239205
 20
2.1227360031
  0
LINE
  5
27F
100
AcDbEntity
  8
DRAFT
100
AcDbLine
 62
7
  6
CONTINUOUS
 10
-2.7698831835
 20
2.1639772248
 11
-2.7739242091
 21
2.1509286423
  0
LWPOLYLINE
  5
280
100
AcDbEntity
  8
0
100
AcDbPolyline
 62
7
  6
CONTINUOUS
 90
40
 70
0
 10
-3.3752677585
 20
0.8336025257
 10
-3.417791231
 20
0.7400333671
 10
-3.4525466796
 20
0.6400328355
 10
-3.4795341043
 20
0.533600931
 10
-3.4988136931
 20
0.4201099983
 10
-3.510325258
 20
0.3001876927
 10
-3.5138882352
 20
0.1757169792
 10
-3.5093774213
 20
0.0466278108
 10
-3.4969180197
 20
-0.0870097656
 10
-3.4767050764
 20
-0.2231026445
 10
-3.448615849
 20
-0.3616918781
 10
-3.41277308
 20
-0.5027364142
 10
-3.3697400421
 20
-0.6440199903
 10
-3.3194043037
 20
-0.7855436318
 10
-3.2618782965
 20
-0.9273063133
 10
-3.1980625889
 20
-1.0670886963
 10
-3.1278566503
 20
-1.2048623648
 10
-3.0513610114
 20
-1.3406557348
 10
-2.9697778324
 20
-1.4723347158
 10
-2.8830284996
 20
-1.5998319001
 10
-2.7911916268
 20
-1.7232146953
 10
-2.6957052162
 20
-1.8405512341
 10
-2.5965101207
 20
-1.9517481679
 10
-2.4936654875
 20
-2.0568988453
 10
-2.3887867608
 20
-2.1543514445
 10
-2.2818431705
 20
-2.2439832876
 10
-2.1728654868
 20
-2.3259170526
 10
-2.0635614639
 20
-2.398868952
 10
-1.9539252035
 20
-2.462698008
 10
-1.843962604
 20
-2.5175451983
 10
-1.7353991147
 20
-2.5625496692
 10
-1.6282568284
 20
-2.5975559991
 10
-1.5225136523
 20
-2.6227196095
 10
-1.4198287577
 20
-2.6376459118
 10
-1.3202510096
 20
-2.6421736149
 10
-1.2237315431
 20
-2.6364640099
 10
-1.1317829349
 20
-2.6206063809
 10
-1.0444761982
 20
-2.5944402958
 10
-0.9617403198
 20
-2.5581261867
 10
-0.9456212667
 20
-2.5496461105
  0
LWPOLYLINE
  5
281
100
AcDbEntity
  8
DRAFT
100
AcDbPolyline
 62
7
  6
CONTINUOUS
 90
4
 70
0
 10
-3.3752677586
 20
0.8336025257
 10
-3.4177702316
 20
0.7402002842
 10
-3.4525129264
 20
0.6402602612
 10
-3.479495843
 20
0.5337824566
  0
LWPOLYLINE
  5
282
100
AcDbEntity
  8
0
100
AcDbPolyline
 62
7
  6
CONTINUOUS
 90
13
 70
0
 10
-2.9651132892
 20
0.4500374658
 10
-2.9608089576
 20
0.4594464935
 10
-2.9581192003
 20
0.4698357556
 10
-2.9570440173
 20
0.4812052521
 10
-2.9576326076
 20
0.4938594541
 10
-2.9598357722
 20
0.5074938905
 10
-2.9635059143
 20
0.5211951484
 10
-2.9687435561
 20
0.5349678064
 10
-2.9754481754
 20
0.5488072859
 10
-2.983170609
 20
0.5617864372
 10
-2.9917611359
 20
0.5735962106
 10
-3.0013694771
 20
0.5845456558
 10
-3.0119956326
 20
0.5946347729
  0
LWPOLYLINE
  5
283
100
AcDbEntity
  8
DRAFT
100
AcDbPolyline
 62
7
  6
CONTINUOUS
 90
13
 70
0
 10
-2.9651132892
 20
0.4500374659
 10
-2.9608089576
 20
0.4594464935
 10
-2.9581192003
 20
0.4698357556
 10
-2.9570440173
 20
0.4812052521
 10
-2.9576326076
 20
0.4938594541
 10
-2.9598357722
 20
0.5074938905
 10
-2.9635059143
 20
0.5211951484
 10
-2.9687435561
 20
0.5349678064
 10
-2.9754481754
 20
0.5488072859
 10
-2.983170609
 20
0.5617864372
 10
-2.9917611359
 20
0.5735962106
 10
-3.0013694771
 20
0.5845456558
 10
-3.0119956327
 20
0.5946347729
  0
LWPOLYLINE
  5
284
100
AcDbEntity
  8
DRAFT
100
AcDbPolyline
 62
7
  6
CONTINUOUS
 90
3
 70
0
 10
-2.7592798884
 20
2.1874128017
 10
-2.7650053165
 20
2.1761423835
 10
-2.7698831835
 20
2.1639772248
  0
LWPOLYLINE
  5
285
100
AcDbEntity
  8
DRAFT
100
AcDbPolyline
 62
7
  6
CONTINUOUS
 90
7
 70
0
 10
-4.4096873338
 20
-1.2115564565
 10
-4.4135696227
 20
-1.2189281411
 10
-4.4164007608
 20
-1.227565869
 10
-4.418046671
 20
-1.2370421402
 10
-4.4184515263
 20
-1.2473964522
 10
-4.4176711538
 20
-1.2585893076
 10
-4.4157389575
 20
-1.2700747145
  0
LWPOLYLINE
  5
286
100
AcDbEntity
  8
0
100
AcDbPolyline
 62
7
  6
CONTINUOUS
 90
4
 70
0
 10
-3.5314579584
 20
-1.5206070862
 10
-3.5275792518
 20
-1.5132464149
 10
-3.5247393078
 20
-1.5045978072
 10
-3.523087895
 20
-1.495108319
  0
LWPOLYLINE
  5
287
100
AcDbEntity
  8
0
100
AcDbPolyline
 62
7
  6
CONTINUOUS
 90
36
 70
0
 10
-2.9651132892
 20
0.4500374658
 10
-3.0034058316
 20
0.3783501386
 10
-3.0346813022
 20
0.3006446873
 10
-3.058939701
 20
0.2169211121
 10
-3.076248881
 20
0.1265439059
 10
-3.0865409891
 20
0.0301485757
 10
-3.0896124667
 20
-0.0703583574
 10
-3.0853195552
 20
-0.1750587529
 10
-3.0738060131
 20
-0.2838707514
 10
-3.0552995569
 20
-0.394642253
 10
-3.0296609619
 20
-0.5074122704
 10
-2.9970294528
 20
-0.6221417908
 10
-2.9580504204
 20
-0.7365616771
 10
-2.9125974893
 20
-0.8506657645
 10
-2.8607970349
 20
-0.9644602177
 10
-2.8036735743
 20
-1.0756943932
 10
-2.7411211295
 20
-1.1843173174
 10
-2.6732456785
 20
-1.2903799639
 10
-2.6013896719
 20
-1.39178461
 10
-2.5254738592
 20
-1.4884385178
 10
-2.445577491
 20
-1.5804344251
 10
-2.3632807693
 20
-1.6659528235
 10
-2.2785359046
 20
-1.7448647496
 10
-2.1913906865
 20
-1.8172991667
 10
-2.103568686
 20
-1.8818234562
 10
-2.0150564287
 20
-1.9382801322
 10
-1.9258673889
 20
-1.9868266806
 10
-1.8377655607
 20
-2.0265029406
 10
-1.7507725897
 20
-2.0571323102
 10
-1.6648668303
 20
-2.0788913913
 10
-1.5817473392
 20
-2.0913498298
 10
-1.5014695893
 20
-2.0943224554
 10
-1.4239781078
 20
-2.0879944382
 10
-1.3508055326
 20
-2.0724909348
 10
-1.2820378504
 20
-2.0476292668
 10
-1.2228687389
 20
-2.0169549065
  0
LWPOLYLINE
  5
288
100
AcDbEntity
  8
DRAFT
100
AcDbPolyline
 62
7
  6
CONTINUOUS
 90
36
 70
0
 10
-2.9651132892
 20
0.4500374659
 10
-3.0034058316
 20
0.3783501386
 10
-3.0346813022
 20
0.3006446874
 10
-3.058939701
 20
0.2169211122
 10
-3.0762488809
 20
0.1265439059
 10
-3.0865409891
 20
0.0301485758
 10
-3.0896124667
 20
-0.0703583573
 10
-3.0853195552
 20
-0.1750587529
 10
-3.0738060131
 20
-0.2838707514
 10
-3.0552995569
 20
-0.394642253
 10
-3.0296609619
 20
-0.5074122703
 10
-2.9970294528
 20
-0.6221417908
 10
-2.9580504204
 20
-0.7365616771
 10
-2.9125974893
 20
-0.8506657645
 10
-2.8607970349
 20
-0.9644602177
 10
-2.8036735743
 20
-1.0756943932
 10
-2.7411211295
 20
-1.1843173174
 10
-2.6732456785
 20
-1.2903799639
 10
-2.6013896719
 20
-1.39178461
 10
-2.5254738592
 20
-1.4884385177
 10
-2.445577491
 20
-1.5804344251
 10
-2.3632807693
 20
-1.6659528235
 10
-2.2785359047
 20
-1.7448647496
 10
-2.1913906866
 20
-1.8172991667
 10
-2.103568686
 20
-1.8818234562
 10
-2.0150564287
 20
-1.9382801322
 10
-1.9258673889
 20
-1.9868266806
 10
-1.8377655607
 20
-2.0265029406
 10
-1.7507725897
 20
-2.0571323102
 10
-1.6648668303
 20
-2.0788913913
 10
-1.5817473392
 20
-2.0913498298
 10
-1.5014695893
 20
-2.0943224554
 10
-1.4239781078
 20
-2.0879944382
 10
-1.3508055326
 20
-2.0724909348
 10
-1.2820378504
 20
-2.0476292668
 10
-1.2228687389
 20
-2.0169549065
  0
LWPOLYLINE
  5
289
100
AcDbEntity
  8
DRAFT
100
AcDbPolyline
 62
7
  6
CONTINUOUS
 90
4
 70
0
 10
-2.7373240205
 20
2.2155130304
 10
-2.7454022122
 20
2.2071708769
 10
-2.752717619
 20
2.1977997961
 10
-2.7592798884
 20
2.1874128017
  0
LINE
  5
28A
100
AcDbEntity
  8
0
100
AcDbLine
 62
7
  6
CONTINUOUS
 10
-4.076042672
 20
0.8453111887
 11
-4.0702344584
 21
0.850157903
  0
LINE
  5
28B
100
AcDbEntity
  8
RACCORDO
100
AcDbLine
 62
7
  6
CONTINUOUS
 10
7.2795249851
 20
9.4072720475
 11
8.2583934296
 21
10.2075092452
  0
LWPOLYLINE
  5
28C
100
AcDbEntity
  8
DRAFT
100
AcDbPolyline
 62
7
  6
CONTINUOUS
 90
3
 70
0
 10
-4.3982220997
 20
-1.2004118534
 10
-4.4047985864
 20
-1.2055933149
 10
-4.4096766075
 20
-1.2115433729
  0
LWPOLYLINE
  5
28D
100
AcDbEntity
  8
0
100
AcDbPolyline
 62
7
  6
CONTINUOUS
 90
7
 70
0
 10
-4.3982214508
 20
-1.2004114654
 10
-4.4047817759
 20
-1.2055678773
 10
-4.409668422
 20
-1.2115278392
 10
-4.4135553142
 20
-1.2189040443
 10
-4.4163952582
 20
-1.227552652
 10
-4.418046671
 20
-1.2370421402
 10
-4.4184493213
 20
-1.2474151222
  0
LWPOLYLINE
  5
28E
100
AcDbEntity
  8
0
100
AcDbPolyline
 62
7
  6
CONTINUOUS
 90
4
 70
0
 10
-3.3618372929
 20
0.8484952741
 10
-3.3632717751
 20
0.8474997968
 10
-3.3697743507
 20
0.8415560814
 10
-3.3752677585
 20
0.8336025257
  0
LWPOLYLINE
  5
28F
100
AcDbEntity
  8
DRAFT
100
AcDbPolyline
 62
7
  6
CONTINUOUS
 90
4
 70
0
 10
-3.3618372929
 20
0.8484952741
 10
-3.3632717751
 20
0.8474997967
 10
-3.3697743508
 20
0.8415560813
 10
-3.3752677586
 20
0.8336025257
  0
LWPOLYLINE
  5
290
100
AcDbEntity
  8
DRAFT
100
AcDbPolyline
 62
7
  6
CONTINUOUS
 90
3
 70
0
 10
-2.7208775939
 20
2.2279574349
 10
-2.7284926915
 20
2.2228392703
 10
-2.7373240205
 20
2.2155130304
  0
LWPOLYLINE
  5
291
100
AcDbEntity
  8
0
100
AcDbPolyline
 62
7
  6
CONTINUOUS
 90
9
 70
0
 10
-2.7208528928
 20
2.2279724088
 10
-2.7266934486
 20
2.2240812798
 10
-2.7406430767
 20
2.2123077794
 10
-2.7526618177
 20
2.1978071863
 10
-2.7628124499
 20
2.1806642906
 10
-2.7707694293
 20
2.1614301126
 10
-2.7764242411
 20
2.1402883257
 10
-2.7798854
 20
2.1170552565
 10
-2.7811529061
 20
2.091730905
  0
LINE
  5
292
100
AcDbEntity
  8
0
100
AcDbLine
 62
7
  6
CONTINUOUS
 10
-4.0785186964
 20
0.8437568554
 11
-4.076042672
 21
0.8453111887
  0
LWPOLYLINE
  5
293
100
AcDbEntity
  8
DRAFT
100
AcDbPolyline
 62
7
  6
CONTINUOUS
 90
6
 70
0
 10
-4.0785201484
 20
0.8437560586
 10
-4.0760649506
 20
0.8452944826
 10
-4.0702448479
 20
0.8501443763
 10
-4.0655103433
 20
0.8563084851
 10
-4.0617462045
 20
0.8638404427
 10
-4.0589524314
 20
0.8727402489
  0
LINE
  5
294
100
AcDbEntity
  8
DRAFT
100
AcDbLine
 62
7
  6
CONTINUOUS
 10
6.7202441037
 20
8.0226023865
 11
7.1657213758
 21
8.2936483274
  0
LWPOLYLINE
  5
295
100
AcDbEntity
  8
0
100
AcDbPolyline
 62
7
  6
CONTINUOUS
 90
4
 70
0
 10
-0.2676808436
 20
-3.0387994643
 10
-0.2752860475
 20
-3.040050746
 10
-0.2823128076
 20
-3.0428448865
 10
-0.2842492538
 20
-3.0438651588
  0
LWPOLYLINE
  5
296
100
AcDbEntity
  8
0
100
AcDbPolyline
 62
7
  6
CONTINUOUS
 90
4
 70
0
 10
-2.170088584
 20
-2.9982298022
 10
-2.1783049139
 20
-2.9981992349
 10
-2.1860806917
 20
-2.999708891
 10
-2.1936409072
 20
-3.0030564798
  0
LWPOLYLINE
  5
297
100
AcDbEntity
  8
DRAFT
100
AcDbPolyline
 62
7
  6
CONTINUOUS
 90
4
 70
0
 10
-4.151877718
 20
-1.7336664839
 10
-4.1433902518
 20
-1.7350266774
 10
-4.1352067248
 20
-1.7348736265
 10
-4.1273458002
 20
-1.7332043405
  0
LWPOLYLINE
  5
298
100
AcDbEntity
  8
0
100
AcDbPolyline
 62
7
  6
CONTINUOUS
 90
4
 70
0
 10
-0.2413945695
 20
-3.0443027725
 10
-0.2504387583
 20
-3.0409875971
 10
-0.2593490228
 20
-3.0391221013
 10
-0.2676632974
 20
-3.0388001438
  0
LWPOLYLINE
  5
299
100
AcDbEntity
  8
0
100
AcDbPolyline
 62
7
  6
CONTINUOUS
 90
4
 70
0
 10
-3.761784183
 20
-1.0116739306
 10
-3.770969083
 20
-1.0059057589
 10
-3.7802879073
 20
-1.0014326144
 10
-3.7892568479
 20
-0.9984839753
  0
LWPOLYLINE
  5
29A
100
AcDbEntity
  8
DRAFT
100
AcDbPolyline
 62
7
  6
CONTINUOUS
 90
4
 70
0
 10
-4.1436256473
 20
0.8601991718
 10
-4.1341610135
 20
0.8530888837
 10
-4.1249252272
 20
0.8474667089
 10
-4.1159821288
 20
0.8433619491
  0
LWPOLYLINE
  5
29B
100
AcDbEntity
  8
0
100
AcDbPolyline
 62
7
  6
CONTINUOUS
 90
9
 70
0
 10
-4.1436256472
 20
0.8601991717
 10
-4.1342309179
 20
0.8531154542
 10
-4.1250370736
 20
0.8475092218
 10
-4.1160441145
 20
0.8433804745
 10
-4.107106957
 20
0.8407094731
 10
-4.0983706846
 20
0.8395159569
 10
-4.0902705477
 20
0.8398591429
 10
-4.0828385421
 20
0.8418168146
 10
-4.0785186964
 20
0.8437568554
  0
LWPOLYLINE
  5
29C
100
AcDbEntity
  8
DRAFT
100
AcDbPolyline
 62
7
  6
CONTINUOUS
 90
7
 70
0
 10
0.1487176286
 20
-4.2167841228
 10
0.1576984117
 20
-4.2242005507
 10
0.1670017972
 20
-4.2304732764
 10
0.1761716305
 20
-4.2353003517
 10
0.1852016212
 20
-4.2386136829
 10
0.1940980597
 20
-4.2404813637
 10
0.2024236636
 20
-4.2408057264
  0
LWPOLYLINE
  5
29D
100
AcDbEntity
  8
0
100
AcDbPolyline
 62
7
  6
CONTINUOUS
 90
4
 70
0
 10
-0.2139219046
 20
-3.0628375621
 10
-0.2228908452
 20
-3.0554290934
 10
-0.2322096695
 20
-3.0491410932
 10
-0.2413945695
 20
-3.0443027725
  0
LINE
  5
29E
100
AcDbEntity
  8
0
100
AcDbLine
 62
7
  6
CONTINUOUS
 10
-4.8644714505
 20
1.4663944593
 11
-4.1436256472
 21
0.8601991717
  0
LINE
  5
29F
100
AcDbEntity
  8
DRAFT
100
AcDbLine
 62
7
  6
CONTINUOUS
 10
-4.8644714504
 20
1.4663944592
 11
-4.1436256473
 21
0.8601991718
  0
LWPOLYLINE
  5
2A0
100
AcDbEntity
  8
0
100
AcDbPolyline
 62
7
  6
CONTINUOUS
 90
4
 70
0
 10
-3.7355154551
 20
-1.0365057703
 10
-3.7438297297
 20
-1.0272266119
 10
-3.7527399942
 20
-1.0188027577
 10
-3.761784183
 20
-1.0116739306
  0
LWPOLYLINE
  5
2A1
100
AcDbEntity
  8
DRAFT
100
AcDbPolyline
 62
7
  6
CONTINUOUS
 90
4
 70
0
 10
-4.8896705244
 20
1.4939710316
 10
-4.8819815066
 20
1.4840767266
 10
-4.8735761786
 20
1.4748772825
 10
-4.8644714504
 20
1.4663944592
  0
LWPOLYLINE
  5
2A2
100
AcDbEntity
  8
0
100
AcDbPolyline
 62
7
  6
CONTINUOUS
 90
4
 70
0
 10
-4.0240277378
 20
1.2557302161
 10
-4.0317301207
 20
1.2656413276
 10
-4.0401248157
 20
1.2748259153
 10
-4.0492118226
 20
1.2832839792
  0
LWPOLYLINE
  5
2A3
100
AcDbEntity
  8
DRAFT
100
AcDbPolyline
 62
7
  6
CONTINUOUS
 90
4
 70
0
 10
0.1241670477
 20
-4.1879745749
 10
0.1320279724
 20
-4.1987214597
 10
0.1402114993
 20
-4.2083246423
 10
0.1486989656
 20
-4.2167655621
  0
LWPOLYLINE
  5
2A4
100
AcDbEntity
  8
DRAFT
100
AcDbPolyline
 62
7
  6
CONTINUOUS
 90
13
 70
0
 10
-0.1893899867
 20
-3.0916285493
 10
-0.1972509114
 20
-3.0808816646
 10
-0.2054344383
 20
-3.0712784819
 10
-0.2139405676
 20
-3.0628190014
 10
-0.2229213507
 20
-3.0554025735
 10
-0.2322247362
 20
-3.0491298478
 10
-0.2413945695
 20
-3.0443027725
 10
-0.2504245602
 20
-3.0409894413
 10
-0.2593209987
 20
-3.0391217605
 10
-0.2676466027
 20
-3.0387973979
 10
-0.2752556111
 20
-3.0400489091
 10
-0.2822937849
 20
-3.0428437385
 10
-0.284248581
 20
-3.0438647459
  0
LWPOLYLINE
  5
2A5
100
AcDbEntity
  8
0
100
AcDbPolyline
 62
7
  6
CONTINUOUS
 90
12
 70
0
 10
0.1241670475
 20
-4.1879745746
 10
0.1320070884
 20
-4.1987024621
 10
0.1401780852
 20
-4.2082942464
 10
0.1486800378
 20
-4.2167499275
 10
0.1576679062
 20
-4.2241740309
 10
0.1669867305
 20
-4.2304620311
 10
0.1761716305
 20
-4.2353003517
 10
0.1852158193
 20
-4.2386155271
 10
0.1941260838
 20
-4.2404810229
 10
0.2024579046
 20
-4.2408036599
 10
0.2100631084
 20
-4.2395523782
 10
0.2178141351
 20
-4.2364472892
  0
LWPOLYLINE
  5
2A6
100
AcDbEntity
  8
0
100
AcDbPolyline
 62
7
  6
CONTINUOUS
 90
4
 70
0
 10
-0.1893899867
 20
-3.0916285493
 10
-0.1972300276
 20
-3.080900662
 10
-0.2054010242
 20
-3.0713088778
 10
-0.2139029768
 20
-3.0628531967
  0
LINE
  5
2A7
100
AcDbEntity
  8
0
100
AcDbLine
 62
7
  6
CONTINUOUS
 10
-0.4539118257
 20
-3.3219045395
 11
0.1241670475
 21
-4.1879745746
  0
LINE
  5
2A8
100
AcDbEntity
  8
DRAFT
100
AcDbLine
 62
7
  6
CONTINUOUS
 10
-0.4539118257
 20
-3.3219045395
 11
0.1241670477
 21
-4.1879745749
  0
LINE
  5
2A9
100
AcDbEntity
  8
0
100
AcDbLine
 62
7
  6
CONTINUOUS
 10
0.3886888869
 20
-3.957698585
 11
-0.1893899867
 21
-3.0916285493
  0
LINE
  5
2AA
100
AcDbEntity
  8
DRAFT
100
AcDbLine
 62
7
  6
CONTINUOUS
 10
0.3886888867
 20
-3.9576985848
 11
-0.1893899867
 21
-3.0916285493
  0
LINE
  5
2AB
100
AcDbEntity
  8
DRAFT
100
AcDbLine
 62
7
  6
CONTINUOUS
 10
-4.8967779312
 20
1.5047880159
 11
-4.8896705244
 21
1.4939710316
  0
LINE
  5
2AC
100
AcDbEntity
  8
0
100
AcDbLine
 62
7
  6
CONTINUOUS
 10
-4.0169053419
 20
1.2448904226
 11
-4.0240127487
 21
1.255707407
  0
LWPOLYLINE
  5
2AD
100
AcDbEntity
  8
0
100
AcDbPolyline
 62
7
  6
CONTINUOUS
 90
4
 70
0
 10
-1.81016802
 20
-3.2237319906
 10
-1.8170980609
 20
-3.2127548376
 10
-1.8248738387
 20
-3.2022659082
 10
-1.8330901685
 20
-3.1928084638
  0
LINE
  5
2AE
100
AcDbEntity
  8
0
100
AcDbLine
 62
7
  6
CONTINUOUS
 10
-4.0104862705
 20
1.2333439146
 11
-4.0169053419
 21
1.2448904226
  0
LINE
  5
2AF
100
AcDbEntity
  8
0
100
AcDbLine
 62
7
  6
CONTINUOUS
 10
-4.0050744606
 20
1.221637739
 11
-4.0104862705
 21
1.2333439146
  0
LWPOLYLINE
  5
2B0
100
AcDbEntity
  8
DRAFT
100
AcDbPolyline
 62
7
  6
CONTINUOUS
 90
4
 70
0
 10
-0.4717207941
 20
-3.2872609774
 10
-0.466842773
 20
-3.298844052
 10
-0.4609028748
 20
-3.310400396
 10
-0.4539118257
 20
-3.3219045395
  0
LWPOLYLINE
  5
2B1
100
AcDbEntity
  8
DRAFT
100
AcDbPolyline
 62
7
  6
CONTINUOUS
 90
7
 70
0
 10
-2.2083236083
 20
-3.9366047778
 10
-2.204234895
 20
-3.9484640345
 10
-2.199044507
 20
-3.960421402
 10
-2.1930107325
 20
-3.9718919028
 10
-2.1860938461
 20
-3.9828526045
 10
-2.1783335733
 20
-3.9933264396
 10
-2.1701073791
 20
-4.0027972283
  0
LWPOLYLINE
  5
2B2
100
AcDbEntity
  8
DRAFT
100
AcDbPolyline
 62
7
  6
CONTINUOUS
 90
7
 70
0
 10
-2.7757551038
 20
1.8940327218
 10
-2.7716663906
 20
1.8821734651
 10
-2.7664760025
 20
1.8702160976
 10
-2.760442228
 20
1.8587455967
 10
-2.7535253417
 20
1.847784895
 10
-2.7457650689
 20
1.8373110599
 10
-2.7375388746
 20
1.8278402712
  0
LWPOLYLINE
  5
2B3
100
AcDbEntity
  8
0
100
AcDbPolyline
 62
7
  6
CONTINUOUS
 90
4
 70
0
 10
-1.7948487794
 20
-3.2590444926
 10
-1.7989308684
 20
-3.2472004508
 10
-1.8041265757
 20
-3.2352221089
 10
-1.81016802
 20
-3.2237319906
  0
LWPOLYLINE
  5
2B4
100
AcDbEntity
  8
0
100
AcDbPolyline
 62
7
  6
CONTINUOUS
 90
16
 70
0
 10
-1.2220258463
 20
1.1915104811
 10
-1.2232933524
 20
1.2182985169
 10
-1.2267545114
 20
1.2455284457
 10
-1.2324093232
 20
1.2732002675
 10
-1.2403663025
 20
1.3016229658
 10
-1.2505169347
 20
1.3304875571
 10
-1.2625356758
 20
1.3588670912
 10
-1.2764853038
 20
1.3867492724
 10
-1.2923030407
 20
1.4141463963
 10
-1.3094750078
 20
1.440168399
 10
-1.3280432457
 20
1.4647670665
 10
-1.3479657138
 20
1.4879906127
 10
-1.3686024114
 20
1.5090936156
 10
-1.3897400049
 20
1.5278276012
 10
-1.411591828
 20
1.5444410433
 10
-1.4341578807
 20
1.5589339421
  0
LWPOLYLINE
  5
2B5
100
AcDbEntity
  8
0
100
AcDbPolyline
 62
7
  6
CONTINUOUS
 90
10
 70
0
 10
-1.646289915
 20
0.5728752776
 10
-1.6454320466
 20
0.5507681169
 10
-1.6430226387
 20
0.5282451492
 10
-1.6390616912
 20
0.5053063746
 10
-1.6334957151
 20
0.4817718027
 10
-1.6263781994
 20
0.4578214239
 10
-1.6178696114
 20
0.433995209
 10
-1.6080234401
 20
0.4104731482
 10
-1.5967861964
 20
0.3870752514
 10
-1.5841578805
 20
0.3638015185
  0
LWPOLYLINE
  5
2B6
100
AcDbEntity
  8
DRAFT
100
AcDbPolyline
 62
7
  6
CONTINUOUS
 90
10
 70
0
 10
-1.646289915
 20
0.5728752776
 10
-1.6454320466
 20
0.5507681169
 10
-1.6430226387
 20
0.5282451492
 10
-1.6390616912
 20
0.5053063746
 10
-1.6334957151
 20
0.4817718027
 10
-1.6263781994
 20
0.4578214239
 10
-1.6178696114
 20
0.433995209
 10
-1.6080234401
 20
0.4104731483
 10
-1.5967861966
 20
0.3870752516
 10
-1.5841578807
 20
0.3638015189
  0
LWPOLYLINE
  5
2B7
100
AcDbEntity
  8
DRAFT
100
AcDbPolyline
 62
7
  6
CONTINUOUS
 90
25
 70
0
 10
-1.2220258463
 20
1.1915104811
 10
-1.2224961461
 20
1.2079146129
 10
-1.2238548319
 20
1.224627646
 10
-1.2261019039
 20
1.2416495804
 10
-1.2292545434
 20
1.2590557366
 10
-1.233295569
 20
1.2767707942
 10
-1.2381734359
 20
1.2945687913
 10
-1.243898864
 20
1.3124507904
 10
-1.2504611335
 20
1.3304157291
 10
-1.2577765403
 20
1.3482344583
 10
-1.265854732
 20
1.3659051051
 10
-1.274686061
 20
1.3834295423
 10
-1.2841578807
 20
1.4005842398
 10
-1.2942783955
 20
1.4173644612
 10
-1.3050394011
 20
1.4337749428
 10
-1.3163036369
 20
1.4496063631
 10
-1.3280775493
 20
1.4648513046
 10
-1.3403546919
 20
1.4795171849
 10
-1.3529784656
 20
1.4934169355
 10
-1.3659533107
 20
1.5065407426
 10
-1.3792747867
 20
1.51889842
 10
-1.3927729738
 20
1.5303323413
 10
-1.4063912318
 20
1.5407899643
 10
-1.4201862007
 20
1.5503238313
 10
-1.4341578807
 20
1.5589339421
  0
LWPOLYLINE
  5
2B8
100
AcDbEntity
  8
0
100
AcDbPolyline
 62
7
  6
CONTINUOUS
 90
3
 70
0
 10
-0.0088638589
 20
-1.1258678111
 10
-0.0086059292
 20
-1.1366325314
 10
-0.0071688709
 20
-1.1483100204
  0
LINE
  5
2B9
100
AcDbEntity
  8
0
100
AcDbLine
 62
7
  6
CONTINUOUS
 10
-1.2220258463
 20
0.4293684402
 11
-1.2220258463
 21
1.1915104811
  0
LINE
  5
2BA
100
AcDbEntity
  8
DRAFT
100
AcDbLine
 62
7
  6
CONTINUOUS
 10
-1.2220258463
 20
0.4293684402
 11
-1.2220258463
 21
1.1915104811
  0
LWPOLYLINE
  5
2BB
100
AcDbEntity
  8
0
100
AcDbPolyline
 62
7
  6
CONTINUOUS
 90
4
 70
0
 10
-0.4949054473
 20
-1.7103698243
 10
-0.4894835754
 20
-1.5870594161
 10
-0.4919806618
 20
-1.4583836484
 10
-0.5023575447
 20
-1.3263643773
  0
LINE
  5
2BC
100
AcDbEntity
  8
0
100
AcDbLine
 62
7
  6
CONTINUOUS
 10
-1.7901466125
 20
-4.1577114007
 11
-1.7894573419
 21
-4.1471654059
  0
LINE
  5
2BD
100
AcDbEntity
  8
DRAFT
100
AcDbLine
 62
7
  6
CONTINUOUS
 10
-1.7901549345
 20
-4.1577297753
 11
-1.7894573419
 21
-4.1471654059
  0
LWPOLYLINE
  5
2BE
100
AcDbEntity
  8
DRAFT
100
AcDbPolyline
 62
7
  6
CONTINUOUS
 90
4
 70
0
 10
-0.0079211618
 20
-1.1158829856
 10
-0.0088447487
 20
-1.1257497001
 10
-0.0085939851
 20
-1.1365587117
 10
-0.0071688709
 20
-1.1483100204
  0
LINE
  5
2BF
100
AcDbEntity
  8
0
100
AcDbLine
 62
7
  6
CONTINUOUS
 10
-0.494948491
 20
-1.7107465694
 11
-0.4949054473
 21
-1.7103698243
  0
LWPOLYLINE
  5
2C0
100
AcDbEntity
  8
DRAFT
100
AcDbPolyline
 62
7
  6
CONTINUOUS
 90
7
 70
0
 10
-0.477783144
 20
-3.2217289861
 10
-0.4797153403
 20
-3.2309831411
 10
-0.4804957129
 20
-3.2412748419
 10
-0.4800908576
 20
-3.2520966707
 10
-0.4784449473
 20
-3.2634735978
 10
-0.4756138093
 20
-3.2753806529
 10
-0.4717315203
 20
-3.2872355074
  0
LWPOLYLINE
  5
2C1
100
AcDbEntity
  8
0
100
AcDbPolyline
 62
7
  6
CONTINUOUS
 90
4
 70
0
 10
-0.5587239742
 20
-2.0460870354
 10
-0.5297553461
 20
-1.9407207406
 10
-0.5083709176
 20
-1.8282279622
 10
-0.494948491
 20
-1.7107465694
  0
LWPOLYLINE
  5
2C2
100
AcDbEntity
  8
DRAFT
100
AcDbPolyline
 62
7
  6
CONTINUOUS
 90
4
 70
0
 10
-2.2083299732
 20
-3.0203056335
 10
-2.2112245506
 20
-3.0285038245
 10
-2.213023818
 20
-3.0378941182
 10
-2.2137214106
 20
-3.0484584875
  0
LWPOLYLINE
  5
2C3
100
AcDbEntity
  8
0
100
AcDbPolyline
 62
7
  6
CONTINUOUS
 90
3
 70
0
 10
-1.7948401646
 20
-4.1753032127
 10
-1.7919408868
 20
-4.1670906696
 10
-1.7901466125
 20
-4.1577114007
  0
LINE
  5
2C4
100
AcDbEntity
  8
DRAFT
100
AcDbLine
 62
7
  6
CONTINUOUS
 10
8.950557843
 20
6.3979279759
 11
8.6323597915
 21
6.1949491816
  0
LWPOLYLINE
  5
2C5
100
AcDbEntity
  8
DRAFT
100
AcDbPolyline
 62
7
  6
CONTINUOUS
 90
8
 70
0
 10
-3.5441327976
 20
-1.5324338169
 10
-3.5422758778
 20
-1.5312542427
 10
-3.5363359796
 20
-1.5265571443
 10
-3.5314472322
 20
-1.5205940027
 10
-3.5275649433
 20
-1.513222318
 10
-3.5247338052
 20
-1.5045845902
 10
-3.523087895
 20
-1.495108319
 10
-3.5226830396
 20
-1.484754007
  0
LWPOLYLINE
  5
2C6
100
AcDbEntity
  8
0
100
AcDbPolyline
 62
7
  6
CONTINUOUS
 90
4
 70
0
 10
-3.5441334915
 20
-1.5324341931
 10
-3.5422863843
 20
-1.5312701412
 10
-3.53635279
 20
-1.5265825819
 10
-3.5314661439
 20
-1.52062262
  0
LINE
  5
2C7
100
AcDbEntity
  8
DRAFT
100
AcDbLine
 62
7
  6
CONTINUOUS
 10
6.7202441037
 20
3.9402510026
 11
7.1657213758
 21
4.2112969434
  0
LINE
  5
2C8
100
AcDbEntity
  8
0
100
AcDbLine
 62
7
  6
CONTINUOUS
 10
-4.3922694717
 20
-1.196802345
 11
-4.3983963437
 21
-1.2005167635
  0
LINE
  5
2C9
100
AcDbEntity
  8
RACCORDO
100
AcDbLine
 62
250
  6
CONTINUOUS
 10
6.9433114057
 20
4.503007728
 11
6.7202441037
 21
4.3742114635
  0
LINE
  5
2CA
100
AcDbEntity
  8
RACCORDO
100
AcDbLine
 62
250
  6
CONTINUOUS
 10
7.084732762
 20
4.258058754
 11
6.7202441037
 21
4.0476075708
  0
LINE
  5
2CB
100
AcDbEntity
  8
DRAFT
100
AcDbLine
 62
7
  6
CONTINUOUS
 10
8.0746822556
 20
6.268875521
 11
6.9433114057
 21
5.6370347005
  0
LINE
  5
2CC
100
AcDbEntity
  8
DRAFT
100
AcDbLine
 62
250
  6
CONTINUOUS
 10
-3.5492669268
 20
-1.534685298
 11
-3.5443729358
 21
-1.5319966992
  0
LINE
  5
2CD
100
AcDbEntity
  8
0
100
AcDbLine
 62
250
  6
CONTINUOUS
 10
-3.5492669268
 20
-1.534685298
 11
-3.5443729358
 21
-1.5319966992
  0
LINE
  5
2CE
100
AcDbEntity
  8
DRAFT
100
AcDbLine
 62
7
  6
CONTINUOUS
 10
-4.3918676392
 20
-1.1974651611
 11
-4.3982220997
 21
-1.2004118534
  0
LINE
  5
2CF
100
AcDbEntity
  8
0
100
AcDbLine
 62
7
  6
CONTINUOUS
 10
-4.3918676392
 20
-1.1974651611
 11
-4.3982214508
 21
-1.2004114654
  0
LINE
  5
2D0
100
AcDbEntity
  8
DRAFT
100
AcDbLine
 62
7
  6
CONTINUOUS
 10
-3.5492669268
 20
-1.534685298
 11
-3.5441327976
 21
-1.5324338169
  0
LINE
  5
2D1
100
AcDbEntity
  8
0
100
AcDbLine
 62
7
  6
CONTINUOUS
 10
-3.5492669268
 20
-1.534685298
 11
-3.5441334915
 21
-1.5324341931
  0
LINE
  5
2D2
100
AcDbEntity
  8
0
100
AcDbLine
 62
7
  6
CONTINUOUS
 10
-3.8137887656
 20
-0.9989461187
 11
-4.3918676392
 21
-1.1974651611
  0
LINE
  5
2D3
100
AcDbEntity
  8
DRAFT
100
AcDbLine
 62
7
  6
CONTINUOUS
 10
-3.8137887658
 20
-0.9989461187
 11
-4.3918676392
 21
-1.1974651611
  0
LWPOLYLINE
  5
2D4
100
AcDbEntity
  8
0
100
AcDbPolyline
 62
7
  6
CONTINUOUS
 90
4
 70
0
 10
-3.7892757757
 20
-0.9984777525
 10
-3.7977777282
 20
-0.9971155919
 10
-3.8059487248
 20
-0.997271714
 10
-3.8137887656
 20
-0.9989461187
  0
LWPOLYLINE
  5
2D5
100
AcDbEntity
  8
DRAFT
100
AcDbPolyline
 62
7
  6
CONTINUOUS
 90
4
 70
0
 10
0.861292698
 20
-1.8395899994
 10
0.8703974261
 20
-1.841621088
 10
0.8788027542
 20
-1.8421279059
 10
0.8864917719
 20
-1.841112686
  0
LWPOLYLINE
  5
2D6
100
AcDbEntity
  8
DRAFT
100
AcDbPolyline
 62
7
  6
CONTINUOUS
 90
6
 70
0
 10
0.0460330701
 20
-1.0812590963
 10
0.036928342
 20
-1.0792280077
 10
0.0285230139
 20
-1.0787211897
 10
0.0208170859
 20
-1.0797386424
 10
0.013706487
 20
-1.0823533308
 10
0.011141701
 20
-1.0837129609
  0
LWPOLYLINE
  5
2D7
100
AcDbEntity
  8
0
100
AcDbPolyline
 62
7
  6
CONTINUOUS
 90
6
 70
0
 10
0.8612926981
 20
-1.8395899994
 10
0.870379705
 20
-1.8416253832
 10
0.8787743999
 20
-1.8421347788
 10
0.8864767828
 20
-1.8411181861
 10
0.8935936724
 20
-1.8385067029
 10
0.8949637843
 20
-1.8378417359
  0
LWPOLYLINE
  5
2D8
100
AcDbEntity
  8
0
100
AcDbPolyline
 62
7
  6
CONTINUOUS
 90
4
 70
0
 10
0.04603307
 20
-1.0812590963
 10
0.0369460631
 20
-1.0792237124
 10
0.0285513682
 20
-1.0787143168
 10
0.0208489852
 20
-1.0797309095
  0
LWPOLYLINE
  5
2D9
100
AcDbEntity
  8
DRAFT
100
AcDbPolyline
 62
7
  6
CONTINUOUS
 90
4
 70
0
 10
-4.1159182884
 20
0.8433326473
 10
-4.1070082564
 20
0.8406731536
 10
-4.0983270719
 20
0.8395017731
 10
-4.0902705566
 20
0.8398591416
  0
LINE
  5
2DA
100
AcDbEntity
  8
0
100
AcDbLine
 62
7
  6
CONTINUOUS
 10
0.1404468947
 20
-1.6133706219
 11
0.8612926981
 21
-1.8395899994
  0
LINE
  5
2DB
100
AcDbEntity
  8
DRAFT
100
AcDbLine
 62
7
  6
CONTINUOUS
 10
0.1404468948
 20
-1.6133706219
 11
0.861292698
 21
-1.8395899994
  0
LINE
  5
2DC
100
AcDbEntity
  8
0
100
AcDbLine
 62
7
  6
CONTINUOUS
 10
0.7668788734
 20
-1.3074784738
 11
0.04603307
 21
-1.0812590963
  0
LINE
  5
2DD
100
AcDbEntity
  8
DRAFT
100
AcDbLine
 62
7
  6
CONTINUOUS
 10
0.7668788733
 20
-1.3074784737
 11
0.0460330701
 21
-1.0812590963
  0
LINE
  5
2DE
100
AcDbEntity
  8
0
100
AcDbLine
 62
7
  6
CONTINUOUS
 10
-2.710442228
 20
1.8059623626
 11
-1.646289915
 21
1.191534154
  0
LINE
  5
2DF
100
AcDbEntity
  8
DRAFT
100
AcDbLine
 62
7
  6
CONTINUOUS
 10
-2.710442228
 20
1.8059623626
 11
-1.646289915
 21
1.191534154
  0
LWPOLYLINE
  5
2E0
100
AcDbEntity
  8
DRAFT
100
AcDbPolyline
 62
7
  6
CONTINUOUS
 90
4
 70
0
 10
0.1127395359
 20
-1.5982413829
 10
0.1217464747
 20
-1.6045083085
 10
0.130982261
 20
-1.6095513882
 10
0.1404468948
 20
-1.6133706219
  0
LWPOLYLINE
  5
2E1
100
AcDbEntity
  8
0
100
AcDbPolyline
 62
7
  6
CONTINUOUS
 90
4
 70
0
 10
0.7944604061
 20
-1.3225102391
 10
0.7854674469
 20
-1.3162541426
 10
0.7762736027
 20
-1.3112435542
 10
0.7668788734
 20
-1.3074784738
  0
LWPOLYLINE
  5
2E2
100
AcDbEntity
  8
0
100
AcDbPolyline
 62
7
  6
CONTINUOUS
 90
8
 70
0
 10
-3.2953035337
 20
0.8328825559
 10
-3.306289623
 20
0.8409844872
 10
-3.3169117097
 20
0.847082387
 10
-3.327169794
 20
0.8511762554
 10
-3.3372789308
 20
0.8532680286
 10
-3.3470240651
 20
0.8533557704
 10
-3.3557600316
 20
0.8514336718
 10
-3.3618372929
 20
0.8484952741
  0
LWPOLYLINE
  5
2E3
100
AcDbEntity
  8
DRAFT
100
AcDbPolyline
 62
7
  6
CONTINUOUS
 90
8
 70
0
 10
-3.2953035337
 20
0.8328825559
 10
-3.306289623
 20
0.8409844871
 10
-3.3169117097
 20
0.847082387
 10
-3.327169794
 20
0.8511762554
 10
-3.3372789308
 20
0.8532680286
 10
-3.3470240651
 20
0.8533557704
 10
-3.3557600316
 20
0.8514336718
 10
-3.3618372929
 20
0.8484952741
  0
LWPOLYLINE
  5
2E4
100
AcDbEntity
  8
DRAFT
100
AcDbPolyline
 62
7
  6
CONTINUOUS
 90
9
 70
0
 10
-4.7700576258
 20
1.8894792668
 10
-4.7795222596
 20
1.8965895548
 10
-4.7887580459
 20
1.9022117297
 10
-4.7977649847
 20
1.9063457913
 10
-4.8066750167
 20
1.909005285
 10
-4.8153562012
 20
1.9101766654
 10
-4.8234127165
 20
1.909819297
 10
-4.8308278541
 20
1.9078660009
 10
-4.8363830272
 20
1.9052190872
  0
LWPOLYLINE
  5
2E5
100
AcDbEntity
  8
0
100
AcDbPolyline
 62
7
  6
CONTINUOUS
 90
4
 70
0
 10
-4.7700576259
 20
1.8894792668
 10
-4.7794523552
 20
1.8965629843
 10
-4.7886461994
 20
1.9021692167
 10
-4.7976391586
 20
1.9062979641
  0
LINE
  5
2E6
100
AcDbEntity
  8
0
100
AcDbLine
 62
7
  6
CONTINUOUS
 10
-4.0492118226
 20
1.2832839792
 11
-4.7700576259
 21
1.8894792668
  0
LINE
  5
2E7
100
AcDbEntity
  8
DRAFT
100
AcDbLine
 62
7
  6
CONTINUOUS
 10
-4.0492118226
 20
1.2832839793
 11
-4.7700576258
 21
1.8894792668
  0
LINE
  5
2E8
100
AcDbEntity
  8
0
100
AcDbLine
 62
7
  6
CONTINUOUS
 10
-3.0119956326
 20
0.5946347729
 11
-3.2953035337
 21
0.8328825559
  0
LINE
  5
2E9
100
AcDbEntity
  8
DRAFT
100
AcDbLine
 62
7
  6
CONTINUOUS
 10
-3.0119956327
 20
0.5946347729
 11
-3.2953035337
 21
0.8328825559
  0
LINE
  5
2EA
100
AcDbEntity
  8
0
100
AcDbLine
 62
7
  6
CONTINUOUS
 10
0.7945223918
 20
-1.3225632933
 11
0.7944604061
 21
-1.3225102391
  0
LWPOLYLINE
  5
2EB
100
AcDbEntity
  8
DRAFT
100
AcDbPolyline
 62
7
  6
CONTINUOUS
 90
4
 70
0
 10
-2.7375200796
 20
1.8278220699
 10
-2.7289725806
 20
1.8195445887
 10
-2.719940365
 20
1.8122519525
 10
-2.710442228
 20
1.8059623626
  0
LWPOLYLINE
  5
2EC
100
AcDbEntity
  8
0
100
AcDbPolyline
 62
7
  6
CONTINUOUS
 90
4
 70
0
 10
0.8202339729
 20
-1.3487515765
 10
0.812133836
 20
-1.3390545553
 10
0.8033975636
 20
-1.3301596432
 10
0.7945223918
 20
-1.3225632933
  0
LWPOLYLINE
  5
2ED
100
AcDbEntity
  8
DRAFT
100
AcDbPolyline
 62
7
  6
CONTINUOUS
 90
4
 70
0
 10
0.0870918041
 20
-1.5720975309
 10
0.0951483194
 20
-1.5817583612
 10
0.1038295039
 20
-1.590611795
 10
0.1127395359
 20
-1.5982413829
  0
LWPOLYLINE
  5
2EE
100
AcDbEntity
  8
DRAFT
100
AcDbPolyline
 62
7
  6
CONTINUOUS
 90
3
 70
0
 10
0.0728861981
 20
-1.550257912
 10
0.0796766665
 20
-1.5615814197
 10
0.0870918041
 20
-1.5720975309
  0
LWPOLYLINE
  5
2EF
100
AcDbEntity
  8
0
100
AcDbPolyline
 62
7
  6
CONTINUOUS
 90
3
 70
0
 10
0.8344618485
 20
-1.3706336164
 10
0.8276659785
 20
-1.3592915419
 10
0.8202339729
 20
-1.3487515765
  0
LINE
  5
2F0
100
AcDbEntity
  8
0
100
AcDbLine
 62
7
  6
CONTINUOUS
 10
-1.5841578805
 20
0.3638015185
 11
-1.2322225755
 21
-0.24576831
  0
LINE
  5
2F1
100
AcDbEntity
  8
DRAFT
100
AcDbLine
 62
7
  6
CONTINUOUS
 10
-1.5841578807
 20
0.3638015189
 11
-1.2322225755
 21
-0.2457683102
  0
LINE
  5
2F2
100
AcDbEntity
  8
0
100
AcDbLine
 62
7
  6
CONTINUOUS
 10
-0.9322225758
 20
-0.072585548
 11
-1.2220258463
 21
0.4293684402
  0
LINE
  5
2F3
100
AcDbEntity
  8
DRAFT
100
AcDbLine
 62
7
  6
CONTINUOUS
 10
-0.9322225754
 20
-0.0725855486
 11
-1.2220258463
 21
0.4293684402
  0
LINE
  5
2F4
100
AcDbEntity
  8
DRAFT
100
AcDbLine
 62
7
  6
CONTINUOUS
 10
0.0670557058
 20
-1.5386615854
 11
0.0728861981
 21
-1.550257912
  0
LINE
  5
2F5
100
AcDbEntity
  8
0
100
AcDbLine
 62
7
  6
CONTINUOUS
 10
0.8402700622
 20
-1.3821875103
 11
0.8344618485
 21
-1.3706336164
  0
LWPOLYLINE
  5
2F6
100
AcDbEntity
  8
0
100
AcDbPolyline
 62
7
  6
CONTINUOUS
 90
4
 70
0
 10
-0.7263134798
 20
-0.4876391645
 10
-0.788247242
 20
-0.3482241124
 10
-0.8568836074
 20
-0.209872907
 10
-0.9322225758
 20
-0.072585548
  0
LWPOLYLINE
  5
2F7
100
AcDbEntity
  8
0
100
AcDbPolyline
 62
7
  6
CONTINUOUS
 90
4
 70
0
 10
0.4064896696
 20
-3.9923171607
 10
0.4016030235
 20
-3.9807142224
 10
0.3956694293
 20
-3.9691746972
 10
0.3886888869
 20
-3.957698585
  0
LWPOLYLINE
  5
2F8
100
AcDbEntity
  8
0
100
AcDbPolyline
 62
7
  6
CONTINUOUS
 90
4
 70
0
 10
-0.5807278112
 20
-0.9122673998
 10
-0.6220432477
 20
-0.7711501323
 10
-0.6708270622
 20
-0.6288627251
 10
-0.7263134798
 20
-0.4876391645
  0
LINE
  5
2F9
100
AcDbEntity
  8
0
100
AcDbLine
 62
7
  6
CONTINUOUS
 10
-0.5806481924
 20
-0.9125977038
 11
-0.5807278112
 21
-0.9122673998
  0
LWPOLYLINE
  5
2FA
100
AcDbEntity
  8
DRAFT
100
AcDbPolyline
 62
7
  6
CONTINUOUS
 90
4
 70
0
 10
0.0557736789
 20
-1.5030510376
 10
0.058567452
 20
-1.5151770229
 10
0.0623315908
 20
-1.5270557136
 10
0.0670557058
 20
-1.5386615854
  0
LWPOLYLINE
  5
2FB
100
AcDbEntity
  8
0
100
AcDbPolyline
 62
7
  6
CONTINUOUS
 90
13
 70
0
 10
0.055773679
 20
-1.5030510376
 10
0.0585548706
 20
-1.5151492966
 10
0.06231146
 20
-1.5270113507
 10
0.0670434472
 20
-1.5386372
 10
0.0728639195
 20
-1.5502154793
 10
0.0796597896
 20
-1.5615575538
 10
0.0870917951
 20
-1.5720975192
 10
0.0951919321
 20
-1.5817945404
 10
0.1039282045
 20
-1.5906894525
 10
0.112865362
 20
-1.5983388566
 10
0.1218583212
 20
-1.604594953
 10
0.1310521654
 20
-1.6096055415
 10
0.1404468947
 20
-1.6133706219
  0
LINE
  5
2FC
100
AcDbEntity
  8
0
100
AcDbLine
 62
7
  6
CONTINUOUS
 10
-0.0071688709
 20
-1.1483100204
 11
0.055773679
 21
-1.5030510376
  0
LINE
  5
2FD
100
AcDbEntity
  8
DRAFT
100
AcDbLine
 62
7
  6
CONTINUOUS
 10
-0.0071688709
 20
-1.1483100204
 11
0.0557736789
 21
-1.5030510376
  0
LWPOLYLINE
  5
2FE
100
AcDbEntity
  8
0
100
AcDbPolyline
 62
7
  6
CONTINUOUS
 90
4
 70
0
 10
0.4148679186
 20
-4.0275064536
 10
0.4132165057
 20
-4.0161099553
 10
0.4103765618
 20
-4.0041818514
 10
0.4064978551
 20
-3.9923421468
  0
LWPOLYLINE
  5
2FF
100
AcDbEntity
  8
0
100
AcDbPolyline
 62
7
  6
CONTINUOUS
 90
4
 70
0
 10
-0.5023575447
 20
-1.3263643773
 10
-0.5207383098
 20
-1.1909511003
 10
-0.5469988715
 20
-1.0521943199
 10
-0.5806481924
 20
-0.9125977038
  0
LINE
  5
300
100
AcDbEntity
  8
0
100
AcDbLine
 62
7
  6
CONTINUOUS
 10
-0.5023575447
 20
-1.3263643773
 11
-0.5023996586
 21
-1.3260541188
  0
LWPOLYLINE
  5
301
100
AcDbEntity
  8
0
100
AcDbPolyline
 62
7
  6
CONTINUOUS
 90
3
 70
0
 10
0.916189627
 20
-1.7949812845
 10
0.9159316972
 20
-1.7842165643
 10
0.9144946389
 20
-1.7725390753
  0
LWPOLYLINE
  5
302
100
AcDbEntity
  8
DRAFT
100
AcDbPolyline
 62
7
  6
CONTINUOUS
 90
3
 70
0
 10
0.9161705168
 20
-1.7950993955
 10
0.9159197532
 20
-1.7842903839
 10
0.9144946389
 20
-1.7725390752
  0
LINE
  5
303
100
AcDbEntity
  8
0
100
AcDbLine
 62
7
  6
CONTINUOUS
 10
0.9152534762
 20
-1.8048961757
 11
0.916189627
 21
-1.7949812845
  0
LWPOLYLINE
  5
304
100
AcDbEntity
  8
0
100
AcDbPolyline
 62
7
  6
CONTINUOUS
 90
4
 70
0
 10
0.4125534629
 20
-4.0578917949
 10
0.414484688
 20
-4.0486507531
 10
0.4152705688
 20
-4.0383444061
 10
0.4148679186
 20
-4.0275064536
  0
LWPOLYLINE
  5
305
100
AcDbEntity
  8
0
100
AcDbPolyline
 62
7
  6
CONTINUOUS
 90
4
 70
0
 10
-0.0024519693
 20
-1.098779254
 10
-0.005786879
 20
-1.1069411725
 10
-0.00794266
 20
-1.1160158596
 10
-0.0088638589
 20
-1.1258678111
  0
LWPOLYLINE
  5
306
100
AcDbEntity
  8
0
100
AcDbPolyline
 62
7
  6
CONTINUOUS
 90
3
 70
0
 10
0.9097777374
 20
-1.8220698416
 10
0.913112647
 20
-1.8139079232
 10
0.9152534762
 20
-1.8048961757
  0
LWPOLYLINE
  5
307
100
AcDbEntity
  8
DRAFT
100
AcDbPolyline
 62
7
  6
CONTINUOUS
 90
4
 70
0
 10
0.9097682127
 20
-1.8221147003
 10
0.9130947466
 20
-1.8140115537
 10
0.9152469299
 20
-1.8049661101
 10
0.9161705168
 20
-1.7950993955
  0
LWPOLYLINE
  5
308
100
AcDbEntity
  8
0
100
AcDbPolyline
 62
7
  6
CONTINUOUS
 90
4
 70
0
 10
-0.6908002968
 20
-2.3176658946
 10
-0.6396543289
 20
-2.235219556
 10
-0.5953970518
 20
-2.1442165375
 10
-0.5587239742
 20
-2.0460870354
  0
LINE
  5
309
100
AcDbEntity
  8
0
100
AcDbLine
 62
7
  6
CONTINUOUS
 10
0.90543006
 20
-1.8289124784
 11
0.9097777374
 21
-1.8220698416
  0
LWPOLYLINE
  5
30A
100
AcDbEntity
  8
DRAFT
100
AcDbPolyline
 62
7
  6
CONTINUOUS
 90
4
 70
0
 10
0.0018957024
 20
-1.0919366243
 10
-0.0024424447
 20
-1.0987343954
 10
-0.0057689785
 20
-1.1068375419
 10
-0.0079211618
 20
-1.1158829856
  0
LINE
  5
30B
100
AcDbEntity
  8
0
100
AcDbLine
 62
7
  6
CONTINUOUS
 10
-0.6909643284
 20
-2.3178739679
 11
-0.6908002968
 21
-2.3176658946
  0
LWPOLYLINE
  5
30C
100
AcDbEntity
  8
DRAFT
100
AcDbPolyline
 62
7
  6
CONTINUOUS
 90
4
 70
0
 10
-0.4651090166
 20
-3.2006992127
 10
-0.4704855495
 20
-3.2066715915
 10
-0.4747102587
 20
-3.2136815159
 10
-0.4777764019
 20
-3.2217113294
  0
LWPOLYLINE
  5
30D
100
AcDbEntity
  8
0
100
AcDbPolyline
 62
7
  6
CONTINUOUS
 90
13
 70
0
 10
-0.4651090167
 20
-3.2006992128
 10
-0.4704795397
 20
-3.2066509478
 10
-0.4747006429
 20
-3.213648486
 10
-0.4777723263
 20
-3.2216918273
 10
-0.479707627
 20
-3.2309523712
 10
-0.4804935078
 20
-3.2412587182
 10
-0.4800908576
 20
-3.2520966707
 10
-0.4784394447
 20
-3.263493169
 10
-0.4755995008
 20
-3.2754212728
 10
-0.4717126086
 20
-3.2872859636
 10
-0.4668259625
 20
-3.2988889019
 10
-0.4608923682
 20
-3.3104284272
 10
-0.4539118257
 20
-3.3219045395
  0
LINE
  5
30E
100
AcDbEntity
  8
0
100
AcDbLine
 62
7
  6
CONTINUOUS
 10
-0.288761124
 20
-3.0471818859
 11
-0.4651090167
 21
-3.2006992128
  0
LINE
  5
30F
100
AcDbEntity
  8
DRAFT
100
AcDbLine
 62
7
  6
CONTINUOUS
 10
-0.288761124
 20
-3.0471818859
 11
-0.4651090166
 21
-3.2006992127
  0
LWPOLYLINE
  5
310
100
AcDbEntity
  8
0
100
AcDbPolyline
 62
7
  6
CONTINUOUS
 90
4
 70
0
 10
-0.8846925127
 20
-2.5120916086
 10
-0.8139734963
 20
-2.4566155766
 10
-0.7489425511
 20
-2.3914190756
 10
-0.6909643284
 20
-2.3178739679
  0
LWPOLYLINE
  5
311
100
AcDbEntity
  8
0
100
AcDbPolyline
 62
7
  6
CONTINUOUS
 90
7
 70
0
 10
-2.1936409072
 20
-3.0030564798
 10
-2.1990521768
 20
-3.0071970164
 10
-2.2042478842
 20
-3.0131754857
 10
-2.2083385879
 20
-3.0203206807
 10
-2.2112378658
 20
-3.0285332238
 10
-2.21303214
 20
-3.0379124927
 10
-2.2137214106
 20
-3.0484584875
  0
LWPOLYLINE
  5
312
100
AcDbEntity
  8
DRAFT
100
AcDbPolyline
 62
7
  6
CONTINUOUS
 90
4
 70
0
 10
-2.1936408562
 20
-3.0030564489
 10
-2.199044507
 20
-3.0071862559
 10
-2.204234895
 20
-3.0131498934
 10
-2.2083236083
 20
-3.0202876065
  0
LWPOLYLINE
  5
313
100
AcDbEntity
  8
DRAFT
100
AcDbPolyline
 62
7
  6
CONTINUOUS
 90
3
 70
0
 10
0.011141701
 20
-1.0837129609
 10
0.0072952881
 20
-1.0864922898
 10
0.0018957024
 20
-1.0919366243
  0
LWPOLYLINE
  5
314
100
AcDbEntity
  8
0
100
AcDbPolyline
 62
7
  6
CONTINUOUS
 90
4
 70
0
 10
0.0111431173
 20
-1.0837121015
 10
0.007307518
 20
-1.0864798642
 10
0.001895708
 20
-1.0919366172
 10
-0.0024519693
 20
-1.098779254
  0
LWPOLYLINE
  5
315
100
AcDbEntity
  8
0
100
AcDbPolyline
 62
7
  6
CONTINUOUS
 90
20
 70
0
 10
-1.2228687389
 20
-2.0169549065
 10
-1.1587338824
 20
-1.9710526638
 10
-1.1055836387
 20
-1.9198416452
 10
-1.0580269788
 20
-1.8601283322
 10
-1.0170044851
 20
-1.7930937435
 10
-0.9826462491
 20
-1.7185921169
 10
-0.9548221794
 20
-1.6367692147
 10
-0.9340825846
 20
-1.5492433422
 10
-0.9205685123
 20
-1.4559009568
 10
-0.9141389148
 20
-1.3568556011
 10
-0.9149209577
 20
-1.2540662089
 10
-0.9230582205
 20
-1.1474582385
 10
-0.9384071236
 20
-1.0371062316
 10
-0.9606640943
 20
-0.9251927464
 10
-0.9899666679
 20
-0.8116866947
 10
-1.0261773091
 20
-0.6966191648
 10
-1.0685798384
 20
-0.582265979
 10
-1.1169355293
 20
-0.4693857451
 10
-1.1714831084
 20
-0.3572198554
 10
-1.2322225755
 20
-0.24576831
  0
LWPOLYLINE
  5
316
100
AcDbEntity
  8
DRAFT
100
AcDbPolyline
 62
7
  6
CONTINUOUS
 90
20
 70
0
 10
-1.2228687389
 20
-2.0169549065
 10
-1.1587338824
 20
-1.9710526638
 10
-1.1055836388
 20
-1.9198416452
 10
-1.0580269788
 20
-1.8601283322
 10
-1.0170044851
 20
-1.7930937435
 10
-0.9826462491
 20
-1.7185921169
 10
-0.9548221794
 20
-1.6367692147
 10
-0.9340825846
 20
-1.5492433422
 10
-0.9205685123
 20
-1.4559009568
 10
-0.9141389148
 20
-1.3568556011
 10
-0.9149209577
 20
-1.2540662089
 10
-0.9230582205
 20
-1.1474582385
 10
-0.9384071236
 20
-1.0371062316
 10
-0.9606640943
 20
-0.9251927464
 10
-0.9899666679
 20
-0.8116866947
 10
-1.0261773091
 20
-0.6966191647
 10
-1.0685798384
 20
-0.582265979
 10
-1.1169355293
 20
-0.4693857451
 10
-1.1714831083
 20
-0.3572198555
 10
-1.2322225755
 20
-0.2457683102
  0
LWPOLYLINE
  5
317
100
AcDbEntity
  8
DRAFT
100
AcDbPolyline
 62
7
  6
CONTINUOUS
 90
4
 70
0
 10
0.8949650913
 20
-1.8378410166
 10
0.90003048
 20
-1.8343568058
 10
0.9054300656
 20
-1.8289124713
 10
0.9097682127
 20
-1.8221147003
  0
LWPOLYLINE
  5
318
100
AcDbEntity
  8
0
100
AcDbPolyline
 62
7
  6
CONTINUOUS
 90
3
 70
0
 10
0.8949637843
 20
-1.8378417359
 10
0.9000182501
 20
-1.8343692315
 10
0.90543006
 20
-1.8289124784
  0
LWPOLYLINE
  5
319
100
AcDbEntity
  8
DRAFT
100
AcDbPolyline
 62
7
  6
CONTINUOUS
 90
23
 70
0
 10
-0.9456200971
 20
-2.5496454685
 10
-0.8844440802
 20
-2.5119384825
 10
-0.8137262614
 20
-2.4565485801
 10
-0.7490402645
 20
-2.3917028442
 10
-0.6911048758
 20
-2.3181009185
 10
-0.639853306
 20
-2.2353418325
 10
-0.5953523446
 20
-2.1438265566
 10
-0.558521146
 20
-2.0454576465
 10
-0.5295925589
 20
-1.9404753757
 10
-0.5083337346
 20
-1.8286394705
 10
-0.4949652822
 20
-1.7111316661
 10
-0.4895733927
 20
-1.587472245
 10
-0.4920718751
 20
-1.4581409246
 10
-0.5024227657
 20
-1.3257585922
 10
-0.520722383
 20
-1.1906517527
 10
-0.5468744085
 20
-1.0524939011
 10
-0.5805519229
 20
-0.9129264095
 10
-0.6219339477
 20
-0.771630336
 10
-0.6708414613
 20
-0.6289246224
 10
-0.7264104793
 20
-0.4874074671
 10
-0.788353007
 20
-0.347944936
 10
-0.856957039
 20
-0.2096709632
 10
-0.9322225754
 20
-0.0725855486
  0
LINE
  5
31A
100
AcDbEntity
  8
0
100
AcDbLine
 62
7
  6
CONTINUOUS
 10
-0.9456212667
 20
-2.5496461105
 11
-0.8846925127
 21
-2.5120916086
  0
LINE
  5
31B
100
AcDbEntity
  8
DRAFT
100
AcDbLine
 62
7
  6
CONTINUOUS
 10
0.8936192811
 20
-1.8384957649
 11
0.8949650913
 21
-1.8378410166
  0
LINE
  5
31C
100
AcDbEntity
  8
0
100
AcDbLine
 62
7
  6
CONTINUOUS
 10
0.8935936724
 20
-1.8385067029
 11
0.8949637843
 21
-1.8378417359
  0
LWPOLYLINE
  5
31D
100
AcDbEntity
  8
0
100
AcDbPolyline
 62
7
  6
CONTINUOUS
 90
3
 70
0
 10
0.0208339961
 20
-1.0797364097
 10
0.0137320956
 20
-1.0823423927
 10
0.0111431173
 20
-1.0837121015
  0
LINE
  5
31E
100
AcDbEntity
  8
DRAFT
100
AcDbLine
 62
7
  6
CONTINUOUS
 10
0.8864917719
 20
-1.841112686
 11
0.8936192811
 21
-1.8384957649
  0
LINE
  5
31F
100
AcDbEntity
  8
0
100
AcDbLine
 62
7
  6
CONTINUOUS
 10
-4.1273458001
 20
-1.7332043405
 11
-3.5492669268
 21
-1.534685298
  0
LINE
  5
320
100
AcDbEntity
  8
DRAFT
100
AcDbLine
 62
7
  6
CONTINUOUS
 10
-4.1273458002
 20
-1.7332043405
 11
-3.5492669268
 21
-1.534685298
  0
LWPOLYLINE
  5
321
100
AcDbEntity
  8
DRAFT
100
AcDbPolyline
 62
7
  6
CONTINUOUS
 90
3
 70
0
 10
-4.0902705566
 20
0.8398591416
 10
-4.082855419
 20
0.8418124376
 10
-4.0785201484
 20
0.8437560586
  0
LWPOLYLINE
  5
322
100
AcDbEntity
  8
0
100
AcDbPolyline
 62
7
  6
CONTINUOUS
 90
4
 70
0
 10
-4.7976391586
 20
1.9062979641
 10
-4.8065763161
 20
1.9089689654
 10
-4.8153125885
 20
1.9101624817
 10
-4.8234127254
 20
1.9098192956
  0
LINE
  5
323
100
AcDbEntity
  8
0
100
AcDbLine
 62
7
  6
CONTINUOUS
 10
-4.7976391586
 20
1.9062979641
 11
-4.7977011443
 21
1.9063164894
  0
LWPOLYLINE
  5
324
100
AcDbEntity
  8
0
100
AcDbPolyline
 62
7
  6
CONTINUOUS
 90
9
 70
0
 10
-2.5690208718
 20
2.21418961
 10
-2.5915869244
 20
2.2257554231
 10
-2.6134387475
 20
2.2343759186
 10
-2.6345763411
 20
2.2400510963
 10
-2.6552130387
 20
2.2427788345
 10
-2.6751355068
 20
2.242561255
 10
-2.6937037447
 20
2.2394047232
 10
-2.7108757117
 20
2.2332124777
 10
-2.7208528928
 20
2.2279724088
  0
LWPOLYLINE
  5
325
100
AcDbEntity
  8
DRAFT
100
AcDbPolyline
 62
7
  6
CONTINUOUS
 90
14
 70
0
 10
-2.5690208718
 20
2.21418961
 10
-2.5829925517
 20
2.221713645
 10
-2.5967875207
 20
2.2281098624
 10
-2.6104057787
 20
2.2333782623
 10
-2.6239039657
 20
2.2375317091
 10
-2.6372254418
 20
2.2405573383
 10
-2.6502002868
 20
2.2424165571
 10
-2.6628240605
 20
2.2430944239
 10
-2.6751012032
 20
2.2426058802
 10
-2.6868751156
 20
2.2409571576
 10
-2.6981393514
 20
2.2381333944
 10
-2.7089003569
 20
2.2341494523
 10
-2.7190208718
 20
2.2290561478
 10
-2.7208775939
 20
2.2279574349
  0
LINE
  5
326
100
AcDbEntity
  8
0
100
AcDbLine
 62
7
  6
CONTINUOUS
 10
-1.4341578807
 20
1.5589339421
 11
-2.5690208718
 21
2.21418961
  0
LINE
  5
327
100
AcDbEntity
  8
DRAFT
100
AcDbLine
 62
7
  6
CONTINUOUS
 10
-1.4341578807
 20
1.5589339421
 11
-2.5690208718
 21
2.21418961
  0
LWPOLYLINE
  5
328
100
AcDbEntity
  8
DRAFT
100
AcDbPolyline
 62
7
  6
CONTINUOUS
 90
13
 70
0
 10
0.8515520892
 20
-1.4177980581
 10
0.8487583161
 20
-1.4056720728
 10
0.8449941773
 20
-1.393793382
 10
0.8402596726
 20
-1.3821619859
 10
0.83443957
 20
-1.3705911836
 10
0.8276491016
 20
-1.3592676759
 10
0.820233964
 20
-1.3487515648
 10
0.8121774487
 20
-1.3390907344
 10
0.8034962642
 20
-1.3302373006
 10
0.7945862322
 20
-1.3226077127
 10
0.7855792934
 20
-1.3163407871
 10
0.7763435071
 20
-1.3112977075
 10
0.7668788733
 20
-1.3074784737
  0
LWPOLYLINE
  5
329
100
AcDbEntity
  8
0
100
AcDbPolyline
 62
7
  6
CONTINUOUS
 90
4
 70
0
 10
0.8515520893
 20
-1.4177980585
 10
0.8487708975
 20
-1.4056997994
 10
0.8450143081
 20
-1.3938377451
 10
0.8402823209
 20
-1.3822118957
  0
LINE
  5
32A
100
AcDbEntity
  8
0
100
AcDbLine
 62
7
  6
CONTINUOUS
 10
0.9144946389
 20
-1.7725390753
 11
0.8515520893
 21
-1.4177980585
  0
LINE
  5
32B
100
AcDbEntity
  8
DRAFT
100
AcDbLine
 62
7
  6
CONTINUOUS
 10
0.9144946389
 20
-1.7725390752
 11
0.8515520892
 21
-1.4177980581
  0
LWPOLYLINE
  5
32C
100
AcDbEntity
  8
DRAFT
100
AcDbPolyline
 62
7
  6
CONTINUOUS
 90
13
 70
0
 10
0.3998860776
 20
-4.0789039116
 10
0.4052626105
 20
-4.0729315328
 10
0.4094873197
 20
-4.0659216083
 10
0.412560205
 20
-4.0578741382
 10
0.4144924013
 20
-4.0486199831
 10
0.4152727739
 20
-4.0383282823
 10
0.4148679186
 20
-4.0275064535
 10
0.4132220083
 20
-4.0161295265
 10
0.4103908703
 20
-4.0042224714
 10
0.4065085813
 20
-3.9923676168
 10
0.401619834
 20
-3.9807590723
 10
0.3956799358
 20
-3.9692027282
 10
0.3886888867
 20
-3.9576985848
  0
LWPOLYLINE
  5
32D
100
AcDbEntity
  8
0
100
AcDbPolyline
 62
7
  6
CONTINUOUS
 90
4
 70
0
 10
0.3998860776
 20
-4.0789039116
 10
0.4052566007
 20
-4.0729521765
 10
0.4094777039
 20
-4.0659546383
 10
0.4125493873
 20
-4.0579112969
  0
LINE
  5
32E
100
AcDbEntity
  8
0
100
AcDbLine
 62
7
  6
CONTINUOUS
 10
0.223538185
 20
-4.2324212383
 11
0.3998860776
 21
-4.0789039116
  0
LINE
  5
32F
100
AcDbEntity
  8
DRAFT
100
AcDbLine
 62
7
  6
CONTINUOUS
 10
0.223538185
 20
-4.2324212383
 11
0.3998860776
 21
-4.0789039116
  0
LINE
  5
330
100
AcDbEntity
  8
0
100
AcDbLine
 62
7
  6
CONTINUOUS
 10
-0.2842492538
 20
-3.0438651588
 11
-0.288761124
 21
-3.0471818859
  0
LINE
  5
331
100
AcDbEntity
  8
DRAFT
100
AcDbLine
 62
7
  6
CONTINUOUS
 10
-0.284248581
 20
-3.0438647459
 11
-0.288761124
 21
-3.0471818859
  0
LWPOLYLINE
  5
332
100
AcDbEntity
  8
0
100
AcDbPolyline
 62
7
  6
CONTINUOUS
 90
4
 70
0
 10
-1.8108012421
 20
-4.1932968861
 10
-1.8041265757
 20
-4.188426877
 10
-1.7989308684
 20
-4.1824484078
 10
-1.7948487794
 20
-4.1753182599
  0
LWPOLYLINE
  5
333
100
AcDbEntity
  8
DRAFT
100
AcDbPolyline
 62
7
  6
CONTINUOUS
 90
6
 70
0
 10
-1.8108011903
 20
-4.1932968577
 10
-1.8041342456
 20
-4.1884376375
 10
-1.7989438575
 20
-4.1824740001
 10
-1.7948551442
 20
-4.1753362869
 10
-1.791954202
 20
-4.1671200689
 10
-1.7901549345
 20
-4.1577297753
  0
LINE
  5
334
100
AcDbEntity
  8
0
100
AcDbLine
 62
7
  6
CONTINUOUS
 10
0.2178141351
 20
-4.2364472892
 11
0.223538185
 21
-4.2324212383
  0
LINE
  5
335
100
AcDbEntity
  8
DRAFT
100
AcDbLine
 62
7
  6
CONTINUOUS
 10
0.2178134744
 20
-4.2364476574
 11
0.223538185
 21
-4.2324212383
  0
LINE
  5
336
100
AcDbEntity
  8
DRAFT
100
AcDbLine
 62
250
  6
CONTINUOUS
 10
-0.288761124
 20
-3.0471818859
 11
-0.2839905711
 21
-3.0442904313
  0
LINE
  5
337
100
AcDbEntity
  8
0
100
AcDbLine
 62
250
  6
CONTINUOUS
 10
-0.288761124
 20
-3.0471818859
 11
-0.2839905711
 21
-3.0442904313
  0
LINE
  5
338
100
AcDbEntity
  8
0
100
AcDbLine
 62
7
  6
CONTINUOUS
 10
0.2239107444
 20
-4.2330995706
 11
0.2176355584
 21
-4.2365460812
  0
LWPOLYLINE
  5
339
100
AcDbEntity
  8
DRAFT
100
AcDbPolyline
 62
7
  6
CONTINUOUS
 90
4
 70
0
 10
-1.1320696807
 20
-2.6206735449
 10
-1.0445650126
 20
-2.5943757214
 10
-0.9614886355
 20
-2.5578850187
 10
-0.9456200971
 20
-2.5496454685
  0
LWPOLYLINE
  5
33A
100
AcDbEntity
  8
0
100
AcDbPolyline
 62
7
  6
CONTINUOUS
 90
3
 70
0
 10
-4.8234127254
 20
1.9098192956
 10
-4.830844731
 20
1.9078616239
 10
-4.8363843029
 20
1.9052183153
  0
LWPOLYLINE
  5
33B
100
AcDbEntity
  8
RACCORDO
100
AcDbPolyline
 62
7
  6
CONTINUOUS
 90
13
 70
0
 10
6.9433114057
 20
-17.133454607
 10
6.9446896216
 20
-17.1561374064
 10
6.9482779748
 20
-17.1790392532
 10
6.9540764655
 20
-17.2021601472
 10
6.9622579507
 20
-17.2258986043
 10
6.9726495734
 20
-17.2498561086
 10
6.984732762
 20
-17.2728371128
 10
6.9985933584
 20
-17.2947920623
 10
7.0141455207
 20
-17.3157705117
 10
7.030613152
 20
-17.3347255766
 10
7.0477375531
 20
-17.3513082958
 10
7.0657774231
 20
-17.3658676306
 10
7.084732762
 20
-17.378403581
  0
LWPOLYLINE
  5
33C
100
AcDbEntity
  8
COPY_PUBLISH
100
AcDbPolyline
 62
250
  6
CONTINUOUS
 90
9
 70
0
 10
5.4325177079
 20
-26.2740129708
 10
5.4343905448
 20
-26.3148951431
 10
5.4399892141
 20
-26.3531814897
 10
5.4492544013
 20
-26.3884663911
 10
5.4620879479
 20
-26.4203760262
 10
5.4783538906
 20
-26.4485723324
 10
5.4978799019
 20
-26.4727565877
 10
5.5204591161
 20
-26.4926725752
 10
5.5360590184
 20
-26.5028814014
  0
LINE
  5
33D
100
AcDbEntity
  8
COPY_PUBLISH
100
AcDbLine
 62
250
  6
CONTINUOUS
 10
5.4325177079
 20
15.8777593114
 11
5.4325177079
 21
-26.2740129708
  0
LWPOLYLINE
  5
33E
100
AcDbEntity
  8
COPY_PUBLISH
100
AcDbPolyline
 62
250
  6
CONTINUOUS
 90
16
 70
0
 10
6.1302483864
 20
15.8724855727
 10
6.1273584387
 20
15.9158624947
 10
6.1207097378
 20
15.9610678903
 10
6.110375545
 20
16.0076038759
 10
6.0964678936
 20
16.0549634487
 10
6.0791410103
 20
16.102619559
 10
6.0585934948
 20
16.1500308146
 10
6.0350603679
 20
16.1966655647
 10
6.0087991882
 20
16.2420226919
 10
5.9800917156
 20
16.2856190029
 10
5.9492088091
 20
16.3270321491
 10
5.9165296775
 20
16.3657433662
 10
5.8825498609
 20
16.4011942835
 10
5.84770168
 20
16.4329970801
 10
5.8123287117
 20
16.4608992561
 10
5.7768161449
 20
16.4846481602
  0
LWPOLYLINE
  5
33F
100
AcDbEntity
  8
RACCORDO
100
AcDbPolyline
 62
7
  6
CONTINUOUS
 90
13
 70
0
 10
6.9433114057
 20
4.503007728
 10
6.9446896216
 20
4.4803249286
 10
6.9482779748
 20
4.4574230819
 10
6.9540764655
 20
4.4343021879
 10
6.9622579507
 20
4.4105637308
 10
6.9726495734
 20
4.3866062264
 10
6.984732762
 20
4.3636252222
 10
6.9985933584
 20
4.3416702727
 10
7.0141455207
 20
4.3206918233
 10
7.030613152
 20
4.3017367584
 10
7.0477375531
 20
4.2851540392
 10
7.0657774231
 20
4.2705947044
 10
7.084732762
 20
4.258058754
  0
LINE
  5
340
100
AcDbEntity
  8
COPY_PUBLISH
100
AcDbLine
 62
250
  6
CONTINUOUS
 10
6.1302483864
 20
15.8724855727
 11
6.1302483864
 21
-26.2792867095
  0
LINE
  5
341
100
AcDbEntity
  8
0
100
AcDbLine
 62
7
  6
CONTINUOUS
 10
6.7202441037
 20
-25.9733999633
 11
6.7202441037
 21
16.2131400254
  0
LINE
  5
342
100
AcDbEntity
  8
RACCORDO
100
AcDbLine
 62
7
  6
CONTINUOUS
 10
6.9433114057
 20
-17.133454607
 11
6.9433114057
 21
-13.4781370047
  0
LINE
  5
343
100
AcDbEntity
  8
RACCORDO
100
AcDbLine
 62
7
  6
CONTINUOUS
 10
6.9433114057
 20
4.503007728
 11
6.9433114057
 21
8.1583253303
  0
LINE
  5
344
100
AcDbEntity
  8
RACCORDO
100
AcDbLine
 62
7
  6
CONTINUOUS
 10
7.1657213758
 20
-25.6069609106
 11
7.1657213758
 21
-17.4251653916
  0
LINE
  5
345
100
AcDbEntity
  8
DRAFT
100
AcDbLine
 62
7
  6
CONTINUOUS
 10
7.1657213758
 20
-13.3428140076
 11
7.1657213758
 21
4.2112969434
  0
LINE
  5
346
100
AcDbEntity
  8
RACCORDO
100
AcDbLine
 62
7
  6
CONTINUOUS
 10
7.1657213758
 20
8.2936483274
 11
7.1657213758
 21
9.1772161917
  0
LINE
  5
347
100
AcDbEntity
  8
RACCORDO
100
AcDbLine
 62
7
  6
CONTINUOUS
 10
7.1657213758
 20
12.7171372622
 11
7.1657213758
 21
16.4754438463
  0
LWPOLYLINE
  5
348
100
AcDbEntity
  8
RACCORDO
100
AcDbPolyline
 62
250
  6
CONTINUOUS
 90
8
 70
0
 10
8.2867970935
 20
9.201225597
 10
8.3178082864
 20
9.2088952653
 10
8.3477731327
 20
9.2129743158
 10
8.3763640344
 20
9.2134725993
 10
8.4034338821
 20
9.2104837904
 10
8.4289694485
 20
9.2040543416
 10
8.4527781298
 20
9.1941709812
 10
8.4604847802
 20
9.1899995739
  0
LINE
  5
349
100
AcDbEntity
  8
DRAFT
100
AcDbLine
 62
7
  6
CONTINUOUS
 10
8.6323597915
 20
6.1949491816
 11
8.0746822556
 21
6.268875521
  0
LINE
  5
34A
100
AcDbEntity
  8
RACCORDO
100
AcDbLine
 62
7
  6
CONTINUOUS
 10
7.1657213758
 20
4.2112969434
 11
7.084732762
 21
4.258058754
  0
LINE
  5
34B
100
AcDbEntity
  8
DRAFT
100
AcDbLine
 62
7
  6
CONTINUOUS
 10
8.0746822556
 20
8.6975860123
 11
8.0746822556
 21
6.268875521
  0
LINE
  5
34C
100
AcDbEntity
  8
DRAFT
100
AcDbLine
 62
7
  6
CONTINUOUS
 10
8.0746822556
 20
-15.367586814
 11
8.0746822556
 21
-12.9388763227
  0
LINE
  5
34D
100
AcDbEntity
  8
RACCORDO
100
AcDbLine
 62
7
  6
CONTINUOUS
 10
8.5429024528
 20
12.7875671286
 11
8.5429024528
 21
10.7826488845
  0
LINE
  5
34E
100
AcDbEntity
  8
DRAFT
100
AcDbLine
 62
7
  6
CONTINUOUS
 10
8.6323597915
 20
8.5989552047
 11
8.6323597915
 21
6.1949491816
  0
LINE
  5
34F
100
AcDbEntity
  8
DRAFT
100
AcDbLine
 62
7
  6
CONTINUOUS
 10
8.6323597915
 20
-15.4415131534
 11
8.6323597915
 21
-13.0375071303
  0
LINE
  5
350
100
AcDbEntity
  8
RACCORDO
100
AcDbLine
 62
7
  6
CONTINUOUS
 10
8.950557843
 20
8.9069922052
 11
8.950557843
 21
8.7634235444
  0
LINE
  5
351
100
AcDbEntity
  8
DRAFT
100
AcDbLine
 62
7
  6
CONTINUOUS
 10
8.950557843
 20
8.7634235444
 11
8.950557843
 21
6.3979279759
  0
LINE
  5
352
100
AcDbEntity
  8
RACCORDO
100
AcDbLine
 62
7
  6
CONTINUOUS
 10
8.950557843
 20
-12.7294701298
 11
8.950557843
 21
-12.8730387906
  0
LINE
  5
353
100
AcDbEntity
  8
DRAFT
100
AcDbLine
 62
7
  6
CONTINUOUS
 10
8.950557843
 20
-15.2385343591
 11
8.950557843
 21
-12.8730387906
  0
LWPOLYLINE
  5
354
100
AcDbEntity
  8
COPY_PUBLISH
100
AcDbPolyline
 62
250
  6
CONTINUOUS
 90
9
 70
0
 10
6.1302483864
 20
-26.2792867095
 10
6.1273587586
 20
-26.3214445105
 10
6.1207108486
 20
-26.3608320217
 10
6.1103778628
 20
-26.3970155046
 10
6.0964717011
 20
-26.4296002021
 10
6.0791465614
 20
-26.4582226352
 10
6.0586012701
 20
-26.4825595324
 10
6.035071407
 20
-26.5023435586
 10
6.0163214256
 20
-26.5137053194
  0
LINE
  5
355
100
AcDbEntity
  8
DRAFT
100
AcDbLine
 62
7
  6
CONTINUOUS
 10
8.6323597915
 20
8.5989552047
 11
8.0746822556
 21
8.6975860123
  0
LWPOLYLINE
  5
356
100
AcDbEntity
  8
RACCORDO
100
AcDbPolyline
 62
7
  6
CONTINUOUS
 90
9
 70
0
 10
8.4604653459
 20
9.1899948652
 10
8.4328342394
 20
9.2038652271
 10
8.397838421
 20
9.2162377101
 10
8.3611805996
 20
9.2239337396
 10
8.3233684178
 20
9.2269438081
 10
8.2848186634
 20
9.2253039773
 10
8.2457089241
 20
9.2190638686
 10
8.2063395028
 20
9.2082551672
 10
8.1995118466
 20
9.2059155033
  0
LINE
  5
357
100
AcDbEntity
  8
RACCORDO
100
AcDbLine
 62
250
  6
CONTINUOUS
 10
8.950557843
 20
8.7883844534
 11
8.2550119096
 21
9.1899839581
  0
LINE
  5
358
100
AcDbEntity
  8
RACCORDO
100
AcDbLine
 62
7
  6
CONTINUOUS
 10
8.950557843
 20
8.9070376224
 11
8.4606268768
 21
9.189917622
  0
LINE
  5
359
100
AcDbEntity
  8
DRAFT
100
AcDbLine
 62
7
  6
CONTINUOUS
 10
6.7202441037
 20
-13.6138599485
 11
7.1657213758
 21
-13.3428140076
  0
LINE
  5
35A
100
AcDbEntity
  8
DRAFT
100
AcDbLine
 62
7
  6
CONTINUOUS
 10
8.0746822556
 20
-12.9388763227
 11
7.166046301
 21
-13.3435435915
  0
LINE
  5
35B
100
AcDbEntity
  8
RACCORDO
100
AcDbLine
 62
7
  6
CONTINUOUS
 10
7.1657213758
 20
-12.7953181612
 11
8.1995493845
 21
-12.4305335639
  0
LINE
  5
35C
100
AcDbEntity
  8
RACCORDO
100
AcDbLine
 62
250
  6
CONTINUOUS
 10
8.2867970935
 20
-12.435236738
 11
7.1657213758
 21
-12.8308328395
  0
LWPOLYLINE
  5
35D
100
AcDbEntity
  8
RACCORDO
100
AcDbPolyline
 62
250
  6
CONTINUOUS
 90
7
 70
0
 10
8.1995493845
 20
-12.4305335639
 10
8.2017257452
 20
-12.4298401138
 10
8.2114552756
 20
-12.428383273
 10
8.2218277392
 20
-12.4293553665
 10
8.2326676892
 20
-12.4327400119
 10
8.2437917988
 20
-12.4384800248
 10
8.2550119096
 20
-12.4464783769
  0
LWPOLYLINE
  5
35E
100
AcDbEntity
  8
RACCORDO
100
AcDbPolyline
 62
250
  6
CONTINUOUS
 90
9
 70
0
 10
8.1269326551
 20
13.1962604635
 10
8.1085265484
 20
13.2039118869
 10
8.0889309241
 20
13.2095882595
 10
8.0685104203
 20
13.2131883712
 10
8.0473395203
 20
13.2147338456
 10
8.0245439873
 20
13.2141738183
 10
7.9998139178
 20
13.2112006826
 10
7.9735213564
 20
13.2055583861
 10
7.9457537542
 20
13.1970079783
  0
LINE
  5
35F
100
AcDbEntity
  8
RACCORDO
100
AcDbLine
 62
250
  6
CONTINUOUS
 10
7.1681494812
 20
12.6898734345
 11
7.2795249851
 21
12.6255666144
  0
LINE
  5
360
100
AcDbEntity
  8
DRAFT
100
AcDbLine
 62
7
  6
CONTINUOUS
 10
8.950557843
 20
-12.8730387906
 11
8.6323597915
 21
-13.0375071303
  0
LWPOLYLINE
  5
361
100
AcDbEntity
  8
RACCORDO
100
AcDbPolyline
 62
7
  6
CONTINUOUS
 90
10
 70
0
 10
8.1387597612
 20
13.1899980041
 10
8.1136781495
 20
13.2032787318
 10
8.0797382939
 20
13.2176282932
 10
8.0442024478
 20
13.2286934882
 10
8.0074175544
 20
13.2362925321
 10
7.9697380922
 20
13.2403081078
 10
7.9314742517
 20
13.2406760512
 10
7.892972979
 20
13.237372161
 10
7.8545727527
 20
13.2304393077
 10
7.8158984289
 20
13.2197340199
  0
LWPOLYLINE
  5
362
100
AcDbEntity
  8
RACCORDO
100
AcDbPolyline
 62
250
  6
CONTINUOUS
 90
6
 70
0
 10
7.9457537542
 20
13.1970079783
 10
7.9193467376
 20
13.2111846129
 10
7.8927633285
 20
13.2206819681
 10
7.8664531356
 20
13.2253394137
 10
7.840861147
 20
13.2250781777
 10
7.8158984289
 20
13.2197340199
  0
LINE
  5
363
100
AcDbEntity
  8
RACCORDO
100
AcDbLine
 62
250
  6
CONTINUOUS
 10
7.9457537542
 20
13.1970079783
 11
8.2583934296
 21
13.016493748
  0
LINE
  5
364
100
AcDbEntity
  8
RACCORDO
100
AcDbLine
 62
7
  6
CONTINUOUS
 10
8.1383263888
 20
13.1902492529
 11
8.4420724669
 21
13.0148700743
  0
LINE
  5
365
100
AcDbEntity
  8
COPY_PUBLISH
100
AcDbLine
 62
250
  6
CONTINUOUS
 10
5.4325177079
 20
15.8777593114
 11
-9.4356964604
 21
24.4624798297
  0
LINE
  5
366
100
AcDbEntity
  8
COPY_PUBLISH
100
AcDbLine
 62
250
  6
CONTINUOUS
 10
5.7768161497
 20
16.484648163
 11
-9.0913980187
 21
25.0693686813
  0
LINE
  5
367
100
AcDbEntity
  8
DRAFT
100
AcDbLine
 62
7
  6
CONTINUOUS
 10
8.950557843
 20
-15.2385343591
 11
8.6323597915
 21
-15.4415131534
  0
LINE
  5
368
100
AcDbEntity
  8
DRAFT
100
AcDbLine
 62
7
  6
CONTINUOUS
 10
6.7202441037
 20
-17.6962113324
 11
7.1657213758
 21
-17.4251653916
  0
LINE
  5
369
100
AcDbEntity
  8
RACCORDO
100
AcDbLine
 62
250
  6
CONTINUOUS
 10
6.9433114057
 20
-17.133454607
 11
6.7202441037
 21
-17.2622508715
  0
LINE
  5
36A
100
AcDbEntity
  8
RACCORDO
100
AcDbLine
 62
250
  6
CONTINUOUS
 10
7.084732762
 20
-17.378403581
 11
6.7202441037
 21
-17.5888547642
  0
LINE
  5
36B
100
AcDbEntity
  8
DRAFT
100
AcDbLine
 62
7
  6
CONTINUOUS
 10
8.0746822556
 20
-15.367586814
 11
6.9433114057
 21
-15.9994276345
  0
LINE
  5
36C
100
AcDbEntity
  8
0
100
AcDbLine
 62
7
  6
CONTINUOUS
 10
6.366811867
 20
16.8253026157
 11
-8.5315129884
 21
25.4274086673
  0
LINE
  5
36D
100
AcDbEntity
  8
RACCORDO
100
AcDbLine
 62
7
  6
CONTINUOUS
 10
6.848140457
 20
17.0267847249
 11
-8.0228920848
 21
25.6131325367
  0
LINE
  5
36E
100
AcDbEntity
  8
RACCORDO
100
AcDbLine
 62
250
  6
CONTINUOUS
 10
7.1657213758
 20
-25.6069609106
 11
6.7202441037
 21
-25.9242190533
  0
LINE
  5
36F
100
AcDbEntity
  8
RACCORDO
100
AcDbLine
 62
7
  6
CONTINUOUS
 10
7.0844029225
 20
-25.8060106268
 11
6.7068767627
 21
-26.0748756302
  0
LINE
  5
370
100
AcDbEntity
  8
0
100
AcDbLine
 62
250
  6
CONTINUOUS
 10
6.1302483864
 20
-26.2792867095
 11
6.7202441037
 21
-25.9733999633
  0
LINE
  5
371
100
AcDbEntity
  8
COPY_PUBLISH
100
AcDbLine
 62
7
  6
CONTINUOUS
 10
6.0162077659
 20
-26.5137643024
 11
6.6101282163
 21
-26.2058427553
  0
LWPOLYLINE
  5
372
100
AcDbEntity
  8
COPY_PUBLISH
100
AcDbPolyline
 62
250
  6
CONTINUOUS
 90
16
 70
0
 10
6.1302483864
 20
-26.2792867095
 10
6.0910214135
 20
-26.2986590778
 10
6.048544445
 20
-26.3155930458
 10
6.0032702215
 20
-26.3299081575
 10
5.9556758278
 20
-26.3414530077
 10
5.9062735853
 20
-26.3501027937
 10
5.8556073856
 20
-26.3557639373
 10
5.8042291072
 20
-26.3583789726
 10
5.7526751471
 20
-26.3579247337
 10
5.7014779222
 20
-26.3544076218
 10
5.6511128844
 20
-26.3478541798
 10
5.6021882722
 20
-26.3383373191
 10
5.5554017304
 20
-26.3260117067
 10
5.5112779645
 20
-26.3110610927
 10
5.4701863666
 20
-26.2936584507
 10
5.4325177079
 20
-26.2740129708
  0
ARC
  5
373
100
AcDbEntity
  8
COPY_PUBLISH
100
AcDbCircle
 62
7
  6
CONTINUOUS
 10
5.7860710985
 20
-26.0698756742
 40
0.5
100
AcDbArc
 50
239.9984015654
 51
297.4194204711
  0
ARC
  5
374
100
AcDbEntity
  8
COPY_PUBLISH
100
AcDbCircle
 62
7
  6
CONTINUOUS
 10
-9.0821430698
 20
-17.4851551559
 40
0.5
100
AcDbArc
 50
179.9840060021
 51
239.998401565
  0
ARC
  5
375
100
AcDbEntity
  8
COPY_PUBLISH
100
AcDbCircle
 62
7
  6
CONTINUOUS
 10
-9.0821430698
 20
24.6666171264
 40
0.5
100
AcDbArc
 50
122.5992954234
 51
180.0013071251
  0
ELLIPSE
  5
376
100
AcDbEntity
  8
RACCORDO
100
AcDbEllipse
 62
7
  6
CONTINUOUS
 10
-8.0221658762
 20
25.2438981557
 30
0.0
 11
-0.2245667503
 21
0.3916366537
 31
0.0
 40
0.576009292
 41
-0.7808516838
 42
-0.0566951759
  0
ELLIPSE
  5
377
100
AcDbEntity
  8
RACCORDO
100
AcDbEllipse
 62
7
  6
CONTINUOUS
 10
6.8474142484
 20
-25.4223329235
 30
0.0
 11
-0.2245667503
 21
0.3916366537
 31
0.0
 40
0.576009292
 41
-3.0848974781
 42
-2.3539294839
  0
ELLIPSE
  5
378
100
AcDbEntity
  8
RACCORDO
100
AcDbEllipse
 62
7
  6
CONTINUOUS
 10
6.8474142484
 20
16.6583889514
 30
0.0
 11
-0.224044438
 21
0.3907502414
 31
0.0
 40
0.5786435377
 41
-2.35161679
 42
-0.7831019366
  0
ELLIPSE
  5
379
100
AcDbEntity
  8
RACCORDO
100
AcDbEllipse
 62
7
  6
CONTINUOUS
 10
6.3665695176
 20
16.4170674668
 30
0.0
 11
-0.2500121049
 21
0.4330057129
 31
0.0
 40
0.5777274115
 41
-2.3559002616
 42
-0.7857891675
  0
ELLIPSE
  5
37A
100
AcDbEntity
  8
RACCORDO
100
AcDbEllipse
 62
7
  6
CONTINUOUS
 10
-8.5312706391
 20
25.0188936595
 30
0.0
 11
-0.2501834304
 21
0.4333025529
 31
0.0
 40
0.5769361983
 41
5.4980815048
 42
6.3093462599
  0
ELLIPSE
  5
37B
100
AcDbEntity
  8
RACCORDO
100
AcDbEllipse
 62
7
  6
CONTINUOUS
 10
6.3665695176
 20
-25.768912858
 30
0.0
 11
-0.2501834304
 21
0.4333025529
 31
0.0
 40
0.5769361983
 41
3.1154316834
 42
3.9265999453
  0
ELLIPSE
  5
37C
100
AcDbEntity
  8
RACCORDO
100
AcDbEllipse
 62
7
  6
CONTINUOUS
 10
7.3034394835
 20
9.2610093197
 30
0.0
 11
0.0961689949
 21
0.1753992367
 31
0.0
 40
0.5620258809
 41
0.9475571809
 42
2.3438205825
  0
ELLIPSE
  5
37D
100
AcDbEntity
  8
RACCORDO
100
AcDbEllipse
 62
7
  6
CONTINUOUS
 10
8.1986071835
 20
10.5731660646
 30
0.0
 11
0.2404224873
 21
0.4384980918
 31
0.0
 40
0.5620258809
 41
-2.1940354727
 42
-0.7977720711
  0
ELLIPSE
  5
37E
100
AcDbEntity
  8
RACCORDO
100
AcDbEllipse
 62
7
  6
CONTINUOUS
 10
7.3034394835
 20
12.8009303901
 30
0.0
 11
0.0961689949
 21
0.1753992367
 31
0.0
 40
0.5620258809
 41
2.3438205825
 42
3.7400839841
  0
ELLIPSE
  5
37F
100
AcDbEntity
  8
RACCORDO
100
AcDbEllipse
 62
7
  6
CONTINUOUS
 10
8.1986071835
 20
12.5780843087
 30
0.0
 11
0.2404224873
 21
0.4384980918
 31
0.0
 40
0.5620258809
 41
5.4854132361
 42
6.8816766377
  0
ENDSEC
  0
SECTION
  2
OBJECTS
  0
DICTIONARY
  5
C
100
AcDbDictionary
280
0
281
1
  3
ACAD_GROUP
350
D
  3
ACAD_MLINESTYLE
350
17
  3
ACAD_LAYOUT
350
1A
  3
ACAD_PLOTSETTINGS
350
19
  3
ACAD_PLOTSTYLENAME
350
E
  0
DICTIONARY
  5
D
102
{ACAD_REACTORS
330
C
102
}
100
AcDbDictionary
280
0
281
1
  0
ACDBDICTIONARYWDFLT
  5
E
102
{ACAD_REACTORS
330
C
102
}
100
AcDbDictionary
281
1
  3
Normal
350
F
100
AcDbDictionaryWithDefault
340
F
  0
DICTIONARY
  5
17
102
{ACAD_REACTORS
330
C
102
}
100
AcDbDictionary
280
0
281
1
  3
Standard
350
18
  0
DICTIONARY
  5
19
102
{ACAD_REACTORS
330
C
102
}
100
AcDbDictionary
281
1
  0
DICTIONARY
  5
1A
102
{ACAD_REACTORS
330
C
102
}
100
AcDbDictionary
281
1
  3
Model
350
380
  3
Layout1
350
381
  0
ACDBPLACEHOLDER
  5
F
102
{ACAD_REACTORS
330
E
102
}
  0
MLINESTYLE
  5
18
102
{ACAD_REACTORS
330
17
102
}
100
AcDbMlineStyle
  2
STANDARD
 70
0
  3

 62
256
 51
90.0
 52
90.0
 71
2
 49
0.5
 62
256
  6
BYLAYER
 49
-0.5
 62
256
  6
BYLAYER
  0
LAYOUT
  5
380
102
{ACAD_REACTORS
330
1A
102
}
100
AcDbPlotSettings
  1

  2
none_device
  4
ISO_A4_(297.00_x_210.00_MM)
  6

 40
0.0
 41
0.0
 42
0.0
 43
0.0
 44
297.0
 45
210.0
 46
0.0
 47
0.0
 48
0.0
 49
0.0
140
0.0
141
0.0
142
1.0
143
1.0
 70
1024
 72
1
 73
0
 74
0
  7

 75
0
147
1.0
148
0.0
149
0.0
100
AcDbLayout
  1
Model
 70
0
 71
0
 10
0.0
 20
0.0
 11
297.0
 21
210.0
 12
0.0
 22
0.0
 32
0.0
 14
0.0
 24
0.0
 34
0.0
 15
0.0
 25
0.0
 35
0.0
146
0.0
 13
0.0
 23
0.0
 33
0.0
 16
1.0
 26
0.0
 36
0.0
 17
0.0
 27
1.0
 37
0.0
 76
0
330
219
345
0
346
0
  0
LAYOUT
  5
381
102
{ACAD_REACTORS
330
1A
102
}
100
AcDbPlotSettings
  1

  2
none_device
  4
ISO_A4_(297.00_x_210.00_MM)
  6

 40
0.0
 41
0.0
 42
0.0
 43
0.0
 44
297.0
 45
210.0
 46
0.0
 47
0.0
 48
0.0
 49
0.0
140
0.0
141
0.0
142
1.0
143
1.0
 70
0
 72
1
 73
0
 74
0
  7

 75
0
147
1.0
148
0.0
149
0.0
100
AcDbLayout
  1
Layout1
 70
0
 71
1
 10
0.0
 20
0.0
 11
297.0
 21
210.0
 12
0.0
 22
0.0
 32
0.0
 14
0.0
 24
0.0
 34
0.0
 15
0.0
 25
0.0
 35
0.0
146
0.0
 13
0.0
 23
0.0
 33
0.0
 16
1.0
 26
0.0
 36
0.0
 17
0.0
 27
1.0
 37
0.0
 76
0
330
21A
345
0
346
0
  0
ENDSEC
  0
EOF
