  0
SECTION
  2
HEADER
  9
$ACADVER
  1
AC1024
  9
$DWGCODEPAGE
  3
ANSI_1252
  9
$EXTMAX
 10
558.8
 20
431.8
 30
0.0
  9
$EXTMIN
 10
0.0
 20
0.0
 30
0.0
  9
$LIMMIN
 10
0.0
 20
0.0
  9
$LIMMAX
 10
558.8
 20
431.8
  9
$VIEWCTR
 10
279.4
 20
215.9
  9
$VIEWSIZE
 40
431.8
  9
$CLAYER
  8
0
  9
$LTSCALE
 40
30.734
  9
$CELTYPE
  6
BYLAYER
  9
$DIMSCALE
 40
1.0
  9
$DIMASZ
 40
3.0
  9
$DIMEXO
 40
0.5
  9
$DIMDLI
 40
21.2344
  9
$DIMEXE
 40
1.5
  9
$DIMCEN
 40
5.0292
  9
$DIMLFAC
 40
1.0
  9
$DIMBLK
  1
_FILLED
  9
$DIMALT
 70
0
  9
$DIMALTF
 40
0.0393700787
  9
$DIMTXT
 40
3.0
  9
$DIMTOL
 70
1
  9
$DIMLIM
 70
0
  9
$DIMTFAC
 40
1.0
  9
$DIMTP
 40
0.01
  9
$DIMTM
 40
0.01
  9
$DIMGAP
 40
0.625
  9
$DIMDSEP
 70
44
  9
$AUNITS
 70
0
  9
$PDMODE
 70
3
  9
$PDSIZE
 40
3.0
  9
$HANDSEED
  5
2BD
  9
$TILEMODE
 70
1
  9
$MEASUREMENT
 70
1
  9
$INSUNITS
 70
4
  0
ENDSEC
  0
SECTION
  2
CLASSES
  0
CLASS
  1
ACDBDICTIONARYWDFLT
  2
AcDbDictionaryWithDefault
  3
AutoCAD 2000
 90
0
 91
1
280
0
281
0
  0
CLASS
  1
ACDBPLACEHOLDER
  2
AcDbPlaceHolder
  3
AutoCAD 2000
 90
0
 91
1
280
0
281
0
  0
CLASS
  1
LAYOUT
  2
AcDbLayout
  3
AutoCAD 2000
 90
0
 91
0
280
0
281
0
  0
ENDSEC
  0
SECTION
  2
TABLES
  0
TABLE
  2
VPORT
  5
8
100
AcDbSymbolTable
 70
2
  0
VPORT
  5
1F4
100
AcDbSymbolTableRecord
100
AcDbViewportTableRecord
  2
*ACTIVE
 70
0
 10
0.0
 20
0.0
 11
1.0
 21
1.0
 12
279.4
 22
215.9
 13
0.0
 23
0.0
 14
1.0
 24
1.0
 15
0.0
 25
0.0
 16
0.0
 26
0.0
 36
1.0
 17
0.0
 27
0.0
 37
0.0
 40
431.8
 41
1.2941176471
 42
50.0
 43
0.0
 44
0.0
 50
0.0
 51
0.0
 71
0
 72
100
 73
1
 74
1
 75
0
 76
0
 77
0
 78
0
  0
ENDTAB
  0
TABLE
  2
LTYPE
  5
5
100
AcDbSymbolTable
 70
6
  0
LTYPE
  5
14
100
AcDbSymbolTableRecord
100
AcDbLinetypeTableRecord
  2
BYBLOCK
 70
0
  3

 72
65
 73
0
 40
0.0
  0
LTYPE
  5
15
100
AcDbSymbolTableRecord
100
AcDbLinetypeTableRecord
  2
BYLAYER
 70
0
  3

 72
65
 73
0
 40
0.0
  0
LTYPE
  5
16
100
AcDbSymbolTableRecord
100
AcDbLinetypeTableRecord
  2
CONTINUOUS
 70
64
  3
Solid line
 72
65
 73
0
 40
0.0
  0
LTYPE
  5
1F5
100
AcDbSymbolTableRecord
100
AcDbLinetypeTableRecord
  2
CENTER
 70
64
  3
____ _ ____ _ ____ _ ____ _ ____ _ ____ _ ____
 72
65
 73
4
 40
0.6
 49
0.375
 74
0
 49
-0.075
 74
0
 49
0.075
 74
0
 49
-0.075
 74
0
  0
LTYPE
  5
1F6
100
AcDbSymbolTableRecord
100
AcDbLinetypeTableRecord
  2
HIDDEN
 70
64
  3
- - - - - - - - - - - - - - - - - - - -
 72
65
 73
2
 40
0.2
 49
0.1
 74
0
 49
-0.1
 74
0
  0
LTYPE
  5
1F7
100
AcDbSymbolTableRecord
100
AcDbLinetypeTableRecord
  2
PHANTOM
 70
64
  3
_____ _ _ _____ _ _ _____ _ _ _____
 72
65
 73
6
 40
0.8
 49
0.45
 74
0
 49
-0.05
 74
0
 49
0.1
 74
0
 49
-0.05
 74
0
 49
0.1
 74
0
 49
-0.05
 74
0
  0
LTYPE
  5
1F8
100
AcDbSymbolTableRecord
100
AcDbLinetypeTableRecord
  2
DOT
 70
64
  3
. . . . . . . . . . . . . . . . . . . .
 72
65
 73
2
 40
0.2
 49
0.1
 74
0
 49
-0.1
 74
0
  0
LTYPE
  5
1F9
100
AcDbSymbolTableRecord
100
AcDbLinetypeTableRecord
  2
DASHED
 70
64
  3
- - - - - - - - - - - - - - - - - - - -
 72
65
 73
2
 40
0.2
 49
0.1
 74
0
 49
-0.1
 74
0
  0
ENDTAB
  0
TABLE
  2
LAYER
  5
2
100
AcDbSymbolTable
 70
36
  0
LAYER
  5
10
100
AcDbSymbolTableRecord
100
AcDbLayerTableRecord
  2
0
 70
0
 62
7
  6
CONTINUOUS
370
-3
390
F
  0
LAYER
  5
1FA
100
AcDbSymbolTableRecord
100
AcDbLayerTableRecord
  2
DEFAULT_1
 70
0
 62
7
  6
CENTER
370
-3
390
F
  0
LAYER
  5
1FB
100
AcDbSymbolTableRecord
100
AcDbLayerTableRecord
  2
DEFAULT_2
 70
0
 62
7
  6
HIDDEN
370
-3
390
F
  0
LAYER
  5
1FC
100
AcDbSymbolTableRecord
100
AcDbLayerTableRecord
  2
DEFAULT_3
 70
0
 62
7
  6
PHANTOM
370
-3
390
F
  0
LAYER
  5
1FD
100
AcDbSymbolTableRecord
100
AcDbLayerTableRecord
  2
ASSI
 70
0
 62
7
  6
CONTINUOUS
370
-3
390
F
  0
LAYER
  5
1FE
100
AcDbSymbolTableRecord
100
AcDbLayerTableRecord
  2
COORDINATE
 70
0
 62
7
  6
CONTINUOUS
370
-3
390
F
  0
LAYER
  5
1FF
100
AcDbSymbolTableRecord
100
AcDbLayerTableRecord
  2
COPY_PUBLISH
 70
0
 62
7
  6
CONTINUOUS
370
-3
390
F
  0
LAYER
  5
200
100
AcDbSymbolTableRecord
100
AcDbLayerTableRecord
  2
COSMETICI
 70
0
 62
7
  6
CONTINUOUS
370
-3
390
F
  0
LAYER
  5
201
100
AcDbSymbolTableRecord
100
AcDbLayerTableRecord
  2
CURVE
 70
0
 62
7
  6
CONTINUOUS
370
-3
390
F
  0
LAYER
  5
202
100
AcDbSymbolTableRecord
100
AcDbLayerTableRecord
  2
DRAFT
 70
0
 62
7
  6
CONTINUOUS
370
-3
390
F
  0
LAYER
  5
203
100
AcDbSymbolTableRecord
100
AcDbLayerTableRecord
  2
IMPORT_IGES
 70
0
 62
7
  6
CONTINUOUS
370
-3
390
F
  0
LAYER
  5
204
100
AcDbSymbolTableRecord
100
AcDbLayerTableRecord
  2
INTF_1
 70
0
 62
7
  6
CONTINUOUS
370
-3
390
F
  0
LAYER
  5
205
100
AcDbSymbolTableRecord
100
AcDbLayerTableRecord
  2
INTF_11
 70
0
 62
7
  6
CONTINUOUS
370
-3
390
F
  0
LAYER
  5
206
100
AcDbSymbolTableRecord
100
AcDbLayerTableRecord
  2
INTF_2
 70
0
 62
7
  6
CONTINUOUS
370
-3
390
F
  0
LAYER
  5
207
100
AcDbSymbolTableRecord
100
AcDbLayerTableRecord
  2
NOTE
 70
0
 62
7
  6
CONTINUOUS
370
-3
390
F
  0
LAYER
  5
208
100
AcDbSymbolTableRecord
100
AcDbLayerTableRecord
  2
PIANI
 70
0
 62
7
  6
CONTINUOUS
370
-3
390
F
  0
LAYER
  5
209
100
AcDbSymbolTableRecord
100
AcDbLayerTableRecord
  2
PUNTI
 70
0
 62
7
  6
CONTINUOUS
370
-3
390
F
  0
LAYER
  5
20A
100
AcDbSymbolTableRecord
100
AcDbLayerTableRecord
  2
RACCORDO
 70
0
 62
7
  6
CONTINUOUS
370
-3
390
F
  0
LAYER
  5
20B
100
AcDbSymbolTableRecord
100
AcDbLayerTableRecord
  2
RGB__255__255__255__
 70
0
 62
7
  6
CONTINUOUS
370
-3
390
F
  0
LAYER
  5
20C
100
AcDbSymbolTableRecord
100
AcDbLayerTableRecord
  2
SIMBOLI
 70
0
 62
7
  6
CONTINUOUS
370
-3
390
F
  0
LAYER
  5
20D
100
AcDbSymbolTableRecord
100
AcDbLayerTableRecord
  2
SMUSSO
 70
0
 62
7
  6
CONTINUOUS
370
-3
390
F
  0
LAYER
  5
20E
100
AcDbSymbolTableRecord
100
AcDbLayerTableRecord
  2
SNAPLINE
 70
0
 62
7
  6
CONTINUOUS
370
-3
390
F
  0
LAYER
  5
20F
100
AcDbSymbolTableRecord
100
AcDbLayerTableRecord
  2
SUPERFICI
 70
0
 62
7
  6
CONTINUOUS
370
-3
390
F
  0
LAYER
  5
210
100
AcDbSymbolTableRecord
100
AcDbLayerTableRecord
  2
TRASH
 70
0
 62
7
  6
CONTINUOUS
370
-3
390
F
  0
ENDTAB
  0
TABLE
  2
STYLE
  5
3
100
AcDbSymbolTable
 70
1
  0
STYLE
  5
11
100
AcDbSymbolTableRecord
100
AcDbTextStyleTableRecord
  2
STANDARD
 70
0
 40
0.0
 41
0.8
 50
0.0
 71
0
 42
0.2
  3
txt
  4

  0
STYLE
  5
211
100
AcDbSymbolTableRecord
100
AcDbTextStyleTableRecord
  2
TEXTSTYLE_1
 70
0
 40
0.0
 41
0.8
 50
0.0
 71
0
 42
0.2
  3
gdt
  4

  0
ENDTAB
  0
TABLE
  2
VIEW
  5
6
100
AcDbSymbolTable
 70
0
  0
ENDTAB
  0
TABLE
  2
UCS
  5
7
100
AcDbSymbolTable
 70
0
  0
ENDTAB
  0
TABLE
  2
APPID
  5
9
100
AcDbSymbolTable
 70
1
  0
APPID
  5
212
100
AcDbSymbolTableRecord
100
AcDbRegAppTableRecord
  2
ACAD
 70
0
  0
ENDTAB
  0
TABLE
  2
BLOCK_RECORD
  5
1
100
AcDbSymbolTable
 70
0
  0
BLOCK_RECORD
  5
213
100
AcDbSymbolTableRecord
100
AcDbBlockTableRecord
  2
*Model_Space
  0
BLOCK_RECORD
  5
214
100
AcDbSymbolTableRecord
100
AcDbBlockTableRecord
  2
*Paper_Space
  0
BLOCK_RECORD
  5
215
100
AcDbSymbolTableRecord
100
AcDbBlockTableRecord
  2
_FILLED
  0
ENDTAB
  0
TABLE
  2
DIMSTYLE
  5
A
100
AcDbSymbolTable
 70
1
100
AcDbDimStyleTable
 71
0
  0
DIMSTYLE
105
216
100
AcDbSymbolTableRecord
100
AcDbDimStyleTableRecord
  2
STANDARD
 70
0
  3

  4

 40
1.0
 41
3.0
 42
0.5
 43
0.38
 44
1.5
 45
0.0
 46
0.0
 47
0.01
 48
0.01
140
3.0
141
0.09
142
0.0
143
25.4
144
1.0
145
0.0
146
1.0
147
0.625
 71
1
 72
0
 73
0
 74
0
 75
0
 76
0
 77
1
 78
8
 79
2
170
0
171
1
172
0
173
0
174
0
175
0
176
0
177
0
178
0
270
2
179
2
271
2
272
2
273
2
274
2
275
0
280
0
281
0
282
0
283
1
284
8
285
0
286
0
287
3
288
0
340
11
278
44
341
215
342
215
343
215
344
215
  0
ENDTAB
  0
ENDSEC
  0
SECTION
  2
BLOCKS
  0
BLOCK
  5
20
100
AcDbEntity
  8
0
100
AcDbBlockBegin
  2
*Model_Space
 70
0
 10
0.0
 20
0.0
 30
0.0
  3
*Model_Space
  1

  0
ENDBLK
  5
21
100
AcDbEntity
  8
0
100
AcDbBlockEnd
  0
BLOCK
  5
1C
100
AcDbEntity
  8
0
100
AcDbBlockBegin
  2
*Paper_Space
 70
0
 10
0.0
 20
0.0
 30
0.0
  3
*Paper_Space
  1

  0
ENDBLK
  5
1D
100
AcDbEntity
  8
0
100
AcDbBlockEnd
  0
BLOCK
  5
217
100
AcDbEntity
  8
0
100
AcDbBlockBegin
  2
_FILLED
 70
64
 10
0.0
 20
0.0
  3
_FILLED
  1

  0
SOLID
  5
218
100
AcDbEntity
  8
0
  6
BYBLOCK
 62
0
100
AcDbTrace
 10
0.0
 20
0.0
 11
-1.0
 21
0.3166666667
 12
-1.0
 22
-0.3166666667
 13
-1.0
 23
-0.3166666667
  0
ENDBLK
  5
219
100
AcDbEntity
  8
0
  6
BYBLOCK
 62
0
100
AcDbBlockEnd
  0
ENDSEC
  0
SECTION
  2
ENTITIES
  0
LINE
  5
21A
100
AcDbEntity
  8
DRAFT
100
AcDbLine
 62
7
  6
CONTINUOUS
 10
-26.806393922
 20
12.2091286994
 11
-26.8874014853
 21
15.998013404
  0
LINE
  5
21B
100
AcDbEntity
  8
RACCORDO
100
AcDbLine
 62
7
  6
CONTINUOUS
 10
-10.9074335814
 20
-20.0192122015
 11
-16.6156389352
 21
-17.4902204405
  0
LINE
  5
21C
100
AcDbEntity
  8
RACCORDO
100
AcDbLine
 62
250
  6
CONTINUOUS
 10
-11.009279428
 20
-19.7911054434
 11
-16.7174847818
 21
-17.2621136824
  0
LINE
  5
21D
100
AcDbEntity
  8
DRAFT
100
AcDbLine
 62
7
  6
CONTINUOUS
 10
-22.8899871377
 20
-3.3603565752
 11
-26.2653383054
 21
6.7383727464
  0
LINE
  5
21E
100
AcDbEntity
  8
RACCORDO
100
AcDbLine
 62
7
  6
CONTINUOUS
 10
7.9655484354
 20
-20.598987667
 11
-7.965472283
 21
-20.598987667
  0
LINE
  5
21F
100
AcDbEntity
  8
RACCORDO
100
AcDbLine
 62
250
  6
CONTINUOUS
 10
7.9655484354
 20
-20.3876814005
 11
-7.965472283
 21
-20.3876814005
  0
LINE
  5
220
100
AcDbEntity
  8
ASSI
100
AcDbLine
 62
7
  6
CONTINUOUS
 10
-17.4999619238
 20
-9.7554834276
 11
-17.4999619238
 21
-16.3459691312
  0
LINE
  5
221
100
AcDbEntity
  8
RACCORDO
100
AcDbLine
 62
250
  6
CONTINUOUS
 10
-16.7174847818
 20
-10.2500522017
 11
-16.7174847818
 21
-17.2621136824
  0
LINE
  5
222
100
AcDbEntity
  8
RACCORDO
100
AcDbLine
 62
7
  6
CONTINUOUS
 10
21.7279601376
 20
-14.3855648481
 11
0.0000380762
 21
-14.3855648481
  0
LINE
  5
223
100
AcDbEntity
  8
RACCORDO
100
AcDbLine
 62
250
  6
CONTINUOUS
 10
21.7279601376
 20
-14.2700806099
 11
0.0000380762
 21
-14.2700806099
  0
LINE
  5
224
100
AcDbEntity
  8
RACCORDO
100
AcDbLine
 62
250
  6
CONTINUOUS
 10
-11.009279428
 20
-19.7911054434
 11
-11.009279428
 21
-12.7605465123
  0
LINE
  5
225
100
AcDbEntity
  8
ASSI
100
AcDbLine
 62
7
  6
CONTINUOUS
 10
-10.7499619238
 20
-24.2184952418
 11
-10.7499619238
 21
-29.9337871793
  0
LINE
  5
226
100
AcDbEntity
  8
ASSI
100
AcDbLine
 62
7
  6
CONTINUOUS
 10
-10.5499619238
 20
-24.2184952418
 11
-10.5499619238
 21
-20.1620455475
  0
LINE
  5
227
100
AcDbEntity
  8
RACCORDO
100
AcDbLine
 62
250
  6
CONTINUOUS
 10
-7.965472283
 20
-20.598987667
 11
-7.965472283
 21
-13.5591177693
  0
LINE
  5
228
100
AcDbEntity
  8
ASSI
100
AcDbLine
 62
7
  6
CONTINUOUS
 10
-6.9499619238
 20
-24.2184952418
 11
-6.9499619238
 21
-20.598987667
  0
LINE
  5
229
100
AcDbEntity
  8
ASSI
100
AcDbLine
 62
7
  6
CONTINUOUS
 10
-6.7499619238
 20
-24.2184952418
 11
-6.7499619238
 21
-29.9337871793
  0
LINE
  5
22A
100
AcDbEntity
  8
DRAFT
100
AcDbLine
 62
7
  6
CONTINUOUS
 10
0.0000380762
 20
-5.7800934986
 11
21.7279601376
 21
-5.7800934986
  0
LINE
  5
22B
100
AcDbEntity
  8
DRAFT
100
AcDbLine
 62
7
  6
CONTINUOUS
 10
0.0000380762
 20
-3.6431548548
 11
21.7279601376
 21
-3.6431548548
  0
LINE
  5
22C
100
AcDbEntity
  8
0
100
AcDbLine
 62
7
  6
CONTINUOUS
 10
0.0000380762
 20
-3.443231025
 11
21.7279601376
 21
-3.443231025
  0
LINE
  5
22D
100
AcDbEntity
  8
DRAFT
100
AcDbLine
 62
7
  6
CONTINUOUS
 10
0.0000380762
 20
-3.0786804961
 11
21.7279601376
 21
-3.0786804961
  0
LINE
  5
22E
100
AcDbEntity
  8
RACCORDO
100
AcDbLine
 62
250
  6
CONTINUOUS
 10
0.0000380762
 20
1.368014878
 11
0.0000380762
 21
-3.0786804961
  0
LINE
  5
22F
100
AcDbEntity
  8
DRAFT
100
AcDbLine
 62
250
  6
CONTINUOUS
 10
0.0000380762
 20
-3.6431548548
 11
0.0000380762
 21
-5.7800934986
  0
LINE
  5
230
100
AcDbEntity
  8
RACCORDO
100
AcDbLine
 62
250
  6
CONTINUOUS
 10
0.0000380762
 20
-14.3855648481
 11
0.0000380762
 21
-5.7800934986
  0
LINE
  5
231
100
AcDbEntity
  8
0
100
AcDbLine
 62
250
  6
CONTINUOUS
 10
0.0000380762
 20
-3.443231025
 11
0.0000380762
 21
-3.0786804961
  0
LINE
  5
232
100
AcDbEntity
  8
RACCORDO
100
AcDbLine
 62
250
  6
CONTINUOUS
 10
0.0000380762
 20
0.6640052899
 11
21.7279601376
 21
0.6640052899
  0
LINE
  5
233
100
AcDbEntity
  8
RACCORDO
100
AcDbLine
 62
250
  6
CONTINUOUS
 10
0.0000380762
 20
1.368014878
 11
21.7279601376
 21
1.368014878
  0
LINE
  5
234
100
AcDbEntity
  8
ASSI
100
AcDbLine
 62
7
  6
CONTINUOUS
 10
6.7500380762
 20
-24.2184952418
 11
6.7500380762
 21
-29.9337871793
  0
LINE
  5
235
100
AcDbEntity
  8
ASSI
100
AcDbLine
 62
7
  6
CONTINUOUS
 10
6.9500380762
 20
-20.598987667
 11
6.9500380762
 21
-24.2184952418
  0
LINE
  5
236
100
AcDbEntity
  8
RACCORDO
100
AcDbLine
 62
250
  6
CONTINUOUS
 10
7.9655484354
 20
-20.598987667
 11
7.9655484354
 21
-14.3855648481
  0
LINE
  5
237
100
AcDbEntity
  8
ASSI
100
AcDbLine
 62
7
  6
CONTINUOUS
 10
10.5500380762
 20
-20.1620433217
 11
10.5500380762
 21
-24.2184952418
  0
LINE
  5
238
100
AcDbEntity
  8
ASSI
100
AcDbLine
 62
7
  6
CONTINUOUS
 10
10.7500380762
 20
-24.2184952418
 11
10.7500380762
 21
-29.9337871793
  0
LINE
  5
239
100
AcDbEntity
  8
RACCORDO
100
AcDbLine
 62
250
  6
CONTINUOUS
 10
11.0093555805
 20
-19.7911054434
 11
11.0093555805
 21
-14.3855648481
  0
LINE
  5
23A
100
AcDbEntity
  8
RACCORDO
100
AcDbLine
 62
250
  6
CONTINUOUS
 10
16.7175609342
 20
-14.3855648481
 11
16.7175609342
 21
-17.2621136824
  0
LINE
  5
23B
100
AcDbEntity
  8
ASSI
100
AcDbLine
 62
7
  6
CONTINUOUS
 10
17.5000380762
 20
-14.3855648481
 11
17.5000380762
 21
-16.3459691312
  0
LINE
  5
23C
100
AcDbEntity
  8
RACCORDO
100
AcDbLine
 62
250
  6
CONTINUOUS
 10
21.7279601376
 20
1.368014878
 11
21.7279601376
 21
-3.0786804961
  0
LINE
  5
23D
100
AcDbEntity
  8
DRAFT
100
AcDbLine
 62
250
  6
CONTINUOUS
 10
21.7279601376
 20
-3.6431548548
 11
21.7279601376
 21
-5.7800934986
  0
LINE
  5
23E
100
AcDbEntity
  8
RACCORDO
100
AcDbLine
 62
250
  6
CONTINUOUS
 10
21.7279601376
 20
-14.3855648481
 11
21.7279601376
 21
-5.7800934986
  0
LINE
  5
23F
100
AcDbEntity
  8
0
100
AcDbLine
 62
250
  6
CONTINUOUS
 10
21.7279601376
 20
-3.443231025
 11
21.7279601376
 21
-3.0786804961
  0
LINE
  5
240
100
AcDbEntity
  8
RACCORDO
100
AcDbLine
 62
250
  6
CONTINUOUS
 10
16.7175609342
 20
-17.2621136824
 11
11.0093555805
 21
-19.7911054434
  0
LINE
  5
241
100
AcDbEntity
  8
RACCORDO
100
AcDbLine
 62
7
  6
CONTINUOUS
 10
16.6157150876
 20
-17.4902204405
 11
10.9075097339
 21
-20.0192122015
  0
LINE
  5
242
100
AcDbEntity
  8
RACCORDO
100
AcDbLine
 62
250
  6
CONTINUOUS
 10
26.3896024316
 20
4.0595887144
 11
26.3896024316
 21
16.6050185978
  0
LINE
  5
243
100
AcDbEntity
  8
DRAFT
100
AcDbLine
 62
7
  6
CONTINUOUS
 10
26.7962939983
 20
-0.7167624048
 11
26.7962939983
 21
-0.2412974217
  0
LINE
  5
244
100
AcDbEntity
  8
RACCORDO
100
AcDbLine
 62
7
  6
CONTINUOUS
 10
26.8895262792
 20
3.6442288905
 11
26.8895262792
 21
16.1896587739
  0
LINE
  5
245
100
AcDbEntity
  8
RACCORDO
100
AcDbLine
 62
7
  6
CONTINUOUS
 10
26.8895262792
 20
3.6442288905
 11
26.8085125437
 21
-0.145233211
  0
LINE
  5
246
100
AcDbEntity
  8
DRAFT
100
AcDbLine
 62
7
  6
CONTINUOUS
 10
26.7962939983
 20
-0.7167624048
 11
26.7500380762
 21
-2.8804086383
  0
LINE
  5
247
100
AcDbEntity
  8
DRAFT
100
AcDbLine
 62
7
  6
CONTINUOUS
 10
23.2837030737
 20
-13.5285905528
 11
26.6590542413
 21
-3.4298612312
  0
ARC
  5
248
100
AcDbEntity
  8
RACCORDO
100
AcDbCircle
 62
250
  6
CONTINUOUS
 10
-5.0443529844
 20
8.7278678364
 40
18.9725464047
100
AcDbArc
 50
120.0013254284
 51
120.3667746385
  0
ARC
  5
249
100
AcDbEntity
  8
RACCORDO
100
AcDbCircle
 62
250
  6
CONTINUOUS
 10
-5.1178118984
 20
8.8533309814
 40
18.8271599859
100
AcDbArc
 50
120.366911468
 51
120.6247689821
  0
ARC
  5
24A
100
AcDbEntity
  8
DRAFT
100
AcDbCircle
 62
7
  6
CONTINUOUS
 10
-14.959431248
 20
13.5561499639
 40
12.095440792
100
AcDbArc
 50
211.2419473641
 51
211.7391769207
  0
ARC
  5
24B
100
AcDbEntity
  8
DRAFT
100
AcDbCircle
 62
7
  6
CONTINUOUS
 10
-15.4450679271
 20
12.6915940727
 40
11.517252994
100
AcDbArc
 50
205.7117674335
 51
211.7890694974
  0
ARC
  5
24C
100
AcDbEntity
  8
DRAFT
100
AcDbCircle
 62
7
  6
CONTINUOUS
 10
-15.4988688367
 20
13.2389710204
 40
11.469727248
100
AcDbArc
 50
205.7035405379
 51
211.2848967974
  0
ARC
  5
24D
100
AcDbEntity
  8
RACCORDO
100
AcDbCircle
 62
250
  6
CONTINUOUS
 10
-15.9779755121
 20
16.8022219058
 40
11.0155677169
100
AcDbArc
 50
202.8430363211
 51
209.4169309584
  0
ARC
  5
24E
100
AcDbEntity
  8
DRAFT
100
AcDbCircle
 62
7
  6
CONTINUOUS
 10
-16.4526924802
 20
12.2057003172
 40
10.3985932876
100
AcDbArc
 50
198.923773791
 51
205.7082829064
  0
ARC
  5
24F
100
AcDbEntity
  8
RACCORDO
100
AcDbCircle
 62
250
  6
CONTINUOUS
 10
-16.5954991111
 20
16.5326749207
 40
10.3418387404
100
AcDbArc
 50
200.2002350819
 51
202.7949509979
  0
ARC
  5
250
100
AcDbEntity
  8
DRAFT
100
AcDbCircle
 62
7
  6
CONTINUOUS
 10
-17.2146911376
 20
11.9404422609
 40
9.5917549162
100
AcDbArc
 50
191.3334544218
 51
198.9010905844
  0
ARC
  5
251
100
AcDbEntity
  8
DRAFT
100
AcDbCircle
 62
7
  6
CONTINUOUS
 10
-17.671273286
 20
12.4178476157
 40
9.1376400471
100
AcDbArc
 50
183.6711164602
 51
191.3077331109
  0
ARC
  5
252
100
AcDbEntity
  8
DRAFT
100
AcDbCircle
 62
7
  6
CONTINUOUS
 10
-17.6713960941
 20
11.8449354942
 40
9.1251876363
100
AcDbArc
 50
183.1051979494
 51
191.309008705
  0
ARC
  5
253
100
AcDbEntity
  8
DRAFT
100
AcDbCircle
 62
7
  6
CONTINUOUS
 10
-17.8225869709
 20
12.40400726
 40
8.985751613
100
AcDbArc
 50
183.0752958344
 51
183.6448241
  0
ARC
  5
254
100
AcDbEntity
  8
DRAFT
100
AcDbCircle
 62
7
  6
CONTINUOUS
 10
-17.8445889754
 20
12.4028847974
 40
8.9637210758
100
AcDbArc
 50
181.27941732
 51
183.0756763058
  0
ARC
  5
255
100
AcDbEntity
  8
DRAFT
100
AcDbCircle
 62
7
  6
CONTINUOUS
 10
-17.8364569092
 20
11.8313542061
 40
8.959634671
100
AcDbArc
 50
181.2794153958
 51
183.075652955
  0
ARC
  5
256
100
AcDbEntity
  8
DRAFT
100
AcDbCircle
 62
7
  6
CONTINUOUS
 10
-17.8545451823
 20
11.8303079612
 40
8.9415397841
100
AcDbArc
 50
174.5356148274
 51
179.9837293395
  0
ARC
  5
257
100
AcDbEntity
  8
DRAFT
100
AcDbCircle
 62
7
  6
CONTINUOUS
 10
-17.8575235735
 20
11.8308169447
 40
8.9385612629
100
AcDbArc
 50
179.9869864792
 51
181.2789875459
  0
ARC
  5
258
100
AcDbEntity
  8
RACCORDO
100
AcDbCircle
 62
250
  6
CONTINUOUS
 10
-17.5061429471
 20
16.6115778973
 40
8.8833361481
100
AcDbArc
 50
179.6286807068
 51
189.9208060492
  0
ARC
  5
259
100
AcDbEntity
  8
DRAFT
100
AcDbCircle
 62
7
  6
CONTINUOUS
 10
21.7269744359
 20
5.0318295865
 40
8.6749844974
100
AcDbArc
 50
270.0065102764
 51
274.5106999317
  0
ARC
  5
25A
100
AcDbEntity
  8
RACCORDO
100
AcDbCircle
 62
250
  6
CONTINUOUS
 10
7.9688862156
 20
-11.8491883701
 40
8.5384936828
100
AcDbArc
 50
269.9776025221
 51
277.2588655225
  0
ARC
  5
25B
100
AcDbEntity
  8
RACCORDO
100
AcDbCircle
 62
250
  6
CONTINUOUS
 10
-7.9688100692
 20
-11.849188508
 40
8.538493545
100
AcDbArc
 50
262.7411306147
 51
270.0223975183
  0
ARC
  5
25C
100
AcDbEntity
  8
0
100
AcDbCircle
 62
7
  6
CONTINUOUS
 10
21.7255098544
 20
4.5513887017
 40
7.9946201022
100
AcDbArc
 50
270.01756067
 51
276.1851501573
  0
ARC
  5
25D
100
AcDbEntity
  8
RACCORDO
100
AcDbCircle
 62
250
  6
CONTINUOUS
 10
8.0454231917
 20
-12.446148161
 40
7.9366476595
100
AcDbArc
 50
277.2552832138
 51
282.3564646933
  0
ARC
  5
25E
100
AcDbEntity
  8
RACCORDO
100
AcDbCircle
 62
250
  6
CONTINUOUS
 10
-8.0453471373
 20
-12.4461487287
 40
7.9366470836
100
AcDbArc
 50
257.6435306779
 51
262.7447128982
  0
ARC
  5
25F
100
AcDbEntity
  8
RACCORDO
100
AcDbCircle
 62
250
  6
CONTINUOUS
 10
13.4507630663
 20
16.7434636958
 40
7.099976241
100
AcDbArc
 50
5.3838949192
 51
15.5027400217
  0
ARC
  5
260
100
AcDbEntity
  8
RACCORDO
100
AcDbCircle
 62
250
  6
CONTINUOUS
 10
-13.6332550311
 20
16.7681231438
 40
6.9158686204
100
AcDbArc
 50
174.9277809724
 51
185.3192916152
  0
ARC
  5
261
100
AcDbEntity
  8
RACCORDO
100
AcDbCircle
 62
250
  6
CONTINUOUS
 10
13.6333311836
 20
16.7685021626
 40
6.9158686204
100
AcDbArc
 50
354.9277809724
 51
5.3192916151
  0
ARC
  5
262
100
AcDbEntity
  8
DRAFT
100
AcDbCircle
 62
7
  6
CONTINUOUS
 10
23.4455672166
 20
0.5621512661
 40
3.8302330128
100
AcDbArc
 50
306.9094616699
 51
308.2147713565
  0
ARC
  5
263
100
AcDbEntity
  8
DRAFT
100
AcDbCircle
 62
7
  6
CONTINUOUS
 10
23.4752763737
 20
1.1034094574
 40
3.7974421388
100
AcDbArc
 50
306.9032501683
 51
308.9897735924
  0
ARC
  5
264
100
AcDbEntity
  8
0
100
AcDbCircle
 62
7
  6
CONTINUOUS
 10
23.713548661
 20
0.016035443
 40
2.969770958
100
AcDbArc
 50
311.4314528998
 51
315.1066653805
  0
ARC
  5
265
100
AcDbEntity
  8
RACCORDO
100
AcDbCircle
 62
7
  6
CONTINUOUS
 10
-8.7499619238
 20
-29.9337871793
 40
2.0
100
AcDbArc
 50
180.0
 51
360.0
  0
ARC
  5
266
100
AcDbEntity
  8
RACCORDO
100
AcDbCircle
 62
7
  6
CONTINUOUS
 10
8.7500380762
 20
-29.9337871793
 40
2.0
100
AcDbArc
 50
180.0
 51
360.0
  0
ARC
  5
267
100
AcDbEntity
  8
DRAFT
100
AcDbCircle
 62
7
  6
CONTINUOUS
 10
25.1455253006
 20
-0.1451081878
 40
1.6629872479
100
AcDbArc
 50
356.6778037729
 51
359.9956925091
  0
SPLINE
  5
268
100
AcDbEntity
  8
DRAFT
100
AcDbSpline
 62
7
  6
CONTINUOUS
 70
0
 71
3
 72
9
 73
5
 74
0
 42
0.0000001
 43
0.0000001
 44
0.0000000001
 40
0.0
 40
0.0
 40
0.0
 40
0.0
 40
0.5346903616
 40
1.0
 40
1.0
 40
1.0
 40
1.0
 10
21.7279601376
 20
-3.0786804961
 30
0.0
 10
22.4831718794
 20
-3.0786804961
 30
0.0
 10
23.8997735069
 20
-2.9030550442
 30
0.0
 10
25.2300368839
 20
-2.3279474357
 30
0.0
 10
25.7555096981
 20
-1.9332174185
 30
0.0
  0
SPLINE
  5
269
100
AcDbEntity
  8
DRAFT
100
AcDbSpline
 62
7
  6
CONTINUOUS
 70
0
 71
3
 72
9
 73
5
 74
0
 42
0.0000001
 43
0.0000001
 44
0.0000000001
 40
0.0
 40
0.0
 40
0.0
 40
0.0
 40
0.2624547915
 40
1.0
 40
1.0
 40
1.0
 40
1.0
 10
25.8645573699
 20
-1.8481838612
 30
0.0
 10
25.9192208244
 20
-1.8039179334
 30
0.0
 10
26.1225650209
 20
-1.6294061156
 30
0.0
 10
26.3054676321
 20
-1.4299383498
 30
0.0
 10
26.4206908382
 20
-1.2693298475
 30
0.0
  0
SPLINE
  5
26A
100
AcDbEntity
  8
DRAFT
100
AcDbSpline
 62
7
  6
CONTINUOUS
 70
0
 71
3
 72
9
 73
5
 74
0
 42
0.0000001
 43
0.0000001
 44
0.0000000001
 40
0.0
 40
0.0
 40
0.0
 40
0.0
 40
0.2655889101
 40
1.0
 40
1.0
 40
1.0
 40
1.0
 10
26.4206908382
 20
-1.2693298475
 30
0.0
 10
26.4777495422
 20
-1.189796277
 30
0.0
 10
26.6747721871
 20
-0.8784511948
 30
0.0
 10
26.7900492607
 20
-0.5116963475
 30
0.0
 10
26.8057178012
 20
-0.2414795918
 30
0.0
  0
SPLINE
  5
26B
100
AcDbEntity
  8
ASSI
100
AcDbSpline
 62
7
  6
CONTINUOUS
 70
0
 71
3
 72
9
 73
5
 74
0
 42
0.0000001
 43
0.0000001
 44
0.0000000001
 40
0.0
 40
0.0
 40
0.0
 40
0.0
 40
0.270765421
 40
1.0
 40
1.0
 40
1.0
 40
1.0
 10
6.9465790339
 20
-23.7203593644
 30
0.0
 10
6.915330078
 20
-23.7579401204
 30
0.0
 10
6.8087872928
 20
-23.9034605392
 30
0.0
 10
6.7500697578
 20
-24.0868598966
 30
0.0
 10
6.7501195732
 20
-24.2184929238
 30
0.0
  0
SPLINE
  5
26C
100
AcDbEntity
  8
ASSI
100
AcDbSpline
 62
7
  6
CONTINUOUS
 70
0
 71
3
 72
9
 73
5
 74
0
 42
0.0000001
 43
0.0000001
 44
0.0000000001
 40
0.0
 40
0.0
 40
0.0
 40
0.0
 40
0.2703033014
 40
1.0
 40
1.0
 40
1.0
 40
1.0
 10
-6.9461728462
 20
-23.720291211
 30
0.0
 10
-6.9150089862
 20
-23.7578232061
 30
0.0
 10
-6.808708797
 20
-23.9034927378
 30
0.0
 10
-6.7500928566
 20
-24.0868016759
 30
0.0
 10
-6.7500428065
 20
-24.218495252
 30
0.0
  0
SPLINE
  5
26D
100
AcDbEntity
  8
DRAFT
100
AcDbSpline
 62
7
  6
CONTINUOUS
 70
0
 71
3
 72
8
 73
4
 74
0
 42
0.0000001
 43
0.0000001
 44
0.0000000001
 40
0.0
 40
0.0
 40
0.0
 40
0.0
 40
1.0
 40
1.0
 40
1.0
 40
1.0
 10
26.6583867045
 20
-3.4297867678
 30
0.0
 10
26.7172980887
 20
-3.2537244864
 30
0.0
 10
26.7500380762
 20
-3.0660655211
 30
0.0
 10
26.7500380762
 20
-2.8804086383
 30
0.0
  0
SPLINE
  5
26E
100
AcDbEntity
  8
DRAFT
100
AcDbSpline
 62
7
  6
CONTINUOUS
 70
0
 71
3
 72
9
 73
5
 74
0
 42
0.0000001
 43
0.0000001
 44
0.0000000001
 40
0.0
 40
0.0
 40
0.0
 40
0.0
 40
0.7459047769
 40
1.0
 40
1.0
 40
1.0
 40
1.0
 10
-26.7479228078
 20
9.4743700362
 30
0.0
 10
-26.7330715515
 20
8.7822939526
 30
0.0
 10
-26.6022846184
 20
7.8523843726
 30
0.0
 10
-26.3395118546
 20
6.9620976615
 30
0.0
 10
-26.2648032119
 20
6.7384323314
 30
0.0
  0
SPLINE
  5
26F
100
AcDbEntity
  8
DRAFT
100
AcDbSpline
 62
7
  6
CONTINUOUS
 70
0
 71
3
 72
9
 73
5
 74
0
 42
0.0000001
 43
0.0000001
 44
0.0000000001
 40
0.0
 40
0.0
 40
0.0
 40
0.0
 40
0.24550197
 40
1.0
 40
1.0
 40
1.0
 40
1.0
 10
-26.6315353204
 20
10.6261529139
 30
0.0
 10
-26.5915368479
 20
10.4257958371
 30
0.0
 10
-26.4018825726
 20
9.6151325109
 30
0.0
 10
-26.1055401473
 20
8.8303766609
 30
0.0
 10
-25.8336691203
 20
8.264380963
 30
0.0
  0
SPLINE
  5
270
100
AcDbEntity
  8
DRAFT
100
AcDbSpline
 62
7
  6
CONTINUOUS
 70
0
 71
3
 72
11
 73
7
 74
0
 42
0.0000001
 43
0.0000001
 44
0.0000000001
 40
0.0
 40
0.0
 40
0.0
 40
0.0
 40
0.2022096132
 40
0.4414105564
 40
0.7119534614
 40
1.0
 40
1.0
 40
1.0
 40
1.0
 10
-25.2460183526
 20
7.1933036125
 30
0.0
 10
-24.2451337451
 20
5.5751849506
 30
0.0
 10
-21.2319605744
 20
2.5564783748
 30
0.0
 10
-15.2608570995
 20
-0.6079686918
 30
0.0
 10
-7.9787182555
 20
-2.6242938059
 30
0.0
 10
-2.7102772842
 20
-3.0786804961
 30
0.0
 10
0.0000380762
 20
-3.0786804961
 30
0.0
  0
SPLINE
  5
271
100
AcDbEntity
  8
ASSI
100
AcDbSpline
 62
7
  6
CONTINUOUS
 70
0
 71
3
 72
9
 73
5
 74
0
 42
0.0000001
 43
0.0000001
 44
0.0000000001
 40
0.0
 40
0.0
 40
0.0
 40
0.0
 40
0.7296919639
 40
1.0
 40
1.0
 40
1.0
 40
1.0
 10
10.7499565792
 20
-24.2184975598
 30
0.0
 10
10.749906735
 20
-24.086788298
 30
0.0
 10
10.691278467
 20
-23.9034553418
 30
0.0
 10
10.5849548928
 20
-23.7577747521
 30
0.0
 10
10.5537838859
 20
-23.7202396167
 30
0.0
  0
SPLINE
  5
272
100
AcDbEntity
  8
ASSI
100
AcDbSpline
 62
7
  6
CONTINUOUS
 70
0
 71
3
 72
9
 73
5
 74
0
 42
0.0000001
 43
0.0000001
 44
0.0000000001
 40
0.0
 40
0.0
 40
0.0
 40
0.0
 40
0.729234792
 40
1.0
 40
1.0
 40
1.0
 40
1.0
 10
-10.7498810411
 20
-24.2184952315
 30
0.0
 10
-10.7499310664
 20
-24.0868670583
 30
0.0
 10
-10.6912188774
 20
-23.9034743336
 30
0.0
 10
-10.5846830687
 20
-23.7579570207
 30
0.0
 10
-10.5534360646
 20
-23.7203770542
 30
0.0
  0
SPLINE
  5
273
100
AcDbEntity
  8
RACCORDO
100
AcDbSpline
 62
7
  6
CONTINUOUS
 70
0
 71
3
 72
19
 73
15
 74
0
 42
0.0000001
 43
0.0000001
 44
0.0000000001
 40
0.0
 40
0.0
 40
0.0
 40
0.0
 40
0.0466274805
 40
0.0961778743
 40
0.1507157858
 40
0.2112619732
 40
0.3489478558
 40
0.5009900519
 40
0.6527880697
 40
0.7898283854
 40
0.8499878791
 40
0.9041689823
 40
0.9534604641
 40
1.0
 40
1.0
 40
1.0
 40
1.0
 10
26.8896024316
 20
16.1967834601
 30
0.0
 10
26.8896024311
 20
17.2558071278
 30
0.0
 10
26.4992638881
 20
19.4546049643
 30
0.0
 10
24.8468680099
 20
22.5053784131
 30
0.0
 10
22.2463218092
 20
25.240799355
 30
0.0
 10
17.4880584997
 20
28.5086372605
 30
0.0
 10
9.8869318143
 20
31.2458906549
 30
0.0
 10
-0.1619593802
 20
32.3126574093
 30
0.0
 10
-10.1885245566
 20
31.1772377522
 30
0.0
 10
-17.7410300787
 20
28.385139022
 30
0.0
 10
-22.4353325612
 20
25.0792948487
 30
0.0
 10
-24.980209099
 20
22.3218044117
 30
0.0
 10
-26.5686318474
 20
19.2540366845
 30
0.0
 10
-26.9099958834
 20
17.0547980728
 30
0.0
 10
-26.8874014841
 20
15.9980133499
 30
0.0
  0
SPLINE
  5
274
100
AcDbEntity
  8
RACCORDO
100
AcDbSpline
 62
7
  6
CONTINUOUS
 70
0
 71
3
 72
9
 73
5
 74
0
 42
0.0000001
 43
0.0000001
 44
0.0000000001
 40
0.0
 40
0.0
 40
0.0
 40
0.0
 40
0.2460056163
 40
1.0
 40
1.0
 40
1.0
 40
1.0
 10
20.8326329571
 20
16.6050192359
 30
0.0
 10
20.8326029066
 20
16.8564354358
 30
0.0
 10
20.7778110497
 20
17.8781934272
 30
0.0
 10
20.4942504908
 20
18.8835909979
 30
0.0
 10
20.1816900041
 20
19.5879316089
 30
0.0
  0
SPLINE
  5
275
100
AcDbEntity
  8
RACCORDO
100
AcDbSpline
 62
7
  6
CONTINUOUS
 70
0
 71
3
 72
12
 73
8
 74
0
 42
0.0000001
 43
0.0000001
 44
0.0000000001
 40
0.0
 40
0.0
 40
0.0
 40
0.0
 40
0.2008487881
 40
0.324307586
 40
0.4594163727
 40
0.7416605962
 40
1.0
 40
1.0
 40
1.0
 40
1.0
 10
20.1811033109
 20
19.5877527126
 30
0.0
 10
19.1450758776
 20
21.9299791343
 30
0.0
 10
15.7820105674
 20
24.8913467182
 30
0.0
 10
10.4288172563
 20
27.216200179
 30
0.0
 10
3.6754928972
 20
28.8284170265
 30
0.0
 10
-5.0488128541
 20
28.8455102491
 30
0.0
 10
-11.8281802919
 20
26.8204080539
 30
0.0
 10
-14.6810135252
 20
25.1732178994
 30
0.0
  0
SPLINE
  5
276
100
AcDbEntity
  8
RACCORDO
100
AcDbSpline
 62
7
  6
CONTINUOUS
 70
0
 71
3
 72
11
 73
7
 74
0
 42
0.0000001
 43
0.0000001
 44
0.0000000001
 40
0.0
 40
0.0
 40
0.0
 40
0.0
 40
0.2893024832
 40
0.5487740874
 40
0.7821123827
 40
1.0
 40
1.0
 40
1.0
 40
1.0
 10
-14.743477459
 20
25.1173480445
 30
0.0
 10
-15.655872781
 20
24.590516896
 30
0.0
 10
-17.3088137168
 20
23.4427970634
 30
0.0
 10
-19.2819619304
 20
21.3552775166
 30
0.0
 10
-20.5401576768
 20
19.0533107682
 30
0.0
 10
-20.8326516472
 20
17.3985145408
 30
0.0
 10
-20.8325568046
 20
16.6050179598
 30
0.0
  0
SPLINE
  5
277
100
AcDbEntity
  8
RACCORDO
100
AcDbSpline
 62
7
  6
CONTINUOUS
 70
0
 71
3
 72
9
 73
5
 74
0
 42
0.0000001
 43
0.0000001
 44
0.0000000001
 40
0.0
 40
0.0
 40
0.0
 40
0.0
 40
0.2603241608
 40
1.0
 40
1.0
 40
1.0
 40
1.0
 10
7.9655484354
 20
-20.598987667
 30
0.0
 10
8.2267377072
 20
-20.598987667
 30
0.0
 10
9.2285403536
 20
-20.5515151995
 30
0.0
 10
10.2289872214
 20
-20.3198281985
 30
0.0
 10
10.9075097339
 20
-20.0192122015
 30
0.0
  0
SPLINE
  5
278
100
AcDbEntity
  8
RACCORDO
100
AcDbSpline
 62
7
  6
CONTINUOUS
 70
0
 71
3
 72
9
 73
5
 74
0
 42
0.0000001
 43
0.0000001
 44
0.0000000001
 40
0.0
 40
0.0
 40
0.0
 40
0.0
 40
0.2374945414
 40
1.0
 40
1.0
 40
1.0
 40
1.0
 10
-10.9074335814
 20
-20.0192122015
 30
0.0
 10
-10.689511582
 20
-20.1157614507
 30
0.0
 10
-9.7462585253
 20
-20.4634235161
 30
0.0
 10
-8.730731253
 20
-20.598987667
 30
0.0
 10
-7.965472283
 20
-20.598987667
 30
0.0
  0
SPLINE
  5
279
100
AcDbEntity
  8
RACCORDO
100
AcDbSpline
 62
7
  6
CONTINUOUS
 70
0
 71
3
 72
9
 73
5
 74
0
 42
0.0000001
 43
0.0000001
 44
0.0000000001
 40
0.0
 40
0.0
 40
0.0
 40
0.0
 40
0.5168633104
 40
1.0
 40
1.0
 40
1.0
 40
1.0
 10
-16.6156389352
 20
-17.4902204405
 30
0.0
 10
-16.8534550743
 20
-17.3848571925
 30
0.0
 10
-17.292592663
 20
-17.0990925531
 30
0.0
 10
-17.4999619238
 20
-16.5891075946
 30
0.0
 10
-17.4999619238
 20
-16.3459691312
 30
0.0
  0
SPLINE
  5
27A
100
AcDbEntity
  8
RACCORDO
100
AcDbSpline
 62
250
  6
CONTINUOUS
 70
0
 71
3
 72
9
 73
5
 74
0
 42
0.0000001
 43
0.0000001
 44
0.0000000001
 40
0.0
 40
0.0
 40
0.0
 40
0.0
 40
0.2352325384
 40
1.0
 40
1.0
 40
1.0
 40
1.0
 10
-7.3357483614
 20
-30.750336366
 30
0.0
 10
-7.377500721
 20
-30.7744436551
 30
0.0
 10
-7.5590992342
 20
-30.8697814404
 30
0.0
 10
-7.7537504712
 20
-30.9390580951
 30
0.0
 10
-7.9050614852
 20
-30.9799663505
 30
0.0
  0
SPLINE
  5
27B
100
AcDbEntity
  8
RACCORDO
100
AcDbSpline
 62
250
  6
CONTINUOUS
 70
0
 71
3
 72
8
 73
4
 74
0
 42
0.0000001
 43
0.0000001
 44
0.0000000001
 40
0.0
 40
0.0
 40
0.0
 40
0.0
 40
1.0
 40
1.0
 40
1.0
 40
1.0
 10
-7.9050614852
 20
-30.9799663505
 30
0.0
 10
-8.2347339651
 20
-31.0690961875
 30
0.0
 10
-8.5832016822
 20
-31.1012945215
 30
0.0
 10
-8.9242784343
 20
-31.0841270792
 30
0.0
  0
SPLINE
  5
27C
100
AcDbEntity
  8
RACCORDO
100
AcDbSpline
 62
250
  6
CONTINUOUS
 70
0
 71
3
 72
10
 73
6
 74
0
 42
0.0000001
 43
0.0000001
 44
0.0000000001
 40
0.0
 40
0.0
 40
0.0
 40
0.0
 40
0.312267297
 40
0.5915686209
 40
1.0
 40
1.0
 40
1.0
 40
1.0
 10
-8.9242784343
 20
-31.0841270792
 30
0.0
 10
-9.1636779539
 20
-31.0720773649
 30
0.0
 10
-9.6191682886
 20
-30.9968058868
 30
0.0
 10
-10.3260721032
 20
-30.7280075131
 30
0.0
 10
-10.7497618951
 20
-30.2473071827
 30
0.0
 10
-10.7498810409
 20
-29.9337871691
 30
0.0
  0
SPLINE
  5
27D
100
AcDbEntity
  8
RACCORDO
100
AcDbSpline
 62
7
  6
CONTINUOUS
 70
0
 71
3
 72
15
 73
11
 74
0
 42
0.0000001
 43
0.0000001
 44
0.0000000001
 40
0.0
 40
0.0
 40
0.0
 40
0.0
 40
0.0869366548
 40
0.1863940698
 40
0.3037744184
 40
0.4375707294
 40
0.5820611896
 40
0.7293375208
 40
0.8710870649
 40
1.0
 40
1.0
 40
1.0
 40
1.0
 10
-20.8325568046
 20
16.6050179598
 30
0.0
 10
-20.8324131466
 20
15.4031085514
 30
0.0
 10
-20.1065658263
 20
12.8027268847
 30
0.0
 10
-17.2722387625
 20
9.5792302814
 30
0.0
 10
-13.0883645032
 20
7.030132063
 30
0.0
 10
-7.8650638847
 20
5.2851153542
 30
0.0
 10
-2.0103418389
 20
4.4633382073
 30
0.0
 10
4.0103635444
 20
4.6289256474
 30
0.0
 10
9.7000730163
 20
5.7742445963
 30
0.0
 10
13.1997773264
 20
7.2013320675
 30
0.0
 10
14.743214464
 20
8.092493327
 30
0.0
  0
SPLINE
  5
27E
100
AcDbEntity
  8
RACCORDO
100
AcDbSpline
 62
250
  6
CONTINUOUS
 70
0
 71
3
 72
9
 73
5
 74
0
 42
0.0000001
 43
0.0000001
 44
0.0000000001
 40
0.0
 40
0.0
 40
0.0
 40
0.0
 40
0.2053057358
 40
1.0
 40
1.0
 40
1.0
 40
1.0
 10
16.6157412401
 20
-17.4902794685
 30
0.0
 10
16.6319289436
 20
-17.4831071807
 30
0.0
 10
16.703108093
 20
-17.429319778
 30
0.0
 10
16.7175609342
 20
-17.3306477188
 30
0.0
 10
16.7175609342
 20
-17.2621136824
 30
0.0
  0
SPLINE
  5
27F
100
AcDbEntity
  8
RACCORDO
100
AcDbSpline
 62
250
  6
CONTINUOUS
 70
0
 71
3
 72
9
 73
5
 74
0
 42
0.0000001
 43
0.0000001
 44
0.0000000001
 40
0.0
 40
0.0
 40
0.0
 40
0.0
 40
0.2053057358
 40
1.0
 40
1.0
 40
1.0
 40
1.0
 10
10.9075358863
 20
-20.0192712295
 30
0.0
 10
10.9237235898
 20
-20.0120989417
 30
0.0
 10
10.9949027393
 20
-19.958311539
 30
0.0
 10
11.0093555805
 20
-19.8596394798
 30
0.0
 10
11.0093555805
 20
-19.7911054434
 30
0.0
  0
SPLINE
  5
280
100
AcDbEntity
  8
ASSI
100
AcDbSpline
 62
7
  6
CONTINUOUS
 70
0
 71
3
 72
9
 73
5
 74
0
 42
0.0000001
 43
0.0000001
 44
0.0000000001
 40
0.0
 40
0.0
 40
0.0
 40
0.0
 40
0.2929467704
 40
1.0
 40
1.0
 40
1.0
 40
1.0
 10
-7.4771697177
 20
-24.9533895098
 30
0.0
 10
-7.3986047028
 20
-24.9080270548
 30
0.0
 10
-7.1453332579
 20
-24.7363126506
 30
0.0
 10
-6.9480441122
 20
-24.4333889836
 30
0.0
 10
-6.9499046407
 20
-24.2144347847
 30
0.0
  0
SPLINE
  5
281
100
AcDbEntity
  8
RACCORDO
100
AcDbSpline
 62
250
  6
CONTINUOUS
 70
0
 71
3
 72
9
 73
5
 74
0
 42
0.0000001
 43
0.0000001
 44
0.0000000001
 40
0.0
 40
0.0
 40
0.0
 40
0.0
 40
0.2053057358
 40
1.0
 40
1.0
 40
1.0
 40
1.0
 10
-10.9074597339
 20
-20.0192712295
 30
0.0
 10
-10.9236474374
 20
-20.0120989417
 30
0.0
 10
-10.9948265868
 20
-19.958311539
 30
0.0
 10
-11.009279428
 20
-19.8596394798
 30
0.0
 10
-11.009279428
 20
-19.7911054434
 30
0.0
  0
SPLINE
  5
282
100
AcDbEntity
  8
ASSI
100
AcDbSpline
 62
7
  6
CONTINUOUS
 70
0
 71
3
 72
8
 73
4
 74
0
 42
0.0000001
 43
0.0000001
 44
0.0000000001
 40
0.0
 40
0.0
 40
0.0
 40
0.0
 40
1.0
 40
1.0
 40
1.0
 40
1.0
 10
-7.4771697177
 20
-24.9533895098
 30
0.0
 10
-7.5771257049
 20
-25.0111028441
 30
0.0
 10
-7.6834555319
 20
-25.0583154721
 30
0.0
 10
-7.7920294262
 20
-25.097478437
 30
0.0
  0
SPLINE
  5
283
100
AcDbEntity
  8
ASSI
100
AcDbSpline
 62
7
  6
CONTINUOUS
 70
0
 71
3
 72
8
 73
4
 74
0
 42
0.0000001
 43
0.0000001
 44
0.0000000001
 40
0.0
 40
0.0
 40
0.0
 40
0.0
 40
1.0
 40
1.0
 40
1.0
 40
1.0
 10
-7.7920294262
 20
-25.097478437
 30
0.0
 10
-7.9007045679
 20
-25.1366779223
 30
0.0
 10
-8.0124447149
 20
-25.1679938006
 30
0.0
 10
-8.1253727258
 20
-25.192369002
 30
0.0
  0
SPLINE
  5
284
100
AcDbEntity
  8
ASSI
100
AcDbSpline
 62
7
  6
CONTINUOUS
 70
0
 71
3
 72
9
 73
5
 74
0
 42
0.0000001
 43
0.0000001
 44
0.0000000001
 40
0.0
 40
0.0
 40
0.0
 40
0.0
 40
0.57358563
 40
1.0
 40
1.0
 40
1.0
 40
1.0
 10
-9.5671448233
 20
-25.144516042
 30
0.0
 10
-9.8264132095
 20
-25.0679883696
 30
0.0
 10
-10.273815053
 20
-24.8779337035
 30
0.0
 10
-10.5483115916
 20
-24.4235144855
 30
0.0
 10
-10.5500192069
 20
-24.2225556989
 30
0.0
  0
SPLINE
  5
285
100
AcDbEntity
  8
RACCORDO
100
AcDbSpline
 62
250
  6
CONTINUOUS
 70
0
 71
3
 72
9
 73
5
 74
0
 42
0.0000001
 43
0.0000001
 44
0.0000000001
 40
0.0
 40
0.0
 40
0.0
 40
0.0
 40
0.2053057358
 40
1.0
 40
1.0
 40
1.0
 40
1.0
 10
-16.6156650876
 20
-17.4902794685
 30
0.0
 10
-16.6318527912
 20
-17.4831071807
 30
0.0
 10
-16.7030319406
 20
-17.429319778
 30
0.0
 10
-16.7174847818
 20
-17.3306477188
 30
0.0
 10
-16.7174847818
 20
-17.2621136824
 30
0.0
  0
SPLINE
  5
286
100
AcDbEntity
  8
ASSI
100
AcDbSpline
 62
7
  6
CONTINUOUS
 70
0
 71
3
 72
9
 73
5
 74
0
 42
0.0000001
 43
0.0000001
 44
0.0000000001
 40
0.0
 40
0.0
 40
0.0
 40
0.0
 40
0.5635892888
 40
1.0
 40
1.0
 40
1.0
 40
1.0
 10
9.8080515303
 20
-25.0593045335
 30
0.0
 10
10.0107806545
 20
-24.9747017162
 30
0.0
 10
10.3610061819
 20
-24.7746563126
 30
0.0
 10
10.5488356077
 20
-24.3885981097
 30
0.0
 10
10.5488356077
 20
-24.2184952418
 30
0.0
  0
SPLINE
  5
287
100
AcDbEntity
  8
RACCORDO
100
AcDbSpline
 62
250
  6
CONTINUOUS
 70
0
 71
3
 72
9
 73
5
 74
0
 42
0.0000001
 43
0.0000001
 44
0.0000000001
 40
0.0
 40
0.0
 40
0.0
 40
0.0
 40
0.2268679606
 40
1.0
 40
1.0
 40
1.0
 40
1.0
 10
23.2830857773
 20
-13.5285210142
 30
0.0
 10
23.2699483189
 20
-13.567399888
 30
0.0
 10
23.1943439535
 20
-13.7329665351
 30
0.0
 10
23.0570755258
 20
-13.8640897091
 30
0.0
 10
22.9418649755
 20
-13.9433703614
 30
0.0
  0
SPLINE
  5
288
100
AcDbEntity
  8
RACCORDO
100
AcDbSpline
 62
250
  6
CONTINUOUS
 70
0
 71
3
 72
9
 73
5
 74
0
 42
0.0000001
 43
0.0000001
 44
0.0000000001
 40
0.0
 40
0.0
 40
0.0
 40
0.0
 40
0.2245011295
 40
1.0
 40
1.0
 40
1.0
 40
1.0
 10
22.9418649755
 20
-13.9433703614
 30
0.0
 10
22.8637098779
 20
-13.9971517826
 30
0.0
 10
22.4897502095
 20
-14.1986219322
 30
0.0
 10
22.0556777868
 20
-14.2700806072
 30
0.0
 10
21.7279601376
 20
-14.2700806099
 30
0.0
  0
SPLINE
  5
289
100
AcDbEntity
  8
DRAFT
100
AcDbSpline
 62
7
  6
CONTINUOUS
 70
0
 71
3
 72
9
 73
5
 74
0
 42
0.0000001
 43
0.0000001
 44
0.0000000001
 40
0.0
 40
0.0
 40
0.0
 40
0.0
 40
0.5560813002
 40
1.0
 40
1.0
 40
1.0
 40
1.0
 10
21.7279601376
 20
-5.7800934986
 30
0.0
 10
22.671888
 20
-5.7800934986
 30
0.0
 10
24.3706735979
 20
-5.5274113046
 30
0.0
 10
25.9274284197
 20
-4.6038364178
 30
0.0
 10
26.3666804652
 20
-3.9915668609
 30
0.0
  0
SPLINE
  5
28A
100
AcDbEntity
  8
DRAFT
100
AcDbSpline
 62
7
  6
CONTINUOUS
 70
0
 71
3
 72
8
 73
4
 74
0
 42
0.0000001
 43
0.0000001
 44
0.0000000001
 40
0.0
 40
0.0
 40
0.0
 40
0.0
 40
1.0
 40
1.0
 40
1.0
 40
1.0
 10
26.3666804652
 20
-3.9915668609
 30
0.0
 10
26.4896768969
 20
-3.8201232183
 30
0.0
 10
26.5914335803
 20
-3.6298825547
 30
0.0
 10
26.6583867045
 20
-3.4297867678
 30
0.0
  0
SPLINE
  5
28B
100
AcDbEntity
  8
ASSI
100
AcDbSpline
 62
7
  6
CONTINUOUS
 70
0
 71
3
 72
9
 73
5
 74
0
 42
0.0000001
 43
0.0000001
 44
0.0000000001
 40
0.0
 40
0.0
 40
0.0
 40
0.0
 40
0.5635892888
 40
1.0
 40
1.0
 40
1.0
 40
1.0
 10
7.6920246221
 20
-25.0593045335
 30
0.0
 10
7.4892954979
 20
-24.9747017162
 30
0.0
 10
7.1390699705
 20
-24.7746563126
 30
0.0
 10
6.9512405447
 20
-24.3885981097
 30
0.0
 10
6.9512405447
 20
-24.2184952418
 30
0.0
  0
SPLINE
  5
28C
100
AcDbEntity
  8
DRAFT
100
AcDbSpline
 62
7
  6
CONTINUOUS
 70
0
 71
3
 72
11
 73
7
 74
0
 42
0.0000001
 43
0.0000001
 44
0.0000000001
 40
0.0
 40
0.0
 40
0.0
 40
0.0
 40
0.4239323543
 40
0.5582519442
 40
0.7008007216
 40
1.0
 40
1.0
 40
1.0
 40
1.0
 10
-26.2648032119
 20
6.7384323314
 30
0.0
 10
-24.9040572695
 20
2.6645838545
 30
0.0
 10
-19.7348654448
 20
-1.3043043946
 30
0.0
 10
-13.1920215539
 20
-3.8545917756
 30
0.0
 10
-7.5208292984
 20
-5.3518837369
 30
0.0
 10
-3.0313190543
 20
-5.7800934986
 30
0.0
 10
0.0000380762
 20
-5.7800934986
 30
0.0
  0
SPLINE
  5
28D
100
AcDbEntity
  8
0
100
AcDbSpline
 62
7
  6
CONTINUOUS
 70
0
 71
3
 72
11
 73
7
 74
0
 42
0.0000001
 43
0.0000001
 44
0.0000000001
 40
0.0
 40
0.0
 40
0.0
 40
0.0
 40
0.2038221379
 40
0.4436687097
 40
0.7135045447
 40
1.0
 40
1.0
 40
1.0
 40
1.0
 10
-24.6482979924
 20
6.2887697319
 30
0.0
 10
-23.6087926816
 20
4.7462706376
 30
0.0
 10
-20.6011453935
 20
1.8906714384
 30
0.0
 10
-14.7614727501
 20
-1.1077132219
 30
0.0
 10
-7.7030382695
 20
-3.0137943669
 30
0.0
 10
-2.6145096453
 20
-3.443231025
 30
0.0
 10
0.0000380762
 20
-3.443231025
 30
0.0
  0
SPLINE
  5
28E
100
AcDbEntity
  8
DRAFT
100
AcDbSpline
 62
7
  6
CONTINUOUS
 70
0
 71
3
 72
9
 73
5
 74
0
 42
0.0000001
 43
0.0000001
 44
0.0000000001
 40
0.0
 40
0.0
 40
0.0
 40
0.0
 40
0.2741267919
 40
1.0
 40
1.0
 40
1.0
 40
1.0
 10
22.4092209141
 20
-3.6162855707
 30
0.0
 10
22.7318281874
 20
-3.590862227
 30
0.0
 10
23.8984774386
 20
-3.4333768853
 30
0.0
 10
25.0606974083
 20
-3.0151062037
 30
0.0
 10
25.7458223658
 20
-2.5004474966
 30
0.0
  0
SPLINE
  5
28F
100
AcDbEntity
  8
DRAFT
100
AcDbSpline
 62
7
  6
CONTINUOUS
 70
0
 71
3
 72
9
 73
5
 74
0
 42
0.0000001
 43
0.0000001
 44
0.0000000001
 40
0.0
 40
0.0
 40
0.0
 40
0.0
 40
0.2632011304
 40
1.0
 40
1.0
 40
1.0
 40
1.0
 10
25.8149913975
 20
-2.4472529911
 30
0.0
 10
25.8737584013
 20
-2.4009766134
 30
0.0
 10
26.0916605782
 20
-2.2186251819
 30
0.0
 10
26.2873426551
 20
-2.0082966353
 30
0.0
 10
26.4094029963
 20
-1.8381584041
 30
0.0
  0
SPLINE
  5
290
100
AcDbEntity
  8
DRAFT
100
AcDbSpline
 62
7
  6
CONTINUOUS
 70
0
 71
3
 72
9
 73
5
 74
0
 42
0.0000001
 43
0.0000001
 44
0.0000000001
 40
0.0
 40
0.0
 40
0.0
 40
0.0
 40
0.2619099789
 40
1.0
 40
1.0
 40
1.0
 40
1.0
 10
26.4094029963
 20
-1.8381584041
 30
0.0
 10
26.4504461283
 20
-1.7809489467
 30
0.0
 10
26.597681718
 20
-1.5560350573
 30
0.0
 10
26.7041119302
 20
-1.3032127739
 30
0.0
 10
26.7497580312
 20
-1.1101138389
 30
0.0
  0
SPLINE
  5
291
100
AcDbEntity
  8
DRAFT
100
AcDbSpline
 62
7
  6
CONTINUOUS
 70
0
 71
3
 72
8
 73
4
 74
0
 42
0.0000001
 43
0.0000001
 44
0.0000000001
 40
0.0
 40
0.0
 40
0.0
 40
0.0
 40
1.0
 40
1.0
 40
1.0
 40
1.0
 10
26.7497580312
 20
-1.1101138389
 30
0.0
 10
26.7801315037
 20
-0.9816234517
 30
0.0
 10
26.7962939983
 20
-0.8487939444
 30
0.0
 10
26.7962939983
 20
-0.7167624048
 30
0.0
  0
SPLINE
  5
292
100
AcDbEntity
  8
RACCORDO
100
AcDbSpline
 62
250
  6
CONTINUOUS
 70
0
 71
3
 72
11
 73
7
 74
0
 42
0.0000001
 43
0.0000001
 44
0.0000000001
 40
0.0
 40
0.0
 40
0.0
 40
0.0
 40
0.3073911714
 40
0.5848816583
 40
0.8135051779
 40
1.0
 40
1.0
 40
1.0
 40
1.0
 10
21.7279601376
 20
0.6640052899
 30
0.0
 10
22.3907035141
 20
0.6640052899
 30
0.0
 10
23.6578922231
 20
0.8012061652
 30
0.0
 10
25.3223764663
 20
1.4081789586
 30
0.0
 10
26.536356602
 20
2.3449200233
 30
0.0
 10
26.8895262792
 20
3.2421411938
 30
0.0
 10
26.8895262792
 20
3.6442288905
 30
0.0
  0
SPLINE
  5
293
100
AcDbEntity
  8
DRAFT
100
AcDbSpline
 62
7
  6
CONTINUOUS
 70
0
 71
3
 72
11
 73
7
 74
0
 42
0.0000001
 43
0.0000001
 44
0.0000000001
 40
0.0
 40
0.0
 40
0.0
 40
0.0
 40
0.2022086484
 40
0.4414092238
 40
0.7119525489
 40
1.0
 40
1.0
 40
1.0
 40
1.0
 10
-25.2346547306
 20
6.6243783403
 30
0.0
 10
-24.2342577333
 20
5.0069672093
 30
0.0
 10
-21.2224803048
 20
1.9895662335
 30
0.0
 10
-15.2540706014
 20
-1.1735098479
 30
0.0
 10
-7.9751788484
 20
-3.1889643355
 30
0.0
 10
-2.7090762508
 20
-3.6431548548
 30
0.0
 10
0.0000380762
 20
-3.6431548548
 30
0.0
  0
SPLINE
  5
294
100
AcDbEntity
  8
RACCORDO
100
AcDbSpline
 62
250
  6
CONTINUOUS
 70
0
 71
3
 72
11
 73
7
 74
0
 42
0.0000001
 43
0.0000001
 44
0.0000000001
 40
0.0
 40
0.0
 40
0.0
 40
0.0
 40
0.2992015984
 40
0.4417470392
 40
0.5760667093
 40
1.0
 40
1.0
 40
1.0
 40
1.0
 10
0.0000380762
 20
-14.2700806099
 30
0.0
 10
-2.6417738139
 20
-14.2700806169
 30
0.0
 10
-6.5543104945
 20
-13.8968787007
 30
0.0
 10
-11.4967027951
 20
-12.5920812383
 30
0.0
 10
-17.1986336972
 20
-10.3694135695
 30
0.0
 10
-21.7036311523
 20
-6.9106405752
 30
0.0
 10
-22.8894201666
 20
-3.3602934277
 30
0.0
  0
SPLINE
  5
295
100
AcDbEntity
  8
RACCORDO
100
AcDbSpline
 62
250
  6
CONTINUOUS
 70
0
 71
3
 72
9
 73
5
 74
0
 42
0.0000001
 43
0.0000001
 44
0.0000000001
 40
0.0
 40
0.0
 40
0.0
 40
0.0
 40
0.2470464964
 40
1.0
 40
1.0
 40
1.0
 40
1.0
 10
-26.8873836947
 20
15.9980135318
 30
0.0
 10
-26.8818827391
 20
15.7427454033
 30
0.0
 10
-26.8154711441
 20
14.7106579054
 30
0.0
 10
-26.5698491147
 20
13.6919768344
 30
0.0
 10
-26.3012279597
 20
12.9616168071
 30
0.0
  0
SPLINE
  5
296
100
AcDbEntity
  8
RACCORDO
100
AcDbSpline
 62
250
  6
CONTINUOUS
 70
0
 71
3
 72
11
 73
7
 74
0
 42
0.0000001
 43
0.0000001
 44
0.0000000001
 40
0.0
 40
0.0
 40
0.0
 40
0.0
 40
0.2004347233
 40
0.4389564668
 40
0.7102699564
 40
1.0
 40
1.0
 40
1.0
 40
1.0
 10
-25.5732918792
 20
11.3918027039
 30
0.0
 10
-24.6296940729
 20
9.7149646217
 30
0.0
 10
-21.6528899453
 20
6.5574230305
 30
0.0
 10
-15.6154361758
 20
3.2518964676
 30
0.0
 10
-8.1806183198
 20
1.1399879645
 30
0.0
 10
-2.7812650614
 20
0.6640052899
 30
0.0
 10
0.0000380762
 20
0.6640052899
 30
0.0
  0
SPLINE
  5
297
100
AcDbEntity
  8
RACCORDO
100
AcDbSpline
 62
250
  6
CONTINUOUS
 70
0
 71
3
 72
9
 73
5
 74
0
 42
0.0000001
 43
0.0000001
 44
0.0000000001
 40
0.0
 40
0.0
 40
0.0
 40
0.0
 40
0.2927200919
 40
1.0
 40
1.0
 40
1.0
 40
1.0
 10
-16.7174847818
 20
-17.2621136824
 30
0.0
 10
-16.8136163963
 20
-17.2195230526
 30
0.0
 10
-17.1284676248
 20
-17.0546834024
 30
0.0
 10
-17.4110383608
 20
-16.7670760194
 30
0.0
 10
-17.4765790066
 20
-16.5216234334
 30
0.0
  0
SPLINE
  5
298
100
AcDbEntity
  8
RACCORDO
100
AcDbSpline
 62
250
  6
CONTINUOUS
 70
0
 71
3
 72
8
 73
4
 74
0
 42
0.0000001
 43
0.0000001
 44
0.0000000001
 40
0.0
 40
0.0
 40
0.0
 40
0.0
 40
1.0
 40
1.0
 40
1.0
 40
1.0
 10
-17.4765790066
 20
-16.5216234334
 30
0.0
 10
-17.491817411
 20
-16.4645549424
 30
0.0
 10
-17.4999619181
 20
-16.405037072
 30
0.0
 10
-17.4999619238
 20
-16.3459691312
 30
0.0
  0
SPLINE
  5
299
100
AcDbEntity
  8
RACCORDO
100
AcDbSpline
 62
250
  6
CONTINUOUS
 70
0
 71
3
 72
9
 73
5
 74
0
 42
0.0000001
 43
0.0000001
 44
0.0000000001
 40
0.0
 40
0.0
 40
0.0
 40
0.0
 40
0.4387721706
 40
1.0
 40
1.0
 40
1.0
 40
1.0
 10
17.5000380762
 20
-16.3459691312
 30
0.0
 10
17.5000380939
 20
-16.5295750681
 30
0.0
 10
17.3031882539
 20
-16.9446459661
 30
0.0
 10
16.9322791126
 20
-17.1669838695
 30
0.0
 10
16.7175609342
 20
-17.2621136824
 30
0.0
  0
SPLINE
  5
29A
100
AcDbEntity
  8
RACCORDO
100
AcDbSpline
 62
250
  6
CONTINUOUS
 70
0
 71
3
 72
19
 73
15
 74
0
 42
0.0000001
 43
0.0000001
 44
0.0000000001
 40
0.0
 40
0.0
 40
0.0
 40
0.0
 40
0.0453728817
 40
0.0940253652
 40
0.1480593445
 40
0.208458928
 40
0.346584107
 40
0.4996348602
 40
0.6527706338
 40
0.7911221854
 40
0.8516644204
 40
0.9058366339
 40
0.9545488107
 40
1.0
 40
1.0
 40
1.0
 40
1.0
 10
26.3896024316
 20
16.6050185978
 30
0.0
 10
26.3896024316
 20
17.607954195
 30
0.0
 10
26.0177888272
 20
19.699843163
 30
0.0
 10
24.4365518339
 20
22.6157295711
 30
0.0
 10
21.9312743037
 20
25.2541605263
 30
0.0
 10
17.3086909725
 20
28.4379067915
 30
0.0
 10
9.8909381754
 20
31.1288624511
 30
0.0
 10
0.0546123172
 20
32.2107592569
 30
0.0
 10
-9.7891959374
 20
31.1516112414
 30
0.0
 10
-17.2235655511
 20
28.4792902201
 30
0.0
 10
-21.8678619815
 20
25.3074766565
 30
0.0
 10
-24.3904327108
 20
22.6758259892
 30
0.0
 10
-25.995146925
 20
19.7661651167
 30
0.0
 10
-26.3819794178
 20
17.6737880376
 30
0.0
 10
-26.3892925456
 20
16.6691481239
 30
0.0
  0
SPLINE
  5
29B
100
AcDbEntity
  8
ASSI
100
AcDbSpline
 62
7
  6
CONTINUOUS
 70
0
 71
3
 72
9
 73
5
 74
0
 42
0.0000001
 43
0.0000001
 44
0.0000000001
 40
0.0
 40
0.0
 40
0.0
 40
0.0
 40
0.4240416994
 40
1.0
 40
1.0
 40
1.0
 40
1.0
 10
6.7501195732
 20
-24.2184929238
 30
0.0
 10
6.7502074943
 20
-24.4508171443
 30
0.0
 10
7.0801120701
 20
-24.9778050908
 30
0.0
 10
7.6056966753
 20
-25.18470119
 30
0.0
 10
7.9105120214
 20
-25.2663311319
 30
0.0
  0
SPLINE
  5
29C
100
AcDbEntity
  8
ASSI
100
AcDbSpline
 62
7
  6
CONTINUOUS
 70
0
 71
3
 72
8
 73
4
 74
0
 42
0.0000001
 43
0.0000001
 44
0.0000000001
 40
0.0
 40
0.0
 40
0.0
 40
0.0
 40
1.0
 40
1.0
 40
1.0
 40
1.0
 10
7.9105120214
 20
-25.2663311319
 30
0.0
 10
8.4494054371
 20
-25.4106474821
 30
0.0
 10
9.0450598405
 20
-25.4111151592
 30
0.0
 10
9.5841602391
 20
-25.2675739369
 30
0.0
  0
SPLINE
  5
29D
100
AcDbEntity
  8
ASSI
100
AcDbSpline
 62
7
  6
CONTINUOUS
 70
0
 71
3
 72
9
 73
5
 74
0
 42
0.0000001
 43
0.0000001
 44
0.0000000001
 40
0.0
 40
0.0
 40
0.0
 40
0.0
 40
0.2641430813
 40
1.0
 40
1.0
 40
1.0
 40
1.0
 10
9.5841602391
 20
-25.2675739369
 30
0.0
 10
9.6374149581
 20
-25.2533943008
 30
0.0
 10
9.8373686304
 20
-25.194013373
 30
0.0
 10
10.031295234
 20
-25.1118117901
 30
0.0
 10
10.1642516386
 20
-25.0350444284
 30
0.0
  0
SPLINE
  5
29E
100
AcDbEntity
  8
RACCORDO
100
AcDbSpline
 62
250
  6
CONTINUOUS
 70
0
 71
3
 72
9
 73
5
 74
0
 42
0.0000001
 43
0.0000001
 44
0.0000000001
 40
0.0
 40
0.0
 40
0.0
 40
0.0
 40
0.5450637843
 40
1.0
 40
1.0
 40
1.0
 40
1.0
 10
21.7279601376
 20
1.368014878
 30
0.0
 10
22.5149950961
 20
1.368014878
 30
0.0
 10
23.9625962013
 20
1.5677920798
 30
0.0
 10
25.3030526402
 20
2.2511832767
 30
0.0
 10
25.7672096537
 20
2.7160185088
 30
0.0
  0
SPLINE
  5
29F
100
AcDbEntity
  8
RACCORDO
100
AcDbSpline
 62
250
  6
CONTINUOUS
 70
0
 71
3
 72
9
 73
5
 74
0
 42
0.0000001
 43
0.0000001
 44
0.0000000001
 40
0.0
 40
0.0
 40
0.0
 40
0.0
 40
0.2760675423
 40
1.0
 40
1.0
 40
1.0
 40
1.0
 10
25.7672096537
 20
2.7160185088
 30
0.0
 10
25.8648537978
 20
2.8138053289
 30
0.0
 10
26.1933562192
 20
3.1900427967
 30
0.0
 10
26.3896024316
 20
3.6972112415
 30
0.0
 10
26.3896024316
 20
4.0595887144
 30
0.0
  0
SPLINE
  5
2A0
100
AcDbEntity
  8
RACCORDO
100
AcDbSpline
 62
250
  6
CONTINUOUS
 70
0
 71
3
 72
9
 73
5
 74
0
 42
0.0000001
 43
0.0000001
 44
0.0000000001
 40
0.0
 40
0.0
 40
0.0
 40
0.0
 40
0.2296906865
 40
1.0
 40
1.0
 40
1.0
 40
1.0
 10
10.7499571934
 20
-29.9337871896
 30
0.0
 10
10.749979601
 20
-29.9927504612
 30
0.0
 10
10.7160760787
 20
-30.2506199591
 30
0.0
 10
10.540087455
 20
-30.4697863963
 30
0.0
 10
10.3877939572
 20
-30.5959188242
 30
0.0
  0
SPLINE
  5
2A1
100
AcDbEntity
  8
RACCORDO
100
AcDbSpline
 62
250
  6
CONTINUOUS
 70
0
 71
3
 72
8
 73
4
 74
0
 42
0.0000001
 43
0.0000001
 44
0.0000000001
 40
0.0
 40
0.0
 40
0.0
 40
0.0
 40
1.0
 40
1.0
 40
1.0
 40
1.0
 10
10.3877939572
 20
-30.5959188242
 30
0.0
 10
10.3180459452
 20
-30.6536854802
 30
0.0
 10
10.2426807826
 20
-30.7050523613
 30
0.0
 10
10.1642516386
 20
-30.750336366
 30
0.0
  0
SPLINE
  5
2A2
100
AcDbEntity
  8
RACCORDO
100
AcDbSpline
 62
7
  6
CONTINUOUS
 70
0
 71
3
 72
11
 73
7
 74
0
 42
0.0000001
 43
0.0000001
 44
0.0000000001
 40
0.0
 40
0.0
 40
0.0
 40
0.0
 40
0.2893037283
 40
0.5487758423
 40
0.7821136358
 40
1.0
 40
1.0
 40
1.0
 40
1.0
 10
14.743214464
 20
8.092493327
 30
0.0
 10
15.6556572745
 20
8.6193263702
 30
0.0
 10
17.308685426
 20
9.7670581876
 30
0.0
 10
19.2819442073
 20
11.854621127
 30
0.0
 10
20.5402149649
 20
14.1566497573
 30
0.0
 10
20.8327278024
 20
15.8114989466
 30
0.0
 10
20.8326329571
 20
16.6050192359
 30
0.0
  0
SPLINE
  5
2A3
100
AcDbEntity
  8
ASSI
100
AcDbSpline
 62
7
  6
CONTINUOUS
 70
0
 71
3
 72
9
 73
5
 74
0
 42
0.0000001
 43
0.0000001
 44
0.0000000001
 40
0.0
 40
0.0
 40
0.0
 40
0.0
 40
0.230118102
 40
1.0
 40
1.0
 40
1.0
 40
1.0
 10
-6.7500428065
 20
-24.218495252
 30
0.0
 10
-6.7500207111
 20
-24.2766333569
 30
0.0
 10
-6.78286711
 20
-24.5303819126
 30
0.0
 10
-6.953897135
 20
-24.7472297221
 30
0.0
 10
-7.1026050527
 20
-24.8726041714
 30
0.0
  0
SPLINE
  5
2A4
100
AcDbEntity
  8
ASSI
100
AcDbSpline
 62
7
  6
CONTINUOUS
 70
0
 71
3
 72
8
 73
4
 74
0
 42
0.0000001
 43
0.0000001
 44
0.0000000001
 40
0.0
 40
0.0
 40
0.0
 40
0.0
 40
1.0
 40
1.0
 40
1.0
 40
1.0
 10
-7.1026050527
 20
-24.8726041714
 30
0.0
 10
-7.1750203107
 20
-24.9336568929
 30
0.0
 10
-7.2537219234
 20
-24.9876833912
 30
0.0
 10
-7.3357483614
 20
-25.0350444284
 30
0.0
  0
SPLINE
  5
2A5
100
AcDbEntity
  8
RACCORDO
100
AcDbSpline
 62
250
  6
CONTINUOUS
 70
0
 71
3
 72
9
 73
5
 74
0
 42
0.0000001
 43
0.0000001
 44
0.0000000001
 40
0.0
 40
0.0
 40
0.0
 40
0.0
 40
0.2296906865
 40
1.0
 40
1.0
 40
1.0
 40
1.0
 10
-6.7500428066
 20
-29.9337871896
 30
0.0
 10
-6.750020399
 20
-29.9927504612
 30
0.0
 10
-6.7839239213
 20
-30.2506199591
 30
0.0
 10
-6.959912545
 20
-30.4697863963
 30
0.0
 10
-7.1122060428
 20
-30.5959188242
 30
0.0
  0
SPLINE
  5
2A6
100
AcDbEntity
  8
RACCORDO
100
AcDbSpline
 62
250
  6
CONTINUOUS
 70
0
 71
3
 72
8
 73
4
 74
0
 42
0.0000001
 43
0.0000001
 44
0.0000000001
 40
0.0
 40
0.0
 40
0.0
 40
0.0
 40
1.0
 40
1.0
 40
1.0
 40
1.0
 10
-7.1122060428
 20
-30.5959188242
 30
0.0
 10
-7.1819540548
 20
-30.6536854802
 30
0.0
 10
-7.2573192174
 20
-30.7050523613
 30
0.0
 10
-7.3357483614
 20
-30.750336366
 30
0.0
  0
SPLINE
  5
2A7
100
AcDbEntity
  8
RACCORDO
100
AcDbSpline
 62
250
  6
CONTINUOUS
 70
0
 71
3
 72
9
 73
5
 74
0
 42
0.0000001
 43
0.0000001
 44
0.0000000001
 40
0.0
 40
0.0
 40
0.0
 40
0.0
 40
0.5359460027
 40
1.0
 40
1.0
 40
1.0
 40
1.0
 10
26.3896024316
 20
4.0595887144
 30
0.0
 10
26.515262598
 20
4.0595887144
 30
0.0
 10
26.7622222341
 20
3.9912359902
 30
0.0
 10
26.8918518361
 20
3.7530080974
 30
0.0
 10
26.8895262792
 20
3.6442288905
 30
0.0
  0
SPLINE
  5
2A8
100
AcDbEntity
  8
RACCORDO
100
AcDbSpline
 62
250
  6
CONTINUOUS
 70
0
 71
3
 72
9
 73
5
 74
0
 42
0.0000001
 43
0.0000001
 44
0.0000000001
 40
0.0
 40
0.0
 40
0.0
 40
0.0
 40
0.5354974267
 40
1.0
 40
1.0
 40
1.0
 40
1.0
 10
26.3896024316
 20
16.6050185978
 30
0.0
 10
26.5140085676
 20
16.6050185978
 30
0.0
 10
26.7582183301
 20
16.537910101
 30
0.0
 10
26.8894922606
 20
16.3046960998
 30
0.0
 10
26.8895988011
 20
16.1967834578
 30
0.0
  0
SPLINE
  5
2A9
100
AcDbEntity
  8
RACCORDO
100
AcDbSpline
 62
250
  6
CONTINUOUS
 70
0
 71
3
 72
9
 73
5
 74
0
 42
0.0000001
 43
0.0000001
 44
0.0000000001
 40
0.0
 40
0.0
 40
0.0
 40
0.0
 40
0.258995103
 40
1.0
 40
1.0
 40
1.0
 40
1.0
 10
-9.7437359212
 20
-20.1989445127
 30
0.0
 10
-9.855953623
 20
-20.1742875682
 30
0.0
 10
-10.2869420922
 20
-20.069231694
 30
0.0
 10
-10.7087332208
 20
-19.9242609336
 30
0.0
 10
-11.009279428
 20
-19.7911054434
 30
0.0
  0
SPLINE
  5
2AA
100
AcDbEntity
  8
RACCORDO
100
AcDbSpline
 62
250
  6
CONTINUOUS
 70
0
 71
3
 72
11
 73
7
 74
0
 42
0.0000001
 43
0.0000001
 44
0.0000000001
 40
0.0
 40
0.0
 40
0.0
 40
0.0
 40
0.2870323395
 40
0.5466916774
 40
0.781495661
 40
1.0
 40
1.0
 40
1.0
 40
1.0
 10
-14.7086207444
 20
25.0545142349
 30
0.0
 10
-15.5296572021
 20
24.5684727681
 30
0.0
 10
-17.0281900569
 20
23.5226353274
 30
0.0
 10
-18.854895772
 20
21.648916753
 30
0.0
 10
-20.0793374592
 20
19.5897764102
 30
0.0
 10
-20.4576899882
 20
18.1030319462
 30
0.0
 10
-20.522041459
 20
17.3795643321
 30
0.0
  0
SPLINE
  5
2AB
100
AcDbEntity
  8
RACCORDO
100
AcDbSpline
 62
250
  6
CONTINUOUS
 70
0
 71
3
 72
15
 73
11
 74
0
 42
0.0000001
 43
0.0000001
 44
0.0000000001
 40
0.0
 40
0.0
 40
0.0
 40
0.0
 40
0.087695007
 40
0.1889313677
 40
0.3076917054
 40
0.4419083328
 40
0.5858571838
 40
0.73196345
 40
0.8723387754
 40
1.0
 40
1.0
 40
1.0
 40
1.0
 10
-20.5193407425
 20
16.1269817001
 30
0.0
 10
-20.409983336
 20
14.9548083757
 30
0.0
 10
-19.4825544226
 20
12.4781050278
 30
0.0
 10
-16.5464531439
 20
9.4660379047
 30
0.0
 10
-12.3717506683
 20
7.095185466
 30
0.0
 10
-7.2538889238
 20
5.4975139759
 30
0.0
 10
-1.5771494762
 20
4.778842852
 30
0.0
 10
4.2238570233
 20
4.9940432155
 30
0.0
 10
9.6930342668
 20
6.1257588537
 30
0.0
 10
13.0469199306
 20
7.5213329343
 30
0.0
 10
14.5310824296
 20
8.3782697603
 30
0.0
  0
SPLINE
  5
2AC
100
AcDbEntity
  8
RACCORDO
100
AcDbSpline
 62
250
  6
CONTINUOUS
 70
0
 71
3
 72
9
 73
5
 74
0
 42
0.0000001
 43
0.0000001
 44
0.0000000001
 40
0.0
 40
0.0
 40
0.0
 40
0.0
 40
0.2404055778
 40
1.0
 40
1.0
 40
1.0
 40
1.0
 10
11.0093555805
 20
-19.7911054434
 30
0.0
 10
10.9118445623
 20
-19.8343072111
 30
0.0
 10
10.501143625
 20
-20.0024303878
 30
0.0
 10
10.0729438217
 20
-20.1266263313
 30
0.0
 10
9.7438114725
 20
-20.1989446448
 30
0.0
  0
SPLINE
  5
2AD
100
AcDbEntity
  8
RACCORDO
100
AcDbSpline
 62
250
  6
CONTINUOUS
 70
0
 71
3
 72
9
 73
5
 74
0
 42
0.0000001
 43
0.0000001
 44
0.0000000001
 40
0.0
 40
0.0
 40
0.0
 40
0.0
 40
0.2352325384
 40
1.0
 40
1.0
 40
1.0
 40
1.0
 10
10.1642516386
 20
-30.750336366
 30
0.0
 10
10.122499279
 20
-30.7744436551
 30
0.0
 10
9.9409007658
 20
-30.8697814404
 30
0.0
 10
9.7462495288
 20
-30.9390580951
 30
0.0
 10
9.5949385148
 20
-30.9799663505
 30
0.0
  0
SPLINE
  5
2AE
100
AcDbEntity
  8
RACCORDO
100
AcDbSpline
 62
250
  6
CONTINUOUS
 70
0
 71
3
 72
8
 73
4
 74
0
 42
0.0000001
 43
0.0000001
 44
0.0000000001
 40
0.0
 40
0.0
 40
0.0
 40
0.0
 40
1.0
 40
1.0
 40
1.0
 40
1.0
 10
9.5949385148
 20
-30.9799663505
 30
0.0
 10
9.2652660349
 20
-31.0690961875
 30
0.0
 10
8.9167983178
 20
-31.1012945215
 30
0.0
 10
8.5757215657
 20
-31.0841270792
 30
0.0
  0
SPLINE
  5
2AF
100
AcDbEntity
  8
RACCORDO
100
AcDbSpline
 62
250
  6
CONTINUOUS
 70
0
 71
3
 72
10
 73
6
 74
0
 42
0.0000001
 43
0.0000001
 44
0.0000000001
 40
0.0
 40
0.0
 40
0.0
 40
0.0
 40
0.312267297
 40
0.5915686209
 40
1.0
 40
1.0
 40
1.0
 40
1.0
 10
8.5757215657
 20
-31.0841270792
 30
0.0
 10
8.3363220461
 20
-31.0720773649
 30
0.0
 10
7.8808317114
 20
-30.9968058868
 30
0.0
 10
7.1739278968
 20
-30.7280075131
 30
0.0
 10
6.7502381049
 20
-30.2473071827
 30
0.0
 10
6.7501189591
 20
-29.9337871691
 30
0.0
  0
SPLINE
  5
2B0
100
AcDbEntity
  8
ASSI
100
AcDbSpline
 62
7
  6
CONTINUOUS
 70
0
 71
3
 72
9
 73
5
 74
0
 42
0.0000001
 43
0.0000001
 44
0.0000000001
 40
0.0
 40
0.0
 40
0.0
 40
0.0
 40
0.2939050276
 40
1.0
 40
1.0
 40
1.0
 40
1.0
 10
10.1642516386
 20
-25.0350444284
 30
0.0
 10
10.2515026987
 20
-24.9846667599
 30
0.0
 10
10.5325592669
 20
-24.7952971151
 30
0.0
 10
10.7500481806
 20
-24.4605464795
 30
0.0
 10
10.7499565792
 20
-24.2184975598
 30
0.0
  0
SPLINE
  5
2B1
100
AcDbEntity
  8
0
100
AcDbSpline
 62
7
  6
CONTINUOUS
 70
0
 71
3
 72
9
 73
5
 74
0
 42
0.0000001
 43
0.0000001
 44
0.0000000001
 40
0.0
 40
0.0
 40
0.0
 40
0.0
 40
0.278145798
 40
1.0
 40
1.0
 40
1.0
 40
1.0
 10
22.5868637302
 20
-3.396694091
 30
0.0
 10
22.8944578763
 20
-3.3634304169
 30
0.0
 10
23.9871892995
 20
-3.181701804
 30
0.0
 10
25.0770205774
 20
-2.7422069763
 30
0.0
 10
25.6787160246
 20
-2.2105441707
 30
0.0
  0
SPLINE
  5
2B2
100
AcDbEntity
  8
0
100
AcDbSpline
 62
7
  6
CONTINUOUS
 70
0
 71
3
 72
8
 73
4
 74
0
 42
0.0000001
 43
0.0000001
 44
0.0000000001
 40
0.0
 40
0.0
 40
0.0
 40
0.0
 40
1.0
 40
1.0
 40
1.0
 40
1.0
 10
25.8173995911
 20
-2.0799967149
 30
0.0
 10
25.9424564644
 20
-1.9543262125
 30
0.0
 10
26.0564341634
 20
-1.8158963453
 30
0.0
 10
26.1520608681
 20
-1.6666052535
 30
0.0
  0
SPLINE
  5
2B3
100
AcDbEntity
  8
RACCORDO
100
AcDbSpline
 62
250
  6
CONTINUOUS
 70
0
 71
3
 72
9
 73
5
 74
0
 42
0.0000001
 43
0.0000001
 44
0.0000000001
 40
0.0
 40
0.0
 40
0.0
 40
0.0
 40
0.2459152629
 40
1.0
 40
1.0
 40
1.0
 40
1.0
 10
-26.2566450409
 20
15.0810961997
 30
0.0
 10
-26.2228299854
 20
14.8872627535
 30
0.0
 10
-26.0598275517
 20
14.103616542
 30
0.0
 10
-25.7955216248
 20
13.3418154037
 30
0.0
 10
-25.5491627788
 20
12.7910472108
 30
0.0
  0
SPLINE
  5
2B4
100
AcDbEntity
  8
RACCORDO
100
AcDbSpline
 62
250
  6
CONTINUOUS
 70
0
 71
3
 72
11
 73
7
 74
0
 42
0.0000001
 43
0.0000001
 44
0.0000000001
 40
0.0
 40
0.0
 40
0.0
 40
0.0
 40
0.429826019
 40
0.5635895457
 40
0.7048341837
 40
1.0
 40
1.0
 40
1.0
 40
1.0
 10
-25.5491627788
 20
12.7910472108
 30
0.0
 10
-23.8491740728
 20
8.9904947923
 30
0.0
 10
-18.82589608
 20
5.448901597
 30
0.0
 10
-12.4783030145
 20
3.1036756951
 30
0.0
 10
-7.0982981358
 20
1.756443417
 30
0.0
 10
-2.8590317503
 20
1.368014878
 30
0.0
 10
0.0000380762
 20
1.368014878
 30
0.0
  0
SPLINE
  5
2B5
100
AcDbEntity
  8
RACCORDO
100
AcDbSpline
 62
250
  6
CONTINUOUS
 70
0
 71
3
 72
11
 73
7
 74
0
 42
0.0000001
 43
0.0000001
 44
0.0000000001
 40
0.0
 40
0.0
 40
0.0
 40
0.0
 40
0.2876483493
 40
0.5475897698
 40
0.7821466172
 40
1.0
 40
1.0
 40
1.0
 40
1.0
 10
14.5310824296
 20
8.3782697603
 30
0.0
 10
15.3761297194
 20
8.8661894745
 30
0.0
 10
16.9189824622
 20
9.9194365998
 30
0.0
 10
18.8028671552
 20
11.8157469179
 30
0.0
 10
20.0666564276
 20
13.906924844
 30
0.0
 10
20.4566407426
 20
15.4209411389
 30
0.0
 10
20.5221176114
 20
16.1570609744
 30
0.0
  0
SPLINE
  5
2B6
100
AcDbEntity
  8
RACCORDO
100
AcDbSpline
 62
250
  6
CONTINUOUS
 70
0
 71
3
 72
8
 73
4
 74
0
 42
0.0000001
 43
0.0000001
 44
0.0000000001
 40
0.0
 40
0.0
 40
0.0
 40
0.0
 40
1.0
 40
1.0
 40
1.0
 40
1.0
 10
20.2924256438
 20
18.6411770035
 30
0.0
 10
20.1776343903
 20
19.0559832939
 30
0.0
 10
20.0255518216
 20
19.4618039719
 30
0.0
 10
19.8436060378
 20
19.8518514333
 30
0.0
  0
SPLINE
  5
2B7
100
AcDbEntity
  8
RACCORDO
100
AcDbSpline
 62
250
  6
CONTINUOUS
 70
0
 71
3
 72
12
 73
8
 74
0
 42
0.0000001
 43
0.0000001
 44
0.0000000001
 40
0.0
 40
0.0
 40
0.0
 40
0.0
 40
0.2000171883
 40
0.3237725357
 40
0.4592259329
 40
0.7419144618
 40
1.0
 40
1.0
 40
1.0
 40
1.0
 10
19.8436060378
 20
19.8518514333
 30
0.0
 10
18.7836312953
 20
22.1241792061
 30
0.0
 10
15.452148348
 20
24.9774081417
 30
0.0
 10
10.1754894477
 20
27.2248714314
 30
0.0
 10
3.5160970321
 20
28.7794944617
 30
0.0
 10
-5.0655864057
 20
28.7731471786
 30
0.0
 10
-11.7291722352
 20
26.7760994067
 30
0.0
 10
-14.5310062772
 20
25.1583555461
 30
0.0
  0
SPLINE
  5
2B8
100
AcDbEntity
  8
ASSI
100
AcDbSpline
 62
7
  6
CONTINUOUS
 70
0
 71
3
 72
9
 73
5
 74
0
 42
0.0000001
 43
0.0000001
 44
0.0000000001
 40
0.0
 40
0.0
 40
0.0
 40
0.0
 40
0.2350290288
 40
1.0
 40
1.0
 40
1.0
 40
1.0
 10
-7.3357483614
 20
-25.0350444284
 30
0.0
 10
-7.3783445421
 20
-25.0596389293
 30
0.0
 10
-7.5638578471
 20
-25.1568402371
 30
0.0
 10
-7.7628983002
 20
-25.2269478958
 30
0.0
 10
-7.9176266488
 20
-25.268041522
 30
0.0
  0
SPLINE
  5
2B9
100
AcDbEntity
  8
ASSI
100
AcDbSpline
 62
7
  6
CONTINUOUS
 70
0
 71
3
 72
8
 73
4
 74
0
 42
0.0000001
 43
0.0000001
 44
0.0000000001
 40
0.0
 40
0.0
 40
0.0
 40
0.0
 40
1.0
 40
1.0
 40
1.0
 40
1.0
 10
-7.9176266488
 20
-25.268041522
 30
0.0
 10
-8.4569642593
 20
-25.4112818417
 30
0.0
 10
-9.0528057739
 20
-25.410522491
 30
0.0
 10
-9.5917294816
 20
-25.2657326965
 30
0.0
  0
SPLINE
  5
2BA
100
AcDbEntity
  8
ASSI
100
AcDbSpline
 62
7
  6
CONTINUOUS
 70
0
 71
3
 72
9
 73
5
 74
0
 42
0.0000001
 43
0.0000001
 44
0.0000000001
 40
0.0
 40
0.0
 40
0.0
 40
0.0
 40
0.5758862032
 40
1.0
 40
1.0
 40
1.0
 40
1.0
 10
-9.5917294816
 20
-25.2657326965
 30
0.0
 10
-9.8960247524
 20
-25.1839792886
 30
0.0
 10
-10.4207305165
 20
-24.9769203789
 30
0.0
 10
-10.7497928518
 20
-24.4505416655
 30
0.0
 10
-10.7498810411
 20
-24.2184952315
 30
0.0
  0
ENDSEC
  0
SECTION
  2
OBJECTS
  0
DICTIONARY
  5
C
100
AcDbDictionary
280
0
281
1
  3
ACAD_GROUP
350
D
  3
ACAD_MLINESTYLE
350
17
  3
ACAD_LAYOUT
350
1A
  3
ACAD_PLOTSETTINGS
350
19
  3
ACAD_PLOTSTYLENAME
350
E
  0
DICTIONARY
  5
D
102
{ACAD_REACTORS
330
C
102
}
100
AcDbDictionary
280
0
281
1
  0
ACDBDICTIONARYWDFLT
  5
E
102
{ACAD_REACTORS
330
C
102
}
100
AcDbDictionary
281
1
  3
Normal
350
F
100
AcDbDictionaryWithDefault
340
F
  0
DICTIONARY
  5
17
102
{ACAD_REACTORS
330
C
102
}
100
AcDbDictionary
280
0
281
1
  3
Standard
350
18
  0
DICTIONARY
  5
19
102
{ACAD_REACTORS
330
C
102
}
100
AcDbDictionary
281
1
  0
DICTIONARY
  5
1A
102
{ACAD_REACTORS
330
C
102
}
100
AcDbDictionary
281
1
  3
Model
350
2BB
  3
Layout1
350
2BC
  0
ACDBPLACEHOLDER
  5
F
102
{ACAD_REACTORS
330
E
102
}
  0
MLINESTYLE
  5
18
102
{ACAD_REACTORS
330
17
102
}
100
AcDbMlineStyle
  2
STANDARD
 70
0
  3

 62
256
 51
90.0
 52
90.0
 71
2
 49
0.5
 62
256
  6
BYLAYER
 49
-0.5
 62
256
  6
BYLAYER
  0
LAYOUT
  5
2BB
102
{ACAD_REACTORS
330
1A
102
}
100
AcDbPlotSettings
  1

  2
none_device
  4
ANSI_C_(22.00_x_17.00_Inches)
  6

 40
0.0
 41
0.0
 42
0.0
 43
0.0
 44
558.8
 45
431.8
 46
0.0
 47
0.0
 48
0.0
 49
0.0
140
0.0
141
0.0
142
1.0
143
1.0
 70
1024
 72
1
 73
0
 74
0
  7

 75
0
147
1.0
148
0.0
149
0.0
100
AcDbLayout
  1
Model
 70
0
 71
0
 10
0.0
 20
0.0
 11
558.8
 21
431.8
 12
0.0
 22
0.0
 32
0.0
 14
0.0
 24
0.0
 34
0.0
 15
0.0
 25
0.0
 35
0.0
146
0.0
 13
0.0
 23
0.0
 33
0.0
 16
1.0
 26
0.0
 36
0.0
 17
0.0
 27
1.0
 37
0.0
 76
0
330
213
345
0
346
0
  0
LAYOUT
  5
2BC
102
{ACAD_REACTORS
330
1A
102
}
100
AcDbPlotSettings
  1

  2
none_device
  4
ANSI_C_(22.00_x_17.00_Inches)
  6

 40
0.0
 41
0.0
 42
0.0
 43
0.0
 44
558.8
 45
431.8
 46
0.0
 47
0.0
 48
0.0
 49
0.0
140
0.0
141
0.0
142
1.0
143
1.0
 70
0
 72
1
 73
0
 74
0
  7

 75
0
147
1.0
148
0.0
149
0.0
100
AcDbLayout
  1
Layout1
 70
0
 71
1
 10
0.0
 20
0.0
 11
558.8
 21
431.8
 12
0.0
 22
0.0
 32
0.0
 14
0.0
 24
0.0
 34
0.0
 15
0.0
 25
0.0
 35
0.0
146
0.0
 13
0.0
 23
0.0
 33
0.0
 16
1.0
 26
0.0
 36
0.0
 17
0.0
 27
1.0
 37
0.0
 76
0
330
214
345
0
346
0
  0
ENDSEC
  0
EOF
