  0
SECTION
  2
HEADER
  9
$ACADVER
  1
AC1015
  9
$DWGCODEPAGE
  3
ANSI_1252
  9
$EXTMAX
 10
297.0
 20
210.0
 30
0.0
  9
$EXTMIN
 10
0.0
 20
0.0
 30
0.0
  9
$LIMMIN
 10
0.0
 20
0.0
  9
$LIMMAX
 10
297.0
 20
210.0
  9
$VIEWCTR
 10
148.5
 20
105.0
  9
$VIEWSIZE
 40
210.0
  9
$CLAYER
  8
0
  9
$LTSCALE
 40
16.335
  9
$CELTYPE
  6
BYLAYER
  9
$DIMSCALE
 40
1.0
  9
$DIMASZ
 40
3.0
  9
$DIMEXO
 40
1.85625
  9
$DIMDLI
 40
11.286
  9
$DIMEXE
 40
5.346
  9
$DIMCEN
 40
2.673
  9
$DIMLFAC
 40
1.0
  9
$DIMBLK
  1
_FILLED
  9
$DIMTXT
 40
3.0
  9
$DIMTOL
 70
1
  9
$DIMLIM
 70
0
  9
$DIMTFAC
 40
1.0
  9
$DIMTP
 40
0.01
  9
$DIMTM
 40
0.01
  9
$PDMODE
 70
3
  9
$PDSIZE
 40
3.0
  9
$HANDSEED
  5
446
  9
$TILEMODE
 70
1
  9
$MEASUREMENT
 70
1
  9
$INSUNITS
 70
4
  0
ENDSEC
  0
SECTION
  2
CLASSES
  0
CLASS
  1
ACDBDICTIONARYWDFLT
  2
AcDbDictionaryWithDefault
  3
AutoCAD 2000
 90
0
280
0
281
0
  0
CLASS
  1
ACDBPLACEHOLDER
  2
AcDbPlaceHolder
  3
AutoCAD 2000
 90
0
280
0
281
0
  0
CLASS
  1
LAYOUT
  2
AcDbLayout
  3
AutoCAD 2000
 90
0
280
0
281
0
  0
ENDSEC
  0
SECTION
  2
TABLES
  0
TABLE
  2
VPORT
  5
8
100
AcDbSymbolTable
 70
2
  0
VPORT
  5
1F4
100
AcDbSymbolTableRecord
100
AcDbViewportTableRecord
  2
*ACTIVE
 70
0
 10
0.0
 20
0.0
 11
1.0
 21
1.0
 12
148.5
 22
105.0
 13
0.0
 23
0.0
 14
1.0
 24
1.0
 15
0.0
 25
0.0
 16
0.0
 26
0.0
 36
1.0
 17
0.0
 27
0.0
 37
0.0
 40
210.0
 41
1.4142857143
 42
50.0
 43
0.0
 44
0.0
 50
0.0
 51
0.0
 71
0
 72
100
 73
1
 74
1
 75
0
 76
0
 77
0
 78
0
  0
ENDTAB
  0
TABLE
  2
LTYPE
  5
5
100
AcDbSymbolTable
 70
6
  0
LTYPE
  5
14
100
AcDbSymbolTableRecord
100
AcDbLinetypeTableRecord
  2
BYBLOCK
 70
0
  3

 72
65
 73
0
 40
0.0
  0
LTYPE
  5
15
100
AcDbSymbolTableRecord
100
AcDbLinetypeTableRecord
  2
BYLAYER
 70
0
  3

 72
65
 73
0
 40
0.0
  0
LTYPE
  5
16
100
AcDbSymbolTableRecord
100
AcDbLinetypeTableRecord
  2
CONTINUOUS
 70
64
  3
Solid line
 72
65
 73
0
 40
0.0
  0
LTYPE
  5
1F5
100
AcDbSymbolTableRecord
100
AcDbLinetypeTableRecord
  2
CENTER
 70
64
  3
____ _ ____ _ ____ _ ____ _ ____ _ ____ _ ____
 72
65
 73
4
 40
0.6
 49
0.375
 74
0
 49
-0.075
 74
0
 49
0.075
 74
0
 49
-0.075
 74
0
  0
LTYPE
  5
1F6
100
AcDbSymbolTableRecord
100
AcDbLinetypeTableRecord
  2
HIDDEN
 70
64
  3
- - - - - - - - - - - - - - - - - - - -
 72
65
 73
2
 40
0.2
 49
0.1
 74
0
 49
-0.1
 74
0
  0
LTYPE
  5
1F7
100
AcDbSymbolTableRecord
100
AcDbLinetypeTableRecord
  2
PHANTOM
 70
64
  3
_____ _ _ _____ _ _ _____ _ _ _____
 72
65
 73
6
 40
0.8
 49
0.45
 74
0
 49
-0.05
 74
0
 49
0.1
 74
0
 49
-0.05
 74
0
 49
0.1
 74
0
 49
-0.05
 74
0
  0
LTYPE
  5
1F8
100
AcDbSymbolTableRecord
100
AcDbLinetypeTableRecord
  2
DOT
 70
64
  3
. . . . . . . . . . . . . . . . . . . .
 72
65
 73
2
 40
0.2
 49
0.1
 74
0
 49
-0.1
 74
0
  0
LTYPE
  5
1F9
100
AcDbSymbolTableRecord
100
AcDbLinetypeTableRecord
  2
DASHED
 70
64
  3
- - - - - - - - - - - - - - - - - - - -
 72
65
 73
2
 40
0.2
 49
0.1
 74
0
 49
-0.1
 74
0
  0
ENDTAB
  0
TABLE
  2
LAYER
  5
2
100
AcDbSymbolTable
 70
36
  0
LAYER
  5
10
100
AcDbSymbolTableRecord
100
AcDbLayerTableRecord
  2
0
 70
0
 62
7
  6
CONTINUOUS
370
-3
390
F
  0
LAYER
  5
1FA
100
AcDbSymbolTableRecord
100
AcDbLayerTableRecord
  2
DEFAULT_1
 70
0
 62
7
  6
CENTER
370
-3
390
F
  0
LAYER
  5
1FB
100
AcDbSymbolTableRecord
100
AcDbLayerTableRecord
  2
DEFAULT_2
 70
0
 62
7
  6
HIDDEN
370
-3
390
F
  0
LAYER
  5
1FC
100
AcDbSymbolTableRecord
100
AcDbLayerTableRecord
  2
DEFAULT_3
 70
0
 62
7
  6
PHANTOM
370
-3
390
F
  0
LAYER
  5
1FD
100
AcDbSymbolTableRecord
100
AcDbLayerTableRecord
  2
ASSI
 70
0
 62
7
  6
CONTINUOUS
370
-3
390
F
  0
LAYER
  5
1FE
100
AcDbSymbolTableRecord
100
AcDbLayerTableRecord
  2
COORDINATE
 70
0
 62
7
  6
CONTINUOUS
370
-3
390
F
  0
LAYER
  5
1FF
100
AcDbSymbolTableRecord
100
AcDbLayerTableRecord
  2
COORD_ORIGINE
 70
0
 62
7
  6
CONTINUOUS
370
-3
390
F
  0
LAYER
  5
200
100
AcDbSymbolTableRecord
100
AcDbLayerTableRecord
  2
COPY_PUBLISH
 70
0
 62
7
  6
CONTINUOUS
370
-3
390
F
  0
LAYER
  5
201
100
AcDbSymbolTableRecord
100
AcDbLayerTableRecord
  2
COSMETIC
 70
0
 62
7
  6
CONTINUOUS
370
-3
390
F
  0
LAYER
  5
202
100
AcDbSymbolTableRecord
100
AcDbLayerTableRecord
  2
CURVA_ASSE
 70
0
 62
7
  6
CONTINUOUS
370
-3
390
F
  0
LAYER
  5
203
100
AcDbSymbolTableRecord
100
AcDbLayerTableRecord
  2
CURVE
 70
0
 62
7
  6
CONTINUOUS
370
-3
390
F
  0
LAYER
  5
204
100
AcDbSymbolTableRecord
100
AcDbLayerTableRecord
  2
CURVE_GUIDA
 70
0
 62
7
  6
CONTINUOUS
370
-3
390
F
  0
LAYER
  5
205
100
AcDbSymbolTableRecord
100
AcDbLayerTableRecord
  2
CURVE_INC_PUNZONI
 70
0
 62
7
  6
CONTINUOUS
370
-3
390
F
  0
LAYER
  5
206
100
AcDbSymbolTableRecord
100
AcDbLayerTableRecord
  2
DRAFT
 70
0
 62
7
  6
CONTINUOUS
370
-3
390
F
  0
LAYER
  5
207
100
AcDbSymbolTableRecord
100
AcDbLayerTableRecord
  2
IMPORT_IGES
 70
0
 62
7
  6
CONTINUOUS
370
-3
390
F
  0
LAYER
  5
208
100
AcDbSymbolTableRecord
100
AcDbLayerTableRecord
  2
NOTE
 70
0
 62
7
  6
CONTINUOUS
370
-3
390
F
  0
LAYER
  5
209
100
AcDbSymbolTableRecord
100
AcDbLayerTableRecord
  2
PIANI
 70
0
 62
7
  6
CONTINUOUS
370
-3
390
F
  0
LAYER
  5
20A
100
AcDbSymbolTableRecord
100
AcDbLayerTableRecord
  2
PIANI_ORIGINE
 70
0
 62
7
  6
CONTINUOUS
370
-3
390
F
  0
LAYER
  5
20B
100
AcDbSymbolTableRecord
100
AcDbLayerTableRecord
  2
PUNTI
 70
0
 62
7
  6
CONTINUOUS
370
-3
390
F
  0
LAYER
  5
20C
100
AcDbSymbolTableRecord
100
AcDbLayerTableRecord
  2
RACCORDO
 70
0
 62
7
  6
CONTINUOUS
370
-3
390
F
  0
LAYER
  5
20D
100
AcDbSymbolTableRecord
100
AcDbLayerTableRecord
  2
SMUSSO
 70
0
 62
7
  6
CONTINUOUS
370
-3
390
F
  0
LAYER
  5
20E
100
AcDbSymbolTableRecord
100
AcDbLayerTableRecord
  2
SUPERFICI
 70
0
 62
7
  6
CONTINUOUS
370
-3
390
F
  0
LAYER
  5
20F
100
AcDbSymbolTableRecord
100
AcDbLayerTableRecord
  2
TRASH
 70
0
 62
7
  6
CONTINUOUS
370
-3
390
F
  0
LAYER
  5
210
100
AcDbSymbolTableRecord
100
AcDbLayerTableRecord
  2
XSEC_DATUMS
 70
0
 62
7
  6
CONTINUOUS
370
-3
390
F
  0
ENDTAB
  0
TABLE
  2
STYLE
  5
3
100
AcDbSymbolTable
 70
1
  0
STYLE
  5
11
100
AcDbSymbolTableRecord
100
AcDbTextStyleTableRecord
  2
STANDARD
 70
0
 40
0.0
 41
0.8
 50
0.0
 71
0
 42
0.2
  3
txt
  4

  0
STYLE
  5
211
100
AcDbSymbolTableRecord
100
AcDbTextStyleTableRecord
  2
TEXTSTYLE_1
 70
0
 40
0.0
 41
0.8
 50
0.0
 71
0
 42
0.2
  3
gdt
  4

  0
ENDTAB
  0
TABLE
  2
VIEW
  5
6
100
AcDbSymbolTable
 70
0
  0
ENDTAB
  0
TABLE
  2
UCS
  5
7
100
AcDbSymbolTable
 70
0
  0
ENDTAB
  0
TABLE
  2
APPID
  5
9
100
AcDbSymbolTable
 70
1
  0
APPID
  5
212
100
AcDbSymbolTableRecord
100
AcDbRegAppTableRecord
  2
ACAD
 70
0
  0
ENDTAB
  0
TABLE
  2
BLOCK_RECORD
  5
1
100
AcDbSymbolTable
 70
0
  0
BLOCK_RECORD
  5
213
100
AcDbSymbolTableRecord
100
AcDbBlockTableRecord
  2
*Model_Space
  0
BLOCK_RECORD
  5
214
100
AcDbSymbolTableRecord
100
AcDbBlockTableRecord
  2
*Paper_Space
  0
ENDTAB
  0
TABLE
  2
DIMSTYLE
  5
A
100
AcDbSymbolTable
 70
1
100
AcDbDimStyleTable
 71
0
  0
DIMSTYLE
105
215
100
AcDbSymbolTableRecord
100
AcDbDimStyleTableRecord
  2
STANDARD
 70
0
  3

  4

 40
1.0
 41
3.0
 42
0.0625
 43
0.38
 44
0.18
 45
0.0
 46
0.0
 47
0.01
 48
0.01
140
3.0
141
0.09
142
0.0
143
25.4
144
1.0
145
0.0
146
1.0
147
0.09
 71
1.0
 72
0.0
 73
0
 74
0
 75
0
 76
0
 77
1
 78
8
170
0
171
2
172
0
173
0
174
0
175
0
176
0
177
0
178
0
270
2
271
2
272
2
273
2
274
2
275
0
280
0
281
0
282
0
283
1
284
8
285
0
286
0
287
3
288
0
340
11
  0
ENDTAB
  0
ENDSEC
  0
SECTION
  2
BLOCKS
  0
BLOCK
  5
20
100
AcDbEntity
  8
0
100
AcDbBlockBegin
  2
*Model_Space
 70
0
 10
0.0
 20
0.0
 30
0.0
  3
*Model_Space
  1

  0
ENDBLK
  5
21
100
AcDbEntity
  8
0
100
AcDbBlockEnd
  0
BLOCK
  5
1C
100
AcDbEntity
  8
0
100
AcDbBlockBegin
  2
*Paper_Space
 70
0
 10
0.0
 20
0.0
 30
0.0
  3
*Paper_Space
  1

  0
ENDBLK
  5
1D
100
AcDbEntity
  8
0
100
AcDbBlockEnd
  0
ENDSEC
  0
SECTION
  2
ENTITIES
  0
LINE
  5
216
100
AcDbEntity
  8
ASSI
100
AcDbLine
 62
7
  6
CONTINUOUS
 10
-49.2852855428
 20
69.3577674894
 11
-51.6187379207
 21
68.1910413005
  0
LINE
  5
217
100
AcDbEntity
  8
RACCORDO
100
AcDbLine
 62
253
  6
CONTINUOUS
 10
-44.8131495878
 20
69.0737496173
 11
-47.1466019657
 21
67.9070234283
  0
LINE
  5
218
100
AcDbEntity
  8
DRAFT
100
AcDbLine
 62
7
  6
CONTINUOUS
 10
-32.407333146
 20
62.8708413964
 11
-31.1180001689
 21
63.480309099
  0
LINE
  5
219
100
AcDbEntity
  8
RACCORDO
100
AcDbLine
 62
253
  6
CONTINUOUS
 10
-31.1180060439
 20
63.4803063219
 11
-31.1178882357
 21
63.4803620088
  0
LINE
  5
21A
100
AcDbEntity
  8
RACCORDO
100
AcDbLine
 62
253
  6
CONTINUOUS
 10
-23.5999461522
 20
61.756276851
 11
-21.4662850937
 21
62.7774939715
  0
LINE
  5
21B
100
AcDbEntity
  8
0
100
AcDbLine
 62
7
  6
CONTINUOUS
 10
-40.4433585439
 20
46.0494755115
 11
-40.3230215273
 21
46.1831260461
  0
LINE
  5
21C
100
AcDbEntity
  8
0
100
AcDbLine
 62
7
  6
CONTINUOUS
 10
-42.224610357
 20
49.0510368142
 11
-42.0649122918
 21
49.1308858468
  0
LINE
  5
21D
100
AcDbEntity
  8
0
100
AcDbLine
 62
7
  6
CONTINUOUS
 10
-40.9594176304
 20
47.8006635921
 11
-40.8778162694
 21
47.8414642726
  0
LINE
  5
21E
100
AcDbEntity
  8
0
100
AcDbLine
 62
7
  6
CONTINUOUS
 10
-41.7407029953
 20
47.0794566286
 11
-41.0654836475
 21
47.4170663025
  0
LINE
  5
21F
100
AcDbEntity
  8
0
100
AcDbLine
 62
7
  6
CONTINUOUS
 10
-41.7575168218
 20
47.027583853
 11
-40.9527406593
 21
47.4299719342
  0
LINE
  5
220
100
AcDbEntity
  8
0
100
AcDbLine
 62
7
  6
CONTINUOUS
 10
-41.0034564376
 20
47.0547956461
 11
-42.1191775141
 21
46.4969351078
  0
LINE
  5
221
100
AcDbEntity
  8
0
100
AcDbLine
 62
7
  6
CONTINUOUS
 10
-41.7575168218
 20
46.1273963725
 11
-40.8929696862
 21
46.5596699403
  0
LINE
  5
222
100
AcDbEntity
  8
0
100
AcDbLine
 62
7
  6
CONTINUOUS
 10
-41.7407029953
 20
46.0644442045
 11
-41.0654836475
 21
46.4020538784
  0
LINE
  5
223
100
AcDbEntity
  8
0
100
AcDbLine
 62
7
  6
CONTINUOUS
 10
-40.9594176304
 20
45.9123905716
 11
-40.3230215273
 21
46.2305886231
  0
LINE
  5
224
100
AcDbEntity
  8
0
100
AcDbLine
 62
7
  6
CONTINUOUS
 10
-41.0225168218
 20
45.7598963725
 11
-40.1550127541
 21
46.1936484064
  0
LINE
  5
225
100
AcDbEntity
  8
0
100
AcDbLine
 62
7
  6
CONTINUOUS
 10
-40.577409049
 20
45.7260508753
 11
-39.8309658725
 21
46.0992724635
  0
LINE
  5
226
100
AcDbEntity
  8
RACCORDO
100
AcDbLine
 62
7
  6
CONTINUOUS
 10
-13.8697723741
 20
59.2190373816
 11
0.7016229892
 21
66.3187674813
  0
LINE
  5
227
100
AcDbEntity
  8
DRAFT
100
AcDbLine
 62
7
  6
CONTINUOUS
 10
-19.1973578529
 20
61.8828301209
 11
-4.4286896665
 21
68.8476931239
  0
LINE
  5
228
100
AcDbEntity
  8
RACCORDO
100
AcDbLine
 62
253
  6
CONTINUOUS
 10
-1.6722284345
 20
67.4694625078
 11
-1.6348832023
 21
67.4870205771
  0
LINE
  5
229
100
AcDbEntity
  8
RACCORDO
100
AcDbLine
 62
7
  6
CONTINUOUS
 10
-0.4621027093
 20
66.9006303306
 11
-15.4183640401
 21
59.9933332146
  0
LINE
  5
22A
100
AcDbEntity
  8
RACCORDO
100
AcDbLine
 62
7
  6
CONTINUOUS
 10
-1.7444985067
 20
67.5513626685
 11
-1.7931288682
 21
67.5299127247
  0
LINE
  5
22B
100
AcDbEntity
  8
RACCORDO
100
AcDbLine
 62
7
  6
CONTINUOUS
 10
-54.8034562152
 20
62.0751965152
 11
-54.8034562152
 21
-22.7952930557
  0
LINE
  5
22C
100
AcDbEntity
  8
RACCORDO
100
AcDbLine
 62
253
  6
CONTINUOUS
 10
-54.2176697776
 20
61.368089734
 11
-54.2176697776
 21
-23.5023998368
  0
LINE
  5
22D
100
AcDbEntity
  8
DRAFT
100
AcDbLine
 62
7
  6
CONTINUOUS
 10
-21.0942159311
 20
59.2043736348
 11
-22.2396355982
 21
57.7869926225
  0
LINE
  5
22E
100
AcDbEntity
  8
DRAFT
100
AcDbLine
 62
7
  6
CONTINUOUS
 10
-20.1659794114
 20
58.7402553749
 11
-21.3520961986
 21
57.3432229227
  0
LINE
  5
22F
100
AcDbEntity
  8
RACCORDO
100
AcDbLine
 62
7
  6
CONTINUOUS
 10
-14.9720746027
 20
54.1532121247
 11
-12.0061164423
 21
55.7534145963
  0
LINE
  5
230
100
AcDbEntity
  8
RACCORDO
100
AcDbLine
 62
253
  6
CONTINUOUS
 10
-14.7124574655
 20
54.0234035561
 11
-11.5483820809
 21
55.7304948153
  0
LINE
  5
231
100
AcDbEntity
  8
0
100
AcDbLine
 62
7
  6
CONTINUOUS
 10
-41.0654836475
 20
44.5676858411
 11
-41.34832636
 21
44.4262644848
  0
LINE
  5
232
100
AcDbEntity
  8
0
100
AcDbLine
 62
7
  6
CONTINUOUS
 10
-39.7649355818
 20
44.1316872637
 11
-39.6072903585
 21
44.2105098753
  0
LINE
  5
233
100
AcDbEntity
  8
0
100
AcDbLine
 62
7
  6
CONTINUOUS
 10
-40.9594176304
 20
47.8006635921
 11
-41.0654836475
 21
47.4170663025
  0
LINE
  5
234
100
AcDbEntity
  8
DRAFT
100
AcDbLine
 62
7
  6
CONTINUOUS
 10
-11.1210256155
 20
52.2276876311
 11
-10.5808644774
 21
52.4977682002
  0
LINE
  5
235
100
AcDbEntity
  8
0
100
AcDbLine
 62
7
  6
CONTINUOUS
 10
12.5755609847
 20
-48.2577895098
 11
14.1602021931
 21
-47.9926827441
  0
LINE
  5
236
100
AcDbEntity
  8
RACCORDO
100
AcDbLine
 62
7
  6
CONTINUOUS
 10
-48.0410291567
 20
-34.3407777927
 11
21.2554353995
 21
-68.9890100708
  0
LINE
  5
237
100
AcDbEntity
  8
RACCORDO
100
AcDbLine
 62
253
  6
CONTINUOUS
 10
-48.5608155281
 20
-33.2590301919
 11
20.7356490282
 21
-67.90726247
  0
LINE
  5
238
100
AcDbEntity
  8
0
100
AcDbLine
 62
7
  6
CONTINUOUS
 10
-41.0654836475
 20
48.6750288776
 11
-41.0654836475
 21
47.4170663025
  0
LINE
  5
239
100
AcDbEntity
  8
0
100
AcDbLine
 62
7
  6
CONTINUOUS
 10
-41.0654836475
 20
46.4020538784
 11
-41.0654836475
 21
44.5676858411
  0
LINE
  5
23A
100
AcDbEntity
  8
0
100
AcDbLine
 62
7
  6
CONTINUOUS
 10
-41.0654836475
 20
-18.8749526176
 11
-41.0654836475
 21
-20.1329151927
  0
LINE
  5
23B
100
AcDbEntity
  8
0
100
AcDbLine
 62
7
  6
CONTINUOUS
 10
-41.0654836475
 20
-21.1479276168
 11
-41.0654836475
 21
-22.9822956541
  0
LINE
  5
23C
100
AcDbEntity
  8
0
100
AcDbLine
 62
7
  6
CONTINUOUS
 10
-40.9594176304
 20
-21.758535527
 11
-40.9594176304
 21
-21.6375909236
  0
LINE
  5
23D
100
AcDbEntity
  8
0
100
AcDbLine
 62
7
  6
CONTINUOUS
 10
-40.9594176304
 20
-19.7493179031
 11
-40.9594176304
 21
-19.3132494214
  0
LINE
  5
23E
100
AcDbEntity
  8
0
100
AcDbLine
 62
7
  6
CONTINUOUS
 10
-40.9594176304
 20
45.7914459682
 11
-40.9594176304
 21
45.9123905716
  0
LINE
  5
23F
100
AcDbEntity
  8
0
100
AcDbLine
 62
7
  6
CONTINUOUS
 10
-40.9594176304
 20
47.8006635921
 11
-40.9594176304
 21
48.2367320738
  0
LINE
  5
240
100
AcDbEntity
  8
DRAFT
100
AcDbLine
 62
7
  6
CONTINUOUS
 10
0.3174704378
 20
46.5084396045
 11
0.8576315759
 21
46.7785201735
  0
LINE
  5
241
100
AcDbEntity
  8
DRAFT
100
AcDbLine
 62
7
  6
CONTINUOUS
 10
34.7363632957
 20
-35.9522786364
 11
31.5543827803
 21
-36.4217089221
  0
LINE
  5
242
100
AcDbEntity
  8
DRAFT
100
AcDbLine
 62
7
  6
CONTINUOUS
 10
34.7363632957
 20
-37.0891315534
 11
31.5543827803
 21
-37.4723103771
  0
LINE
  5
243
100
AcDbEntity
  8
0
100
AcDbLine
 62
7
  6
CONTINUOUS
 10
-41.0654836475
 20
-21.1479276168
 11
-40.9594176304
 21
-21.6375909236
  0
LINE
  5
244
100
AcDbEntity
  8
0
100
AcDbLine
 62
7
  6
CONTINUOUS
 10
-40.3266154798
 20
-21.3028010669
 11
-40.3230215273
 21
-21.319392872
  0
LINE
  5
245
100
AcDbEntity
  8
0
100
AcDbLine
 62
7
  6
CONTINUOUS
 10
-40.3230215273
 20
-21.3668554491
 11
-40.3230215273
 21
-21.319392872
  0
LINE
  5
246
100
AcDbEntity
  8
0
100
AcDbLine
 62
7
  6
CONTINUOUS
 10
-40.3230215273
 20
46.1831260461
 11
-40.3230215273
 21
46.2305886231
  0
LINE
  5
247
100
AcDbEntity
  8
RACCORDO
100
AcDbLine
 62
253
  6
CONTINUOUS
 10
8.18911021
 20
45.8617486699
 11
4.9126142341
 21
44.2108677063
  0
LINE
  5
248
100
AcDbEntity
  8
RACCORDO
100
AcDbLine
 62
253
  6
CONTINUOUS
 10
8.8961092954
 20
44.6423556233
 11
6.4821810762
 21
43.4260842853
  0
LINE
  5
249
100
AcDbEntity
  8
RACCORDO
100
AcDbLine
 62
7
  6
CONTINUOUS
 10
9.1111980144
 20
47.7285521873
 11
23.6825933778
 21
54.8282822871
  0
LINE
  5
24A
100
AcDbEntity
  8
RACCORDO
100
AcDbLine
 62
7
  6
CONTINUOUS
 10
7.7016940763
 20
48.4333041564
 11
22.529653724
 21
55.4047521139
  0
LINE
  5
24B
100
AcDbEntity
  8
RACCORDO
100
AcDbLine
 62
7
  6
CONTINUOUS
 10
8.5943605953
 20
47.9869708969
 11
23.7762081873
 21
55.1248012459
  0
LINE
  5
24C
100
AcDbEntity
  8
0
100
AcDbLine
 62
7
  6
CONTINUOUS
 10
14.9047894316
 20
-48.9807609285
 11
14.8313074053
 21
-48.9440199154
  0
LINE
  5
24D
100
AcDbEntity
  8
0
100
AcDbLine
 62
7
  6
CONTINUOUS
 10
-40.249539501
 20
-21.4035964623
 11
-40.3230215273
 21
-21.3668554491
  0
LINE
  5
24E
100
AcDbEntity
  8
0
100
AcDbLine
 62
7
  6
CONTINUOUS
 10
-40.9594176304
 20
-19.3132494214
 11
-40.806234074
 21
-19.3898411996
  0
LINE
  5
24F
100
AcDbEntity
  8
0
100
AcDbLine
 62
7
  6
CONTINUOUS
 10
14.1949113022
 20
-46.8904138877
 11
14.3480948586
 21
-46.9670056658
  0
LINE
  5
250
100
AcDbEntity
  8
0
100
AcDbLine
 62
7
  6
CONTINUOUS
 10
-40.9594176304
 20
-19.7493179031
 11
-41.0654836475
 21
-20.1329151927
  0
LINE
  5
251
100
AcDbEntity
  8
0
100
AcDbLine
 62
7
  6
CONTINUOUS
 10
-41.0654836475
 20
46.4020538784
 11
-40.9594176304
 21
45.9123905716
  0
LINE
  5
252
100
AcDbEntity
  8
0
100
AcDbLine
 62
7
  6
CONTINUOUS
 10
-40.3266154798
 20
46.2471804283
 11
-40.3230215273
 21
46.2305886231
  0
LINE
  5
253
100
AcDbEntity
  8
RACCORDO
100
AcDbLine
 62
253
  6
CONTINUOUS
 10
22.3743353398
 20
40.8571837547
 11
20.2406742813
 21
39.8359666342
  0
LINE
  5
254
100
AcDbEntity
  8
DRAFT
100
AcDbLine
 62
7
  6
CONTINUOUS
 10
-21.0942159311
 20
59.2043736348
 11
-21.0942159311
 21
59.2421649589
  0
LINE
  5
255
100
AcDbEntity
  8
DRAFT
100
AcDbLine
 62
7
  6
CONTINUOUS
 10
-20.1659794114
 20
58.7402553749
 11
-20.1659794114
 21
58.778046699
  0
LINE
  5
256
100
AcDbEntity
  8
DRAFT
100
AcDbLine
 62
7
  6
CONTINUOUS
 10
-18.3673559714
 20
55.8508528091
 11
-18.3673559714
 21
57.8787349791
  0
LINE
  5
257
100
AcDbEntity
  8
RACCORDO
100
AcDbLine
 62
253
  6
CONTINUOUS
 10
24.4833149685
 20
34.4255173391
 11
22.1498625905
 21
33.2587911502
  0
LINE
  5
258
100
AcDbEntity
  8
RACCORDO
100
AcDbLine
 62
7
  6
CONTINUOUS
 10
46.6743498111
 20
43.3324040704
 11
30.0274793549
 21
35.0754336018
  0
LINE
  5
259
100
AcDbEntity
  8
RACCORDO
100
AcDbLine
 62
253
  6
CONTINUOUS
 10
47.8471303041
 20
42.7460138239
 11
47.8104312467
 21
42.7281326673
  0
LINE
  5
25A
100
AcDbEntity
  8
RACCORDO
100
AcDbLine
 62
7
  6
CONTINUOUS
 10
29.0286769236
 20
36.1651874915
 11
45.5106241126
 21
43.9142669197
  0
LINE
  5
25B
100
AcDbEntity
  8
RACCORDO
100
AcDbLine
 62
7
  6
CONTINUOUS
 10
29.5989519274
 20
35.5672800624
 11
46.7571785758
 21
43.6343160516
  0
LINE
  5
25C
100
AcDbEntity
  8
DRAFT
100
AcDbLine
 62
7
  6
CONTINUOUS
 10
34.7363632957
 20
-12.742797815
 11
31.5543827803
 21
-13.2122281007
  0
LINE
  5
25D
100
AcDbEntity
  8
DRAFT
100
AcDbLine
 62
7
  6
CONTINUOUS
 10
34.7363632957
 20
-13.879650732
 11
31.5543827803
 21
-14.2628295557
  0
LINE
  5
25E
100
AcDbEntity
  8
DRAFT
100
AcDbLine
 62
7
  6
CONTINUOUS
 10
34.7363632957
 20
-37.0891315534
 11
34.7672197826
 21
-37.1045597969
  0
LINE
  5
25F
100
AcDbEntity
  8
RACCORDO
100
AcDbLine
 62
253
  6
CONTINUOUS
 10
-13.7065686569
 20
53.5595832046
 11
-13.7065686569
 21
53.5204591518
  0
LINE
  5
260
100
AcDbEntity
  8
DRAFT
100
AcDbLine
 62
7
  6
CONTINUOUS
 10
16.8067075405
 20
40.253911899
 11
15.6612878734
 21
38.8365308867
  0
LINE
  5
261
100
AcDbEntity
  8
DRAFT
100
AcDbLine
 62
7
  6
CONTINUOUS
 10
17.7349440602
 20
39.7897936391
 11
16.548827273
 21
38.3927611869
  0
LINE
  5
262
100
AcDbEntity
  8
0
100
AcDbLine
 62
7
  6
CONTINUOUS
 10
-40.4433585439
 20
-21.5005059837
 11
-40.3230215273
 21
-21.3668554491
  0
LINE
  5
263
100
AcDbEntity
  8
DRAFT
100
AcDbLine
 62
7
  6
CONTINUOUS
 10
33.566194557
 20
30.1503403496
 11
50.9977399013
 21
39.1295974258
  0
LINE
  5
264
100
AcDbEntity
  8
DRAFT
100
AcDbLine
 62
7
  6
CONTINUOUS
 10
51.6008053958
 20
39.56666605
 11
33.477793218
 21
30.3028851441
  0
LINE
  5
265
100
AcDbEntity
  8
0
100
AcDbLine
 62
7
  6
CONTINUOUS
 10
12.9297185755
 20
21.4738723479
 11
13.0894166407
 21
21.5537213805
  0
LINE
  5
266
100
AcDbEntity
  8
0
100
AcDbLine
 62
7
  6
CONTINUOUS
 10
14.1949113022
 20
20.2234991259
 11
14.2765126632
 21
20.2642998063
  0
LINE
  5
267
100
AcDbEntity
  8
0
100
AcDbLine
 62
7
  6
CONTINUOUS
 10
13.4136259373
 20
19.5022921624
 11
14.088845285
 21
19.8399018363
  0
LINE
  5
268
100
AcDbEntity
  8
0
100
AcDbLine
 62
7
  6
CONTINUOUS
 10
13.3968121108
 20
19.4504193867
 11
14.2015882733
 21
19.8528074679
  0
LINE
  5
269
100
AcDbEntity
  8
0
100
AcDbLine
 62
7
  6
CONTINUOUS
 10
14.150872495
 20
19.4776311798
 11
13.0351514185
 21
18.9197706416
  0
LINE
  5
26A
100
AcDbEntity
  8
DRAFT
100
AcDbLine
 62
7
  6
CONTINUOUS
 10
51.4297656708
 20
38.2890469438
 11
34.5763932314
 21
30.0936388995
  0
LINE
  5
26B
100
AcDbEntity
  8
DRAFT
100
AcDbLine
 62
7
  6
CONTINUOUS
 10
32.1249950355
 20
32.3917671964
 11
50.5668924787
 21
41.3499020512
  0
LINE
  5
26C
100
AcDbEntity
  8
0
100
AcDbLine
 62
7
  6
CONTINUOUS
 10
-42.5787679478
 20
-20.6806250435
 11
-40.9941267395
 21
-20.4155182778
  0
LINE
  5
26D
100
AcDbEntity
  8
DRAFT
100
AcDbLine
 62
7
  6
CONTINUOUS
 10
34.7363632957
 20
-35.9522786364
 11
34.7672197826
 21
-35.9677068799
  0
LINE
  5
26E
100
AcDbEntity
  8
DRAFT
100
AcDbLine
 62
7
  6
CONTINUOUS
 10
32.7940105764
 20
-33.1755439997
 11
34.7672197826
 21
-34.1621486028
  0
LINE
  5
26F
100
AcDbEntity
  8
DRAFT
100
AcDbLine
 62
7
  6
CONTINUOUS
 10
30.1790679659
 20
28.7900840106
 11
29.9106661782
 21
28.5955611914
  0
LINE
  5
270
100
AcDbEntity
  8
DRAFT
100
AcDbLine
 62
7
  6
CONTINUOUS
 10
52.0626584909
 20
37.0232613037
 11
47.1657393291
 21
34.5068555533
  0
LINE
  5
271
100
AcDbEntity
  8
DRAFT
100
AcDbLine
 62
7
  6
CONTINUOUS
 10
35.5909316835
 20
26.1629489504
 11
53.9552512144
 21
35.5058476995
  0
LINE
  5
272
100
AcDbEntity
  8
0
100
AcDbLine
 62
7
  6
CONTINUOUS
 10
13.3968121108
 20
18.5502319062
 11
14.2613592463
 21
18.982505474
  0
LINE
  5
273
100
AcDbEntity
  8
0
100
AcDbLine
 62
7
  6
CONTINUOUS
 10
13.4136259373
 20
18.4872797382
 11
14.088845285
 21
18.8248894121
  0
LINE
  5
274
100
AcDbEntity
  8
0
100
AcDbLine
 62
7
  6
CONTINUOUS
 10
14.1949113022
 20
18.3352261053
 11
14.8313074053
 21
18.6534241569
  0
LINE
  5
275
100
AcDbEntity
  8
0
100
AcDbLine
 62
7
  6
CONTINUOUS
 10
14.1318121108
 20
18.1827319062
 11
14.9993161785
 21
18.6164839401
  0
LINE
  5
276
100
AcDbEntity
  8
0
100
AcDbLine
 62
7
  6
CONTINUOUS
 10
14.5769198836
 20
18.148886409
 11
15.32336306
 21
18.5221079972
  0
LINE
  5
277
100
AcDbEntity
  8
0
100
AcDbLine
 62
7
  6
CONTINUOUS
 10
14.088845285
 20
16.9905213748
 11
13.8060025725
 21
16.8491000185
  0
LINE
  5
278
100
AcDbEntity
  8
0
100
AcDbLine
 62
7
  6
CONTINUOUS
 10
15.3893933508
 20
16.5545227974
 11
15.547038574
 21
16.633345409
  0
LINE
  5
279
100
AcDbEntity
  8
RACCORDO
100
AcDbLine
 62
253
  6
CONTINUOUS
 10
31.5543827803
 20
22.2297293954
 11
29.2209304024
 21
21.0630032064
  0
LINE
  5
27A
100
AcDbEntity
  8
DRAFT
100
AcDbLine
 62
7
  6
CONTINUOUS
 10
52.9213382973
 20
37.2890837007
 11
34.5312613215
 21
28.3994112135
  0
LINE
  5
27B
100
AcDbEntity
  8
DRAFT
100
AcDbLine
 62
253
  6
CONTINUOUS
 10
31.5543827803
 20
21.3051243572
 11
32.7940105764
 21
21.903671681
  0
LINE
  5
27C
100
AcDbEntity
  8
0
100
AcDbLine
 62
7
  6
CONTINUOUS
 10
14.7109703887
 20
18.4723110452
 11
14.8313074053
 21
18.6059615798
  0
LINE
  5
27D
100
AcDbEntity
  8
DRAFT
100
AcDbLine
 62
7
  6
CONTINUOUS
 10
30.4633024811
 20
27.388328704
 11
30.8354303036
 21
27.6580264349
  0
LINE
  5
27E
100
AcDbEntity
  8
DRAFT
100
AcDbLine
 62
7
  6
CONTINUOUS
 10
51.6008053958
 20
39.56666605
 11
50.9977399013
 21
39.1295974258
  0
LINE
  5
27F
100
AcDbEntity
  8
RACCORDO
100
AcDbLine
 62
7
  6
CONTINUOUS
 10
37.2801608796
 20
21.1796577036
 11
54.4987199687
 21
30.2821322376
  0
LINE
  5
280
100
AcDbEntity
  8
RACCORDO
100
AcDbLine
 62
7
  6
CONTINUOUS
 10
53.9916271353
 20
29.286700452
 11
37.4407514081
 21
20.537192201
  0
LINE
  5
281
100
AcDbEntity
  8
RACCORDO
100
AcDbLine
 62
253
  6
CONTINUOUS
 10
53.9552512144
 20
32.1298859423
 11
53.9916271353
 21
32.1483244271
  0
LINE
  5
282
100
AcDbEntity
  8
0
100
AcDbLine
 62
7
  6
CONTINUOUS
 10
-42.224610357
 20
-18.498944681
 11
-42.0649122918
 21
-18.4190956484
  0
LINE
  5
283
100
AcDbEntity
  8
0
100
AcDbLine
 62
7
  6
CONTINUOUS
 10
-40.9594176304
 20
-19.7493179031
 11
-40.8778162694
 21
-19.7085172226
  0
LINE
  5
284
100
AcDbEntity
  8
0
100
AcDbLine
 62
7
  6
CONTINUOUS
 10
-41.7407029953
 20
-20.4705248665
 11
-41.0654836475
 21
-20.1329151927
  0
LINE
  5
285
100
AcDbEntity
  8
0
100
AcDbLine
 62
7
  6
CONTINUOUS
 10
-41.7575168218
 20
-20.5223976422
 11
-40.9527406593
 21
-20.120009561
  0
LINE
  5
286
100
AcDbEntity
  8
0
100
AcDbLine
 62
7
  6
CONTINUOUS
 10
-41.0034564376
 20
-20.4951858491
 11
-42.1191775141
 21
-21.0530463874
  0
LINE
  5
287
100
AcDbEntity
  8
0
100
AcDbLine
 62
7
  6
CONTINUOUS
 10
-41.7575168218
 20
-21.4225851227
 11
-40.8929696862
 21
-20.9903115549
  0
LINE
  5
288
100
AcDbEntity
  8
0
100
AcDbLine
 62
7
  6
CONTINUOUS
 10
-41.7407029953
 20
-21.4855372907
 11
-41.0654836475
 21
-21.1479276168
  0
LINE
  5
289
100
AcDbEntity
  8
RACCORDO
100
AcDbLine
 62
7
  6
CONTINUOUS
 10
53.9916271353
 20
30.711967533
 11
36.983493627
 21
22.2758079273
  0
LINE
  5
28A
100
AcDbEntity
  8
RACCORDO
100
AcDbLine
 62
7
  6
CONTINUOUS
 10
0.7952377987
 20
66.3576668067
 11
0.7952377987
 21
66.9885105952
  0
LINE
  5
28B
100
AcDbEntity
  8
RACCORDO
100
AcDbLine
 62
253
  6
CONTINUOUS
 10
3.9833357553
 20
44.6755069457
 11
3.9833357553
 21
44.7146309985
  0
LINE
  5
28C
100
AcDbEntity
  8
RACCORDO
100
AcDbLine
 62
253
  6
CONTINUOUS
 10
37.8934413336
 20
14.0906852833
 11
35.7970234674
 21
13.0052331579
  0
LINE
  5
28D
100
AcDbEntity
  8
DRAFT
100
AcDbLine
 62
7
  6
CONTINUOUS
 10
32.7940105764
 20
13.2434176432
 11
31.5543827803
 21
12.6188241917
  0
LINE
  5
28E
100
AcDbEntity
  8
0
100
AcDbLine
 62
7
  6
CONTINUOUS
 10
-40.9594176304
 20
-21.6375909236
 11
-40.3230215273
 21
-21.319392872
  0
LINE
  5
28F
100
AcDbEntity
  8
0
100
AcDbLine
 62
7
  6
CONTINUOUS
 10
-41.0225168218
 20
-21.7900851227
 11
-40.1550127541
 21
-21.3563330888
  0
LINE
  5
290
100
AcDbEntity
  8
0
100
AcDbLine
 62
7
  6
CONTINUOUS
 10
-40.577409049
 20
-21.8239306199
 11
-39.8309658725
 21
-21.4507090317
  0
LINE
  5
291
100
AcDbEntity
  8
0
100
AcDbLine
 62
7
  6
CONTINUOUS
 10
-41.0654836475
 20
-22.9822956541
 11
-41.34832636
 21
-23.1237170104
  0
LINE
  5
292
100
AcDbEntity
  8
0
100
AcDbLine
 62
7
  6
CONTINUOUS
 10
-39.7649355818
 20
-23.4182942315
 11
-39.6072903585
 21
-23.3394716199
  0
LINE
  5
293
100
AcDbEntity
  8
DRAFT
100
AcDbLine
 62
7
  6
CONTINUOUS
 10
34.7363632957
 20
10.4666830064
 11
31.5543827803
 21
9.9972527207
  0
LINE
  5
294
100
AcDbEntity
  8
DRAFT
100
AcDbLine
 62
7
  6
CONTINUOUS
 10
34.7363632957
 20
9.3298300894
 11
31.5543827803
 21
8.9466512657
  0
LINE
  5
295
100
AcDbEntity
  8
RACCORDO
100
AcDbLine
 62
7
  6
CONTINUOUS
 10
53.8296638657
 20
-25.6749909569
 11
54.8034562152
 21
-26.1618871316
  0
LINE
  5
296
100
AcDbEntity
  8
DRAFT
100
AcDbLine
 62
7
  6
CONTINUOUS
 10
34.7363632957
 20
-13.879650732
 11
34.7672197826
 21
-13.8950789755
  0
LINE
  5
297
100
AcDbEntity
  8
DRAFT
100
AcDbLine
 62
7
  6
CONTINUOUS
 10
34.7363632957
 20
-12.742797815
 11
34.7672197826
 21
-12.7582260585
  0
LINE
  5
298
100
AcDbEntity
  8
DRAFT
100
AcDbLine
 62
7
  6
CONTINUOUS
 10
32.7940105764
 20
-9.9660631782
 11
34.7672197826
 21
-10.9526677814
  0
LINE
  5
299
100
AcDbEntity
  8
DRAFT
100
AcDbLine
 62
7
  6
CONTINUOUS
 10
32.2750323155
 20
-48.8762127112
 11
31.5543827803
 21
-47.6332761213
  0
LINE
  5
29A
100
AcDbEntity
  8
0
100
AcDbLine
 62
7
  6
CONTINUOUS
 10
14.088845285
 20
-48.7250920831
 11
14.1949113022
 21
-49.2147553898
  0
LINE
  5
29B
100
AcDbEntity
  8
0
100
AcDbLine
 62
7
  6
CONTINUOUS
 10
14.8277134527
 20
-48.8799655332
 11
14.8313074053
 21
-48.8965573383
  0
LINE
  5
29C
100
AcDbEntity
  8
RACCORDO
100
AcDbLine
 62
7
  6
CONTINUOUS
 10
8.8961092954
 20
44.6423556233
 11
8.8961092954
 21
44.2470023456
  0
LINE
  5
29D
100
AcDbEntity
  8
DRAFT
100
AcDbLine
 62
7
  6
CONTINUOUS
 10
10.6947327353
 20
43.3476906257
 11
10.6947327353
 21
41.3198084557
  0
LINE
  5
29E
100
AcDbEntity
  8
0
100
AcDbLine
 62
7
  6
CONTINUOUS
 10
14.1949113022
 20
20.2234991259
 11
14.088845285
 21
19.8399018363
  0
LINE
  5
29F
100
AcDbEntity
  8
DRAFT
100
AcDbLine
 62
7
  6
CONTINUOUS
 10
1.018156907
 20
46.1580963699
 11
0.8576315759
 21
46.7785201735
  0
LINE
  5
2A0
100
AcDbEntity
  8
0
100
AcDbLine
 62
7
  6
CONTINUOUS
 10
14.088845285
 20
21.0978644113
 11
14.088845285
 21
19.8399018363
  0
LINE
  5
2A1
100
AcDbEntity
  8
0
100
AcDbLine
 62
7
  6
CONTINUOUS
 10
14.088845285
 20
18.8248894121
 11
14.088845285
 21
16.9905213748
  0
LINE
  5
2A2
100
AcDbEntity
  8
0
100
AcDbLine
 62
7
  6
CONTINUOUS
 10
14.088845285
 20
-46.4521170839
 11
14.088845285
 21
-47.7100796589
  0
LINE
  5
2A3
100
AcDbEntity
  8
0
100
AcDbLine
 62
7
  6
CONTINUOUS
 10
14.088845285
 20
-48.7250920831
 11
14.088845285
 21
-50.5594601204
  0
LINE
  5
2A4
100
AcDbEntity
  8
0
100
AcDbLine
 62
7
  6
CONTINUOUS
 10
14.1949113022
 20
-49.3356999932
 11
14.1949113022
 21
-49.2147553898
  0
LINE
  5
2A5
100
AcDbEntity
  8
0
100
AcDbLine
 62
7
  6
CONTINUOUS
 10
14.1949113022
 20
-47.3264823693
 11
14.1949113022
 21
-46.8904138877
  0
LINE
  5
2A6
100
AcDbEntity
  8
0
100
AcDbLine
 62
7
  6
CONTINUOUS
 10
14.1949113022
 20
18.2142815019
 11
14.1949113022
 21
18.3352261053
  0
LINE
  5
2A7
100
AcDbEntity
  8
0
100
AcDbLine
 62
7
  6
CONTINUOUS
 10
14.1949113022
 20
20.2234991259
 11
14.1949113022
 21
20.6595676075
  0
LINE
  5
2A8
100
AcDbEntity
  8
0
100
AcDbLine
 62
7
  6
CONTINUOUS
 10
14.8313074053
 20
-48.9440199154
 11
14.8313074053
 21
-48.8965573383
  0
LINE
  5
2A9
100
AcDbEntity
  8
0
100
AcDbLine
 62
7
  6
CONTINUOUS
 10
14.8313074053
 20
18.6059615798
 11
14.8313074053
 21
18.6534241569
  0
LINE
  5
2AA
100
AcDbEntity
  8
0
100
AcDbLine
 62
7
  6
CONTINUOUS
 10
15.1495054568
 20
50.6706419482
 11
15.1495054568
 21
51.0689088265
  0
LINE
  5
2AB
100
AcDbEntity
  8
DRAFT
100
AcDbLine
 62
7
  6
CONTINUOUS
 10
16.8067075405
 20
40.253911899
 11
16.8067075405
 21
40.2917032231
  0
LINE
  5
2AC
100
AcDbEntity
  8
DRAFT
100
AcDbLine
 62
7
  6
CONTINUOUS
 10
17.7349440602
 20
39.7897936391
 11
17.7349440602
 21
39.8275849632
  0
LINE
  5
2AD
100
AcDbEntity
  8
0
100
AcDbLine
 62
7
  6
CONTINUOUS
 10
35.2301314957
 20
28.737241608
 11
36.0798661799
 21
29.974352681
  0
LINE
  5
2AE
100
AcDbEntity
  8
0
100
AcDbLine
 62
7
  6
CONTINUOUS
 10
12.5755609847
 20
19.2921919854
 11
14.1602021931
 21
19.5572987511
  0
LINE
  5
2AF
100
AcDbEntity
  8
0
100
AcDbLine
 62
7
  6
CONTINUOUS
 10
14.088845285
 20
18.8248894121
 11
14.1949113022
 21
18.3352261053
  0
LINE
  5
2B0
100
AcDbEntity
  8
0
100
AcDbLine
 62
7
  6
CONTINUOUS
 10
14.8277134527
 20
18.670015962
 11
14.8313074053
 21
18.6534241569
  0
LINE
  5
2B1
100
AcDbEntity
  8
DRAFT
100
AcDbLine
 62
7
  6
CONTINUOUS
 10
19.5335675002
 20
36.9003910733
 11
19.5335675002
 21
38.9282732433
  0
LINE
  5
2B2
100
AcDbEntity
  8
RACCORDO
100
AcDbLine
 62
7
  6
CONTINUOUS
 10
23.7762081873
 20
55.498025401
 11
23.7762081873
 21
55.1248012459
  0
LINE
  5
2B3
100
AcDbEntity
  8
RACCORDO
100
AcDbLine
 62
7
  6
CONTINUOUS
 10
38.1741015333
 20
-6.4935922531
 11
54.4987199687
 21
2.1363066146
  0
LINE
  5
2B4
100
AcDbEntity
  8
RACCORDO
100
AcDbLine
 62
7
  6
CONTINUOUS
 10
53.9916271353
 20
1.140874829
 11
38.1741015333
 21
-7.2209528499
  0
LINE
  5
2B5
100
AcDbEntity
  8
RACCORDO
100
AcDbLine
 62
7
  6
CONTINUOUS
 10
53.9916271353
 20
2.552931757
 11
38.1741015333
 21
-5.464767814
  0
LINE
  5
2B6
100
AcDbEntity
  8
DRAFT
100
AcDbLine
 62
7
  6
CONTINUOUS
 10
32.7940105764
 20
-9.9660631782
 11
31.5543827803
 21
-10.5906566298
  0
LINE
  5
2B7
100
AcDbEntity
  8
0
100
AcDbLine
 62
7
  6
CONTINUOUS
 10
14.9047894316
 20
18.5692205666
 11
14.8313074053
 21
18.6059615798
  0
LINE
  5
2B8
100
AcDbEntity
  8
0
100
AcDbLine
 62
7
  6
CONTINUOUS
 10
-40.249539501
 20
46.1463850329
 11
-40.3230215273
 21
46.1831260461
  0
LINE
  5
2B9
100
AcDbEntity
  8
DRAFT
100
AcDbLine
 62
7
  6
CONTINUOUS
 10
34.7363632957
 20
9.3298300894
 11
34.7672197826
 21
9.3144018459
  0
LINE
  5
2BA
100
AcDbEntity
  8
RACCORDO
100
AcDbLine
 62
253
  6
CONTINUOUS
 10
26.3925032777
 20
-63.8074863645
 11
26.3925032777
 21
21.0630032064
  0
LINE
  5
2BB
100
AcDbEntity
  8
RACCORDO
100
AcDbLine
 62
253
  6
CONTINUOUS
 10
29.2209304024
 20
-63.8074863645
 11
29.2209304024
 21
21.0630032064
  0
LINE
  5
2BC
100
AcDbEntity
  8
0
100
AcDbLine
 62
7
  6
CONTINUOUS
 10
14.1949113022
 20
-47.3264823693
 11
14.088845285
 21
-47.7100796589
  0
LINE
  5
2BD
100
AcDbEntity
  8
0
100
AcDbLine
 62
7
  6
CONTINUOUS
 10
-40.9594176304
 20
48.2367320738
 11
-40.806234074
 21
48.1601402956
  0
LINE
  5
2BE
100
AcDbEntity
  8
0
100
AcDbLine
 62
7
  6
CONTINUOUS
 10
14.1949113022
 20
20.6595676075
 11
14.3480948586
 21
20.5829758293
  0
LINE
  5
2BF
100
AcDbEntity
  8
DRAFT
100
AcDbLine
 62
7
  6
CONTINUOUS
 10
34.7363632957
 20
10.4666830064
 11
34.7672197826
 21
10.451254763
  0
LINE
  5
2C0
100
AcDbEntity
  8
RACCORDO
100
AcDbLine
 62
7
  6
CONTINUOUS
 10
54.4987199687
 20
2.1363066146
 11
54.8034562152
 21
1.9839384913
  0
LINE
  5
2C1
100
AcDbEntity
  8
DRAFT
100
AcDbLine
 62
7
  6
CONTINUOUS
 10
32.7940105764
 20
13.2434176432
 11
34.7672197826
 21
12.2568130401
  0
LINE
  5
2C2
100
AcDbEntity
  8
DRAFT
100
AcDbLine
 62
7
  6
CONTINUOUS
 10
51.4861289343
 20
-33.3582943754
 11
51.6008053958
 21
-33.5560820141
  0
LINE
  5
2C3
100
AcDbEntity
  8
ASSI
100
AcDbLine
 62
7
  6
CONTINUOUS
 10
13.5393253575
 20
50.3118736692
 11
13.6664212876
 21
49.9480277404
  0
LINE
  5
2C4
100
AcDbEntity
  8
ASSI
100
AcDbLine
 62
7
  6
CONTINUOUS
 10
14.1776243285
 20
50.1971050268
 11
14.0531489874
 21
50.5534507155
  0
LINE
  5
2C5
100
AcDbEntity
  8
IMPORT_IGES
100
AcDbLine
 62
7
  6
CONTINUOUS
 10
14.1958366858
 20
50.620536133
 11
14.3195844553
 21
50.2662733227
  0
LINE
  5
2C6
100
AcDbEntity
  8
ASSI
100
AcDbLine
 62
7
  6
CONTINUOUS
 10
14.3195844553
 20
50.2662733227
 11
14.1958366858
 21
50.620536133
  0
LINE
  5
2C7
100
AcDbEntity
  8
0
100
AcDbLine
 62
7
  6
CONTINUOUS
 10
31.5543827803
 20
-62.6407601755
 11
31.5543827803
 21
22.2297293954
  0
LINE
  5
2C8
100
AcDbEntity
  8
DRAFT
100
AcDbLine
 62
7
  6
CONTINUOUS
 10
32.7940105764
 20
-43.0482336028
 11
32.7940105764
 21
-37.3230325552
  0
LINE
  5
2C9
100
AcDbEntity
  8
DRAFT
100
AcDbLine
 62
7
  6
CONTINUOUS
 10
32.7940105764
 20
-33.1755439997
 11
32.7940105764
 21
-14.1135517338
  0
LINE
  5
2CA
100
AcDbEntity
  8
DRAFT
100
AcDbLine
 62
7
  6
CONTINUOUS
 10
32.7940105764
 20
-9.9660631782
 11
32.7940105764
 21
9.0959290876
  0
LINE
  5
2CB
100
AcDbEntity
  8
DRAFT
100
AcDbLine
 62
7
  6
CONTINUOUS
 10
32.7940105764
 20
13.2434176432
 11
32.7940105764
 21
21.903671681
  0
LINE
  5
2CC
100
AcDbEntity
  8
DRAFT
100
AcDbLine
 62
7
  6
CONTINUOUS
 10
34.7363632957
 20
10.4666830064
 11
34.7363632957
 21
9.3298300894
  0
LINE
  5
2CD
100
AcDbEntity
  8
DRAFT
100
AcDbLine
 62
7
  6
CONTINUOUS
 10
34.7363632957
 20
-12.742797815
 11
34.7363632957
 21
-13.879650732
  0
LINE
  5
2CE
100
AcDbEntity
  8
DRAFT
100
AcDbLine
 62
7
  6
CONTINUOUS
 10
34.7363632957
 20
-35.9522786364
 11
34.7363632957
 21
-37.0891315534
  0
LINE
  5
2CF
100
AcDbEntity
  8
DRAFT
100
AcDbLine
 62
7
  6
CONTINUOUS
 10
34.7672197826
 20
13.5201350003
 11
34.7672197826
 21
10.451254763
  0
LINE
  5
2D0
100
AcDbEntity
  8
DRAFT
100
AcDbLine
 62
7
  6
CONTINUOUS
 10
34.7672197826
 20
9.3144018459
 11
34.7672197826
 21
-12.7582260585
  0
LINE
  5
2D1
100
AcDbEntity
  8
DRAFT
100
AcDbLine
 62
7
  6
CONTINUOUS
 10
34.7672197826
 20
-13.8950789755
 11
34.7672197826
 21
-35.9677068799
  0
LINE
  5
2D2
100
AcDbEntity
  8
DRAFT
100
AcDbLine
 62
7
  6
CONTINUOUS
 10
34.7672197826
 20
-37.1045597969
 11
34.7672197826
 21
-40.1734400343
  0
LINE
  5
2D3
100
AcDbEntity
  8
DRAFT
100
AcDbLine
 62
7
  6
CONTINUOUS
 10
35.7970234674
 20
-40.6883418767
 11
35.7970234674
 21
13.0052331579
  0
LINE
  5
2D4
100
AcDbEntity
  8
0
100
AcDbLine
 62
7
  6
CONTINUOUS
 10
34.6552015285
 20
30.033712277
 11
36.0798661799
 21
29.974352681
  0
LINE
  5
2D5
100
AcDbEntity
  8
RACCORDO
100
AcDbLine
 62
253
  6
CONTINUOUS
 10
37.8934413336
 20
14.0906852833
 11
37.8934413336
 21
-39.6028897513
  0
LINE
  5
2D6
100
AcDbEntity
  8
RACCORDO
100
AcDbLine
 62
7
  6
CONTINUOUS
 10
38.1741015333
 20
14.4380144686
 11
38.1741015333
 21
-39.2555605661
  0
LINE
  5
2D7
100
AcDbEntity
  8
RACCORDO
100
AcDbLine
 62
253
  6
CONTINUOUS
 10
20.7356490282
 20
30.8196335614
 11
-48.5608155281
 21
65.4678658396
  0
LINE
  5
2D8
100
AcDbEntity
  8
RACCORDO
100
AcDbLine
 62
253
  6
CONTINUOUS
 10
22.1498625905
 20
33.2587911502
 11
-47.1466019657
 21
67.9070234283
  0
LINE
  5
2D9
100
AcDbEntity
  8
0
100
AcDbLine
 62
7
  6
CONTINUOUS
 10
24.4833149685
 20
34.4255173391
 11
-44.8131495878
 21
69.0737496173
  0
LINE
  5
2DA
100
AcDbEntity
  8
RACCORDO
100
AcDbLine
 62
7
  6
CONTINUOUS
 10
-13.7065686569
 20
53.5595832046
 11
-11.0819015628
 21
52.2472496575
  0
LINE
  5
2DB
100
AcDbEntity
  8
RACCORDO
100
AcDbLine
 62
7
  6
CONTINUOUS
 10
1.0065300033
 20
46.2030338745
 11
3.9833357553
 21
44.7146309985
  0
LINE
  5
2DC
100
AcDbEntity
  8
0
100
AcDbLine
 62
7
  6
CONTINUOUS
 10
33.624955207
 20
30.1806088641
 11
33.6585307936
 21
29.9910055207
  0
LINE
  5
2DD
100
AcDbEntity
  8
RACCORDO
100
AcDbLine
 62
7
  6
CONTINUOUS
 10
46.7571785758
 20
44.0075402067
 11
46.7571785758
 21
43.6343160516
  0
LINE
  5
2DE
100
AcDbEntity
  8
0
100
AcDbLine
 62
7
  6
CONTINUOUS
 10
14.7109703887
 20
-49.07767045
 11
14.8313074053
 21
-48.9440199154
  0
LINE
  5
2DF
100
AcDbEntity
  8
RACCORDO
100
AcDbLine
 62
7
  6
CONTINUOUS
 10
53.9916271353
 20
-25.5928938659
 11
38.1741015333
 21
-33.610593437
  0
LINE
  5
2E0
100
AcDbEntity
  8
DRAFT
100
AcDbLine
 62
7
  6
CONTINUOUS
 10
32.7940105764
 20
-33.1755439997
 11
31.5543827803
 21
-33.8001374512
  0
LINE
  5
2E1
100
AcDbEntity
  8
0
100
AcDbLine
 62
7
  6
CONTINUOUS
 10
12.9297185755
 20
-46.0761091473
 11
13.0894166407
 21
-45.9962601147
  0
LINE
  5
2E2
100
AcDbEntity
  8
DRAFT
100
AcDbLine
 62
7
  6
CONTINUOUS
 10
-10.5808644774
 20
52.4977682002
 11
0.8576315759
 21
46.7785201735
  0
LINE
  5
2E3
100
AcDbEntity
  8
DRAFT
100
AcDbLine
 62
7
  6
CONTINUOUS
 10
-21.0942159311
 20
59.2043736348
 11
-20.1659794114
 21
58.7402553749
  0
LINE
  5
2E4
100
AcDbEntity
  8
DRAFT
100
AcDbLine
 62
7
  6
CONTINUOUS
 10
16.8067075405
 20
40.253911899
 11
17.7349440602
 21
39.7897936391
  0
LINE
  5
2E5
100
AcDbEntity
  8
DRAFT
100
AcDbLine
 62
7
  6
CONTINUOUS
 10
-23.5999461522
 20
60.4950300695
 11
-21.0942159311
 21
59.2421649589
  0
LINE
  5
2E6
100
AcDbEntity
  8
DRAFT
100
AcDbLine
 62
7
  6
CONTINUOUS
 10
-20.1659794114
 20
58.778046699
 11
-13.0212930579
 21
55.2057035223
  0
LINE
  5
2E7
100
AcDbEntity
  8
DRAFT
100
AcDbLine
 62
7
  6
CONTINUOUS
 10
8.8961092954
 20
44.2470023456
 11
16.8067075405
 21
40.2917032231
  0
LINE
  5
2E8
100
AcDbEntity
  8
DRAFT
100
AcDbLine
 62
7
  6
CONTINUOUS
 10
17.7349440602
 20
39.8275849632
 11
20.2406742813
 21
38.5747198527
  0
LINE
  5
2E9
100
AcDbEntity
  8
RACCORDO
100
AcDbLine
 62
7
  6
CONTINUOUS
 10
-23.5999461522
 20
61.756276851
 11
20.2406742813
 21
39.8359666342
  0
LINE
  5
2EA
100
AcDbEntity
  8
RACCORDO
100
AcDbLine
 62
253
  6
CONTINUOUS
 10
-21.4662850937
 20
62.7774939715
 11
22.3743353398
 21
40.8571837547
  0
LINE
  5
2EB
100
AcDbEntity
  8
RACCORDO
100
AcDbLine
 62
7
  6
CONTINUOUS
 10
-21.0314122132
 20
62.7998573011
 11
22.8092082204
 21
40.8795470843
  0
LINE
  5
2EC
100
AcDbEntity
  8
DRAFT
100
AcDbLine
 62
7
  6
CONTINUOUS
 10
39.721466103
 20
40.0775741622
 11
39.7562888127
 21
39.9009948146
  0
LINE
  5
2ED
100
AcDbEntity
  8
DRAFT
100
AcDbLine
 62
7
  6
CONTINUOUS
 10
49.9737183566
 20
28.7190551583
 11
49.9737183566
 21
27.8900208113
  0
LINE
  5
2EE
100
AcDbEntity
  8
DRAFT
100
AcDbLine
 62
7
  6
CONTINUOUS
 10
49.9737183566
 20
0.5163056562
 11
49.9737183566
 21
-0.2558048117
  0
LINE
  5
2EF
100
AcDbEntity
  8
DRAFT
100
AcDbLine
 62
7
  6
CONTINUOUS
 10
50.611706607
 20
0.0814633518
 11
50.611706607
 21
0.8396936659
  0
LINE
  5
2F0
100
AcDbEntity
  8
DRAFT
100
AcDbLine
 62
7
  6
CONTINUOUS
 10
50.611706607
 20
28.2272889748
 11
50.611706607
 21
29.0355020339
  0
LINE
  5
2F1
100
AcDbEntity
  8
DRAFT
100
AcDbLine
 62
7
  6
CONTINUOUS
 10
52.6261648597
 20
1.1463930507
 11
52.6261648597
 21
1.8607965536
  0
LINE
  5
2F2
100
AcDbEntity
  8
DRAFT
100
AcDbLine
 62
7
  6
CONTINUOUS
 10
52.6261648597
 20
29.2922186737
 11
52.6261648597
 21
30.034688178
  0
LINE
  5
2F3
100
AcDbEntity
  8
RACCORDO
100
AcDbLine
 62
7
  6
CONTINUOUS
 10
53.9552512144
 20
-31.8497094821
 11
53.9552512144
 21
-28.473747725
  0
LINE
  5
2F4
100
AcDbEntity
  8
RACCORDO
100
AcDbLine
 62
7
  6
CONTINUOUS
 10
53.9552512144
 20
32.1298859423
 11
53.9552512144
 21
35.5058476995
  0
LINE
  5
2F5
100
AcDbEntity
  8
RACCORDO
100
AcDbLine
 62
253
  6
CONTINUOUS
 10
53.9916271353
 20
32.1483244271
 11
53.9916271353
 21
30.711967533
  0
LINE
  5
2F6
100
AcDbEntity
  8
RACCORDO
100
AcDbLine
 62
253
  6
CONTINUOUS
 10
53.9916271353
 20
29.286700452
 11
53.9916271353
 21
2.552931757
  0
LINE
  5
2F7
100
AcDbEntity
  8
RACCORDO
100
AcDbLine
 62
253
  6
CONTINUOUS
 10
53.9916271353
 20
1.140874829
 11
53.9916271353
 21
-25.5928938659
  0
LINE
  5
2F8
100
AcDbEntity
  8
RACCORDO
100
AcDbLine
 62
253
  6
CONTINUOUS
 10
53.9916271353
 20
-27.0181609469
 11
53.9916271353
 21
-28.454517841
  0
LINE
  5
2F9
100
AcDbEntity
  8
RACCORDO
100
AcDbLine
 62
7
  6
CONTINUOUS
 10
53.9552512144
 20
-28.6712853423
 11
54.0309205594
 21
-28.6279649691
  0
LINE
  5
2FA
100
AcDbEntity
  8
RACCORDO
100
AcDbLine
 62
7
  6
CONTINUOUS
 10
53.9916271353
 20
-27.0181609469
 11
38.1741015333
 21
-35.55207889
  0
LINE
  5
2FB
100
AcDbEntity
  8
DRAFT
100
AcDbLine
 62
7
  6
CONTINUOUS
 10
52.9213382973
 20
-32.5990325663
 11
38.1366423449
 21
-40.4205081542
  0
LINE
  5
2FC
100
AcDbEntity
  8
DRAFT
100
AcDbLine
 62
7
  6
CONTINUOUS
 10
38.1084255065
 20
-40.893647656
 11
50.5668924787
 21
-34.3054050982
  0
LINE
  5
2FD
100
AcDbEntity
  8
RACCORDO
100
AcDbLine
 62
253
  6
CONTINUOUS
 10
53.9916271353
 20
-28.454517841
 11
53.9552512144
 21
-28.473747725
  0
LINE
  5
2FE
100
AcDbEntity
  8
DRAFT
100
AcDbLine
 62
7
  6
CONTINUOUS
 10
38.1444242499
 20
-40.1784978016
 11
53.9552512144
 21
-31.8497094821
  0
LINE
  5
2FF
100
AcDbEntity
  8
DRAFT
100
AcDbLine
 62
7
  6
CONTINUOUS
 10
51.6008053958
 20
-33.5560820141
 11
38.1292723958
 21
-40.6497070465
  0
LINE
  5
300
100
AcDbEntity
  8
RACCORDO
100
AcDbLine
 62
253
  6
CONTINUOUS
 10
37.8934413336
 20
-39.6028897513
 11
35.7970234674
 21
-40.6883418767
  0
LINE
  5
301
100
AcDbEntity
  8
0
100
AcDbLine
 62
7
  6
CONTINUOUS
 10
14.1949113022
 20
-47.3264823693
 11
14.2765126632
 21
-47.2856816888
  0
LINE
  5
302
100
AcDbEntity
  8
0
100
AcDbLine
 62
7
  6
CONTINUOUS
 10
13.4136259373
 20
-48.0476893328
 11
14.088845285
 21
-47.7100796589
  0
LINE
  5
303
100
AcDbEntity
  8
0
100
AcDbLine
 62
7
  6
CONTINUOUS
 10
13.3968121108
 20
-48.0995621085
 11
14.2015882733
 21
-47.6971740272
  0
LINE
  5
304
100
AcDbEntity
  8
0
100
AcDbLine
 62
7
  6
CONTINUOUS
 10
14.150872495
 20
-48.0723503154
 11
13.0351514185
 21
-48.6302108536
  0
LINE
  5
305
100
AcDbEntity
  8
0
100
AcDbLine
 62
7
  6
CONTINUOUS
 10
13.3968121108
 20
-48.999749589
 11
14.2613592463
 21
-48.5674760212
  0
LINE
  5
306
100
AcDbEntity
  8
0
100
AcDbLine
 62
7
  6
CONTINUOUS
 10
13.4136259373
 20
-49.062701757
 11
14.088845285
 21
-48.7250920831
  0
LINE
  5
307
100
AcDbEntity
  8
0
100
AcDbLine
 62
7
  6
CONTINUOUS
 10
14.1949113022
 20
-49.2147553898
 11
14.8313074053
 21
-48.8965573383
  0
LINE
  5
308
100
AcDbEntity
  8
0
100
AcDbLine
 62
7
  6
CONTINUOUS
 10
14.1318121108
 20
-49.367249589
 11
14.9993161785
 21
-48.9334975551
  0
LINE
  5
309
100
AcDbEntity
  8
0
100
AcDbLine
 62
7
  6
CONTINUOUS
 10
14.5769198836
 20
-49.4010950862
 11
15.32336306
 21
-49.027873498
  0
LINE
  5
30A
100
AcDbEntity
  8
0
100
AcDbLine
 62
7
  6
CONTINUOUS
 10
14.088845285
 20
-50.5594601204
 11
13.8060025725
 21
-50.7008814766
  0
LINE
  5
30B
100
AcDbEntity
  8
0
100
AcDbLine
 62
7
  6
CONTINUOUS
 10
15.3893933508
 20
-50.9954586978
 11
15.547038574
 21
-50.9166360861
  0
LINE
  5
30C
100
AcDbEntity
  8
DRAFT
100
AcDbLine
 62
253
  6
CONTINUOUS
 10
31.5543827803
 20
-43.6467809266
 11
32.7940105764
 21
-43.0482336028
  0
LINE
  5
30D
100
AcDbEntity
  8
0
100
AcDbLine
 62
7
  6
CONTINUOUS
 10
-42.5787679478
 20
46.8693564517
 11
-40.9941267395
 21
47.1344632174
  0
LINE
  5
30E
100
AcDbEntity
  8
0
100
AcDbLine
 62
7
  6
CONTINUOUS
 10
12.4855899214
 20
49.8164540748
 11
12.9350984234
 21
49.5916998238
  0
LINE
  5
30F
100
AcDbEntity
  8
0
100
AcDbLine
 62
7
  6
CONTINUOUS
 10
12.9780732975
 20
49.6126387936
 11
12.5293214711
 21
49.8370147069
  0
LINE
  5
310
100
AcDbEntity
  8
RACCORDO
100
AcDbLine
 62
7
  6
CONTINUOUS
 10
54.4987199687
 20
30.2821322376
 11
54.8034562152
 21
30.1297641143
  0
LINE
  5
311
100
AcDbEntity
  8
DRAFT
100
AcDbLine
 62
7
  6
CONTINUOUS
 10
45.8863640816
 20
25.991451493
 11
46.0795984356
 21
25.8314207142
  0
LINE
  5
312
100
AcDbEntity
  8
DRAFT
100
AcDbLine
 62
7
  6
CONTINUOUS
 10
46.3579730779
 20
26.2257330681
 11
46.5401290239
 21
26.0748770877
  0
LWPOLYLINE
  5
313
100
AcDbEntity
  8
RACCORDO
100
AcDbPolyline
 62
7
  6
CONTINUOUS
 90
8
 70
0
 10
54.8333228386
 20
33.1824221692
 10
54.8319638764
 20
33.232907594
 10
54.7981361934
 20
33.4566606377
 10
54.720226312
 20
33.6723879484
 10
54.600814073
 20
33.8761464975
 10
54.4426369712
 20
34.065659421
 10
54.2491052776
 20
34.2384371788
 10
54.0226238903
 20
34.3937923768
  0
LINE
  5
314
100
AcDbEntity
  8
RACCORDO
100
AcDbLine
 62
7
  6
CONTINUOUS
 10
54.8034562152
 20
-26.1618871316
 11
54.8034562152
 21
-24.7762464856
  0
LINE
  5
315
100
AcDbEntity
  8
RACCORDO
100
AcDbLine
 62
7
  6
CONTINUOUS
 10
54.8034562152
 20
1.9839384913
 11
54.8034562152
 21
3.3695791374
  0
LINE
  5
316
100
AcDbEntity
  8
RACCORDO
100
AcDbLine
 62
7
  6
CONTINUOUS
 10
54.8034562152
 20
30.1297641143
 11
54.8034562152
 21
31.5154047604
  0
LINE
  5
317
100
AcDbEntity
  8
RACCORDO
100
AcDbLine
 62
7
  6
CONTINUOUS
 10
54.8335920136
 20
33.1820983917
 11
54.8336077342
 21
-27.3996615392
  0
LWPOLYLINE
  5
318
100
AcDbEntity
  8
RACCORDO
100
AcDbPolyline
 62
7
  6
CONTINUOUS
 90
3
 70
0
 10
54.241302564
 20
-28.4812611375
 10
54.4212572465
 20
-28.3214534813
 10
54.5701918079
 20
-28.1495939285
  0
LINE
  5
319
100
AcDbEntity
  8
DRAFT
100
AcDbLine
 62
7
  6
CONTINUOUS
 10
50.5668924787
 20
-34.3054050982
 11
51.6008053958
 21
-33.5560820141
  0
LINE
  5
31A
100
AcDbEntity
  8
DRAFT
100
AcDbLine
 62
7
  6
CONTINUOUS
 10
52.9213382973
 20
-32.5990325663
 11
53.9552512144
 21
-31.8497094821
  0
LINE
  5
31B
100
AcDbEntity
  8
RACCORDO
100
AcDbLine
 62
7
  6
CONTINUOUS
 10
54.0309205594
 20
-28.6279649691
 11
54.241302564
 21
-28.4812611375
  0
LINE
  5
31C
100
AcDbEntity
  8
DRAFT
100
AcDbLine
 62
7
  6
CONTINUOUS
 10
18.5224112879
 20
52.6546993213
 11
18.8674662582
 21
52.4821718362
  0
LINE
  5
31D
100
AcDbEntity
  8
DRAFT
100
AcDbLine
 62
7
  6
CONTINUOUS
 10
41.5033816765
 20
41.164214127
 11
41.9016200665
 21
40.9650949321
  0
LINE
  5
31E
100
AcDbEntity
  8
DRAFT
100
AcDbLine
 62
7
  6
CONTINUOUS
 10
42.686125141
 20
41.3542152325
 11
42.308791504
 21
41.542882051
  0
LINE
  5
31F
100
AcDbEntity
  8
DRAFT
100
AcDbLine
 62
7
  6
CONTINUOUS
 10
19.6589402913
 20
52.8678076574
 11
19.3278211154
 21
53.0333672453
  0
LINE
  5
320
100
AcDbEntity
  8
DRAFT
100
AcDbLine
 62
7
  6
CONTINUOUS
 10
44.7164567701
 20
42.3612746883
 11
44.3932254994
 21
42.5228903236
  0
LINE
  5
321
100
AcDbEntity
  8
DRAFT
100
AcDbLine
 62
7
  6
CONTINUOUS
 10
21.7073078738
 20
53.8658491365
 11
21.4122551109
 21
54.0133755179
  0
LINE
  5
322
100
AcDbEntity
  8
RACCORDO
100
AcDbLine
 62
7
  6
CONTINUOUS
 10
50.5668924787
 20
41.3499020512
 11
47.8104312467
 21
42.7281326673
  0
LINE
  5
323
100
AcDbEntity
  8
RACCORDO
100
AcDbLine
 62
7
  6
CONTINUOUS
 10
-1.6722284345
 20
67.4694625078
 11
-4.4286896665
 21
68.8476931239
  0
LINE
  5
324
100
AcDbEntity
  8
RACCORDO
100
AcDbLine
 62
253
  6
CONTINUOUS
 10
-1.6348832023
 20
67.4870205771
 11
-0.4621027093
 21
66.9006303306
  0
LINE
  5
325
100
AcDbEntity
  8
RACCORDO
100
AcDbLine
 62
253
  6
CONTINUOUS
 10
0.7016229892
 20
66.3187674813
 11
22.529653724
 21
55.4047521139
  0
LINE
  5
326
100
AcDbEntity
  8
RACCORDO
100
AcDbLine
 62
253
  6
CONTINUOUS
 10
23.6825933778
 20
54.8282822871
 11
45.5106241126
 21
43.9142669197
  0
LINE
  5
327
100
AcDbEntity
  8
RACCORDO
100
AcDbLine
 62
253
  6
CONTINUOUS
 10
46.6743498111
 20
43.3324040704
 11
47.8471303041
 21
42.7460138239
  0
LINE
  5
328
100
AcDbEntity
  8
RACCORDO
100
AcDbLine
 62
7
  6
CONTINUOUS
 10
54.0226238903
 20
34.3937923768
 11
53.9552512144
 21
34.4308604231
  0
LWPOLYLINE
  5
329
100
AcDbEntity
  8
RACCORDO
100
AcDbPolyline
 62
7
  6
CONTINUOUS
 90
8
 70
0
 10
49.9927359145
 20
41.6369803333
 10
49.9713814698
 20
41.7368089987
 10
49.8855488755
 20
41.9871842855
 10
49.7730893158
 20
42.2141525168
 10
49.6358876857
 20
42.414673536
 10
49.4750035703
 20
42.5874392108
 10
49.2926432343
 20
42.7304721369
 10
49.1348012611
 20
42.8213241996
  0
LWPOLYLINE
  5
32A
100
AcDbEntity
  8
RACCORDO
100
AcDbPolyline
 62
7
  6
CONTINUOUS
 90
5
 70
0
 10
54.5701918079
 20
-28.1495939285
 10
54.6866982084
 20
-27.9676985409
 10
54.7696362683
 20
-27.7780188338
 10
54.8185513962
 20
-27.5827812184
 10
54.8333354384
 20
-27.3973717503
  0
LINE
  5
32B
100
AcDbEntity
  8
RACCORDO
100
AcDbLine
 62
253
  6
CONTINUOUS
 10
32.3583954785
 20
-51.3867169669
 11
32.3511651764
 21
-51.3905385689
  0
LINE
  5
32C
100
AcDbEntity
  8
DRAFT
100
AcDbLine
 62
7
  6
CONTINUOUS
 10
31.5543827803
 20
-51.811167598
 11
32.3511147764
 21
-51.3905651758
  0
LWPOLYLINE
  5
32D
100
AcDbEntity
  8
RACCORDO
100
AcDbPolyline
 62
7
  6
CONTINUOUS
 90
6
 70
0
 10
-0.318825335
 20
67.5481486612
 10
-0.3840901647
 20
67.5789670323
 10
-0.5879529441
 20
67.6516297515
 10
-0.8045057735
 20
67.6944417333
 10
-1.0314671243
 20
67.7063277002
 10
-1.2658231221
 20
67.6865291285
  0
LINE
  5
32E
100
AcDbEntity
  8
RACCORDO
100
AcDbLine
 62
7
  6
CONTINUOUS
 10
47.8885494257
 20
43.4418547817
 11
46.7571785758
 21
44.0075402067
  0
LINE
  5
32F
100
AcDbEntity
  8
RACCORDO
100
AcDbLine
 62
7
  6
CONTINUOUS
 10
24.9075790372
 20
54.932339976
 11
23.7762081873
 21
55.498025401
  0
LINE
  5
330
100
AcDbEntity
  8
RACCORDO
100
AcDbLine
 62
7
  6
CONTINUOUS
 10
1.9266086486
 20
66.4228251703
 11
0.7952377987
 21
66.9885105952
  0
LINE
  5
331
100
AcDbEntity
  8
RACCORDO
100
AcDbLine
 62
7
  6
CONTINUOUS
 10
-0.3208412454
 20
67.5493989083
 11
0.7963773151
 21
66.9907896281
  0
LINE
  5
332
100
AcDbEntity
  8
RACCORDO
100
AcDbLine
 62
7
  6
CONTINUOUS
 10
1.927748165
 20
66.4251042031
 11
23.7773477037
 21
55.5003044338
  0
LINE
  5
333
100
AcDbEntity
  8
RACCORDO
100
AcDbLine
 62
7
  6
CONTINUOUS
 10
24.9087185536
 20
54.9346190088
 11
46.7583180923
 21
44.0098192395
  0
LINE
  5
334
100
AcDbEntity
  8
RACCORDO
100
AcDbLine
 62
7
  6
CONTINUOUS
 10
47.8896889421
 20
43.4441338145
 11
49.142326
 21
42.8178152856
  0
LINE
  5
335
100
AcDbEntity
  8
RACCORDO
100
AcDbLine
 62
253
  6
CONTINUOUS
 10
50.7606213749
 20
38.9921170771
 11
51.2340507303
 21
38.1755722243
  0
LINE
  5
336
100
AcDbEntity
  8
RACCORDO
100
AcDbLine
 62
253
  6
CONTINUOUS
 10
51.9378761791
 20
36.9616528911
 11
52.0048872975
 21
36.8460758084
  0
LINE
  5
337
100
AcDbEntity
  8
RACCORDO
100
AcDbLine
 62
7
  6
CONTINUOUS
 10
50.9244826526
 20
39.0871231735
 11
51.397912008
 21
38.2705783208
  0
LINE
  5
338
100
AcDbEntity
  8
RACCORDO
100
AcDbLine
 62
7
  6
CONTINUOUS
 10
52.0990654726
 20
37.0612674786
 11
52.1759022718
 21
36.9287436033
  0
LINE
  5
339
100
AcDbEntity
  8
DRAFT
100
AcDbLine
 62
7
  6
CONTINUOUS
 10
53.9552512144
 20
35.5058476995
 11
52.9213382973
 21
37.2890837007
  0
LINE
  5
33A
100
AcDbEntity
  8
DRAFT
100
AcDbLine
 62
7
  6
CONTINUOUS
 10
51.6008053958
 20
39.56666605
 11
50.5668924787
 21
41.3499020512
  0
LINE
  5
33B
100
AcDbEntity
  8
RACCORDO
100
AcDbLine
 62
253
  6
CONTINUOUS
 10
31.5543827803
 20
-62.6407601755
 11
29.2209304024
 21
-63.8074863645
  0
LWPOLYLINE
  5
33C
100
AcDbEntity
  8
RACCORDO
100
AcDbPolyline
 62
7
  6
CONTINUOUS
 90
3
 70
0
 10
-1.2658231221
 20
67.6865291285
 10
-1.5042545978
 20
67.6348074272
 10
-1.7444985067
 20
67.5513626685
  0
LINE
  5
33D
100
AcDbEntity
  8
ASSI
100
AcDbLine
 62
7
  6
CONTINUOUS
 10
28.9554509235
 20
-68.0494981796
 11
26.6219985455
 21
-69.2162243685
  0
ARC
  5
33E
100
AcDbEntity
  8
0
100
AcDbCircle
 62
7
  6
CONTINUOUS
 10
-24.3005294495
 20
-21.7510223542
 40
15.5350070955
100
AcDbArc
 50
178.8805154464
 51
181.1164946862
  0
ARC
  5
33F
100
AcDbEntity
  8
0
100
AcDbCircle
 62
7
  6
CONTINUOUS
 10
-40.1240533785
 20
-12.9101267598
 40
8.9253069101
100
AcDbArc
 50
264.2225437088
 51
267.0884479274
  0
ARC
  5
340
100
AcDbEntity
  8
0
100
AcDbCircle
 62
7
  6
CONTINUOUS
 10
-33.0879771054
 20
-19.5204325438
 40
8.0518541446
100
AcDbArc
 50
189.3175606024
 51
189.7925119453
  0
ARC
  5
341
100
AcDbEntity
  8
0
100
AcDbCircle
 62
7
  6
CONTINUOUS
 10
-36.1063436282
 20
-14.6803549981
 40
7.92005644
100
AcDbArc
 50
231.6308965808
 51
235.6307820283
  0
ARC
  5
342
100
AcDbEntity
  8
0
100
AcDbCircle
 62
7
  6
CONTINUOUS
 10
-34.51160552
 20
-19.5210039851
 40
7.4912776892
100
AcDbArc
 50
194.7048226947
 51
195.2031810519
  0
ARC
  5
343
100
AcDbEntity
  8
0
100
AcDbCircle
 62
7
  6
CONTINUOUS
 10
-34.8921102193
 20
-22.7190607102
 40
7.2082686168
100
AcDbArc
 50
161.8239130891
 51
162.2573500263
  0
ARC
  5
344
100
AcDbEntity
  8
0
100
AcDbCircle
 62
7
  6
CONTINUOUS
 10
-37.2942755488
 20
-16.6922937526
 40
6.5035411377
100
AcDbArc
 50
222.1073157184
 51
226.6638372672
  0
ARC
  5
345
100
AcDbEntity
  8
0
100
AcDbCircle
 62
7
  6
CONTINUOUS
 10
-35.5286387945
 20
-23.0579204604
 40
5.6382712086
100
AcDbArc
 50
167.0052115978
 51
167.5157734866
  0
ARC
  5
346
100
AcDbEntity
  8
0
100
AcDbCircle
 62
7
  6
CONTINUOUS
 10
-37.4519806575
 20
-20.3776481751
 40
5.135726678
100
AcDbArc
 50
176.6149940728
 51
183.3820652921
  0
ARC
  5
347
100
AcDbEntity
  8
0
100
AcDbCircle
 62
7
  6
CONTINUOUS
 10
-40.9225256833
 20
-19.2852727612
 40
1.5781325554
100
AcDbArc
 50
151.9172504939
 51
152.370357247
  0
ARC
  5
348
100
AcDbEntity
  8
0
100
AcDbCircle
 62
7
  6
CONTINUOUS
 10
-39.6183568679
 20
-21.9581385948
 40
1.524477353
100
AcDbArc
 50
260.7480462131
 51
265.6008359283
  0
ARC
  5
349
100
AcDbEntity
  8
0
100
AcDbCircle
 62
7
  6
CONTINUOUS
 10
-41.0068737315
 20
-19.2385177206
 40
1.4817059614
100
AcDbArc
 50
145.599767279
 51
151.9769542214
  0
ARC
  5
34A
100
AcDbEntity
  8
0
100
AcDbCircle
 62
7
  6
CONTINUOUS
 10
-39.6268013936
 20
-22.0560832143
 40
1.4261738463
100
AcDbArc
 50
265.6372683815
 51
267.4109906336
  0
ARC
  5
34B
100
AcDbEntity
  8
0
100
AcDbCircle
 62
7
  6
CONTINUOUS
 10
-41.7555235336
 20
-19.440526076
 40
1.0519489702
100
AcDbArc
 50
104.9023438519
 51
116.4820452494
  0
ARC
  5
34C
100
AcDbEntity
  8
DRAFT
100
AcDbCircle
 62
7
  6
CONTINUOUS
 10
1.5134354612
 20
11.4188345363
 40
33.5185133181
100
AcDbArc
 50
28.4405256697
 51
28.9786876193
  0
ARC
  5
34D
100
AcDbEntity
  8
DRAFT
100
AcDbCircle
 62
7
  6
CONTINUOUS
 10
1.8476383449
 20
11.5798911025
 40
33.1479467854
100
AcDbArc
 50
18.4572855149
 51
28.4708500923
  0
ARC
  5
34E
100
AcDbEntity
  8
RACCORDO
100
AcDbCircle
 62
7
  6
CONTINUOUS
 10
-28.9547829673
 20
46.9554911703
 40
17.7150710468
100
AcDbArc
 50
63.4315130269
 51
64.6829585517
  0
ARC
  5
34F
100
AcDbEntity
  8
0
100
AcDbCircle
 62
7
  6
CONTINUOUS
 10
-24.3005294495
 20
45.798959141
 40
15.5350070955
100
AcDbArc
 50
178.8805154464
 51
181.1164946862
  0
ARC
  5
350
100
AcDbEntity
  8
DRAFT
100
AcDbCircle
 62
7
  6
CONTINUOUS
 10
-29.5571853822
 20
54.2799426976
 40
8.9989345899
100
AcDbArc
 50
97.4754241539
 51
101.6736886651
  0
ARC
  5
351
100
AcDbEntity
  8
0
100
AcDbCircle
 62
7
  6
CONTINUOUS
 10
-40.1240533782
 20
54.6398547354
 40
8.9253069101
100
AcDbArc
 50
264.2225437072
 51
267.0884479259
  0
ARC
  5
352
100
AcDbEntity
  8
DRAFT
100
AcDbCircle
 62
7
  6
CONTINUOUS
 10
-29.6624707905
 20
54.7685263431
 40
8.4991547566
100
AcDbArc
 50
101.6450458329
 51
108.3012553607
  0
ARC
  5
353
100
AcDbEntity
  8
0
100
AcDbCircle
 62
7
  6
CONTINUOUS
 10
-33.0879771054
 20
48.0295489514
 40
8.0518541447
100
AcDbArc
 50
189.3175606024
 51
189.7925119453
  0
ARC
  5
354
100
AcDbEntity
  8
0
100
AcDbCircle
 62
7
  6
CONTINUOUS
 10
-36.1063436282
 20
52.8696264971
 40
7.92005644
100
AcDbArc
 50
231.6308965808
 51
235.6307820283
  0
ARC
  5
355
100
AcDbEntity
  8
0
100
AcDbCircle
 62
7
  6
CONTINUOUS
 10
-34.51160552
 20
48.0289775101
 40
7.4912776891
100
AcDbArc
 50
194.7048226947
 51
195.2031810519
  0
ARC
  5
356
100
AcDbEntity
  8
0
100
AcDbCircle
 62
7
  6
CONTINUOUS
 10
-34.8921102192
 20
44.830920785
 40
7.2082686169
100
AcDbArc
 50
161.8239130891
 51
162.2573500263
  0
ARC
  5
357
100
AcDbEntity
  8
0
100
AcDbCircle
 62
7
  6
CONTINUOUS
 10
-37.2942755488
 20
50.8576877426
 40
6.5035411377
100
AcDbArc
 50
222.1073157185
 51
226.6638372672
  0
ARC
  5
358
100
AcDbEntity
  8
0
100
AcDbCircle
 62
7
  6
CONTINUOUS
 10
-35.5286387946
 20
44.4920610348
 40
5.6382712086
100
AcDbArc
 50
167.0052115978
 51
167.5157734866
  0
ARC
  5
359
100
AcDbEntity
  8
0
100
AcDbCircle
 62
7
  6
CONTINUOUS
 10
-37.4519806575
 20
47.1723333201
 40
5.135726678
100
AcDbArc
 50
176.6149940728
 51
183.3820652921
  0
ARC
  5
35A
100
AcDbEntity
  8
0
100
AcDbCircle
 62
7
  6
CONTINUOUS
 10
-40.9225256835
 20
48.2647087341
 40
1.5781325552
100
AcDbArc
 50
151.9172504938
 51
152.370357247
  0
ARC
  5
35B
100
AcDbEntity
  8
0
100
AcDbCircle
 62
7
  6
CONTINUOUS
 10
-39.6183568679
 20
45.5918429004
 40
1.524477353
100
AcDbArc
 50
260.748046213
 51
265.6008359283
  0
ARC
  5
35C
100
AcDbEntity
  8
0
100
AcDbCircle
 62
7
  6
CONTINUOUS
 10
-41.0068737315
 20
48.3114637745
 40
1.4817059614
100
AcDbArc
 50
145.599767279
 51
151.9769542214
  0
ARC
  5
35D
100
AcDbEntity
  8
0
100
AcDbCircle
 62
7
  6
CONTINUOUS
 10
-39.6268013936
 20
45.4938982808
 40
1.4261738463
100
AcDbArc
 50
265.6372683815
 51
267.4109906336
  0
ARC
  5
35E
100
AcDbEntity
  8
RACCORDO
100
AcDbCircle
 62
253
  6
CONTINUOUS
 10
-0.8258543705
 20
66.551112665
 40
1.1184533858
100
AcDbArc
 50
63.1625095288
 51
64.1225871512
  0
ARC
  5
35F
100
AcDbEntity
  8
RACCORDO
100
AcDbCircle
 62
253
  6
CONTINUOUS
 10
-0.8164006864
 20
66.5709130739
 40
1.096512341
100
AcDbArc
 50
64.1154771561
 51
67.2398000939
  0
ARC
  5
360
100
AcDbEntity
  8
RACCORDO
100
AcDbCircle
 62
253
  6
CONTINUOUS
 10
-0.8099569723
 20
66.585858177
 40
1.0802380806
100
AcDbArc
 50
67.2482900439
 51
68.2377656866
  0
ARC
  5
361
100
AcDbEntity
  8
0
100
AcDbCircle
 62
7
  6
CONTINUOUS
 10
-41.7555235336
 20
48.1094554192
 40
1.0519489702
100
AcDbArc
 50
104.9023438519
 51
116.4820452494
  0
ARC
  5
362
100
AcDbEntity
  8
RACCORDO
100
AcDbCircle
 62
253
  6
CONTINUOUS
 10
-1.802920284
 20
67.1568608874
 40
0.3704617699
100
AcDbArc
 50
63.025856599
 51
67.387405851
  0
ARC
  5
363
100
AcDbEntity
  8
RACCORDO
100
AcDbCircle
 62
7
  6
CONTINUOUS
 10
15.0456273489
 20
-39.2563375367
 40
23.1284741975
100
AcDbArc
 50
359.1196799686
 51
0.0019247762
  0
ARC
  5
364
100
AcDbEntity
  8
0
100
AcDbCircle
 62
7
  6
CONTINUOUS
 10
30.853799483
 20
-49.3281868205
 40
15.5350070955
100
AcDbArc
 50
178.8805154464
 51
181.1164946862
  0
ARC
  5
365
100
AcDbEntity
  8
0
100
AcDbCircle
 62
7
  6
CONTINUOUS
 10
15.0302755548
 20
-40.4872912261
 40
8.9253069102
100
AcDbArc
 50
264.2225437041
 51
267.0884479228
  0
ARC
  5
366
100
AcDbEntity
  8
DRAFT
100
AcDbCircle
 62
7
  6
CONTINUOUS
 10
26.0405294573
 20
-44.737029946
 40
8.8375486877
100
AcDbArc
 50
308.6142189143
 51
316.6610971327
  0
ARC
  5
367
100
AcDbEntity
  8
0
100
AcDbCircle
 62
7
  6
CONTINUOUS
 10
22.0663518275
 20
-47.09759701
 40
8.051854145
100
AcDbArc
 50
189.3175606024
 51
189.7925119453
  0
ARC
  5
368
100
AcDbEntity
  8
0
100
AcDbCircle
 62
7
  6
CONTINUOUS
 10
19.0479853044
 20
-42.2575194644
 40
7.92005644
100
AcDbArc
 50
231.6308965808
 51
235.6307820283
  0
ARC
  5
369
100
AcDbEntity
  8
0
100
AcDbCircle
 62
7
  6
CONTINUOUS
 10
20.6427234128
 20
-47.0981684513
 40
7.4912776895
100
AcDbArc
 50
194.7048226947
 51
195.2031810519
  0
ARC
  5
36A
100
AcDbEntity
  8
0
100
AcDbCircle
 62
7
  6
CONTINUOUS
 10
20.2622187128
 20
-50.2962251763
 40
7.2082686163
100
AcDbArc
 50
161.8239130891
 51
162.2573500263
  0
ARC
  5
36B
100
AcDbEntity
  8
0
100
AcDbCircle
 62
7
  6
CONTINUOUS
 10
17.8600533838
 20
-44.2694582189
 40
6.5035411377
100
AcDbArc
 50
222.1073157184
 51
226.6638372672
  0
ARC
  5
36C
100
AcDbEntity
  8
0
100
AcDbCircle
 62
7
  6
CONTINUOUS
 10
19.6256901379
 20
-50.6350849266
 40
5.6382712085
100
AcDbArc
 50
167.0052115978
 51
167.5157734866
  0
ARC
  5
36D
100
AcDbEntity
  8
0
100
AcDbCircle
 62
7
  6
CONTINUOUS
 10
17.7023482751
 20
-47.9548126414
 40
5.135726678
100
AcDbArc
 50
176.6149940728
 51
183.3820652921
  0
ARC
  5
36E
100
AcDbEntity
  8
0
100
AcDbCircle
 62
7
  6
CONTINUOUS
 10
14.2318032494
 20
-46.8624372276
 40
1.5781325557
100
AcDbArc
 50
151.9172504939
 51
152.370357247
  0
ARC
  5
36F
100
AcDbEntity
  8
0
100
AcDbCircle
 62
7
  6
CONTINUOUS
 10
15.5359720646
 20
-49.5353030611
 40
1.524477353
100
AcDbArc
 50
260.748046213
 51
265.6008359283
  0
ARC
  5
370
100
AcDbEntity
  8
0
100
AcDbCircle
 62
7
  6
CONTINUOUS
 10
14.147455201
 20
-46.8156821869
 40
1.4817059614
100
AcDbArc
 50
145.599767279
 51
151.9769542214
  0
ARC
  5
371
100
AcDbEntity
  8
0
100
AcDbCircle
 62
7
  6
CONTINUOUS
 10
15.527527539
 20
-49.6332476806
 40
1.4261738463
100
AcDbArc
 50
265.6372683815
 51
267.4109906336
  0
ARC
  5
372
100
AcDbEntity
  8
0
100
AcDbCircle
 62
7
  6
CONTINUOUS
 10
13.3988053989
 20
-47.0176905423
 40
1.0519489702
100
AcDbArc
 50
104.9023438519
 51
116.4820452494
  0
ARC
  5
373
100
AcDbEntity
  8
RACCORDO
100
AcDbCircle
 62
253
  6
CONTINUOUS
 10
53.9916694186
 20
-27.4012326795
 40
0.8393474523
100
AcDbArc
 50
353.8740922165
 51
0.1172899341
  0
ARC
  5
374
100
AcDbEntity
  8
RACCORDO
100
AcDbCircle
 62
253
  6
CONTINUOUS
 10
14.2058479571
 20
14.0901921605
 40
23.6875933817
100
AcDbArc
 50
0.0011927701
 51
0.8204620108
  0
ARC
  5
375
100
AcDbEntity
  8
DRAFT
100
AcDbCircle
 62
7
  6
CONTINUOUS
 10
27.5462079052
 20
22.4341357078
 40
22.6665543161
100
AcDbArc
 50
13.4064407331
 51
15.3545742231
  0
ARC
  5
376
100
AcDbEntity
  8
DRAFT
100
AcDbCircle
 62
7
  6
CONTINUOUS
 10
29.7182753852
 20
23.39759555
 40
19.0537660371
100
AcDbArc
 50
11.0978418306
 51
13.5421794803
  0
ARC
  5
377
100
AcDbEntity
  8
RACCORDO
100
AcDbCircle
 62
253
  6
CONTINUOUS
 10
14.2797937933
 20
24.6699055901
 40
18.0983307857
100
AcDbArc
 50
62.2579178265
 51
63.4323934218
  0
ARC
  5
378
100
AcDbEntity
  8
DRAFT
100
AcDbCircle
 62
7
  6
CONTINUOUS
 10
30.7770778473
 20
23.8616709062
 40
17.2777754667
100
AcDbArc
 50
9.6106587114
 51
12.383552429
  0
ARC
  5
379
100
AcDbEntity
  8
DRAFT
100
AcDbCircle
 62
7
  6
CONTINUOUS
 10
31.7102617328
 20
27.8319708389
 40
16.1187033847
100
AcDbArc
 50
53.061251354
 51
54.5329484235
  0
ARC
  5
37A
100
AcDbEntity
  8
0
100
AcDbCircle
 62
7
  6
CONTINUOUS
 10
30.853799483
 20
18.2217946747
 40
15.5350070955
100
AcDbArc
 50
178.8805154464
 51
181.1164946862
  0
ARC
  5
37B
100
AcDbEntity
  8
DRAFT
100
AcDbCircle
 62
7
  6
CONTINUOUS
 10
32.9383276364
 20
24.7691130688
 40
13.6866701592
100
AcDbArc
 50
7.5094261304
 51
9.2489618879
  0
ARC
  5
37C
100
AcDbEntity
  8
DRAFT
100
AcDbCircle
 62
7
  6
CONTINUOUS
 10
46.3984652614
 20
31.231107712
 40
13.219409865
100
AcDbArc
 50
225.4239745459
 51
228.3433536551
  0
ARC
  5
37D
100
AcDbEntity
  8
DRAFT
100
AcDbCircle
 62
7
  6
CONTINUOUS
 10
33.558464232
 20
24.8503290052
 40
13.0612381998
100
AcDbArc
 50
5.4243159196
 51
7.5117328338
  0
ARC
  5
37E
100
AcDbEntity
  8
DRAFT
100
AcDbCircle
 62
7
  6
CONTINUOUS
 10
33.7889363738
 20
29.6364636419
 40
12.0088175057
100
AcDbArc
 50
59.4140947345
 51
60.3952150257
  0
ARC
  5
37F
100
AcDbEntity
  8
DRAFT
100
AcDbCircle
 62
7
  6
CONTINUOUS
 10
42.0677861344
 20
34.0281184552
 40
11.8330186638
100
AcDbArc
 50
170.6979138109
 51
174.2775951905
  0
ARC
  5
380
100
AcDbEntity
  8
DRAFT
100
AcDbCircle
 62
7
  6
CONTINUOUS
 10
34.3671835048
 20
25.2440641287
 40
11.5434011034
100
AcDbArc
 50
3.7122609203
 51
7.0435379414
  0
ARC
  5
381
100
AcDbEntity
  8
DRAFT
100
AcDbCircle
 62
7
  6
CONTINUOUS
 10
35.1194701447
 20
25.5883011848
 40
11.2565655324
100
AcDbArc
 50
3.2462569431
 51
6.6701780431
  0
ARC
  5
382
100
AcDbEntity
  8
DRAFT
100
AcDbCircle
 62
7
  6
CONTINUOUS
 10
40.7883964939
 20
33.693270766
 40
11.1298890322
100
AcDbArc
 50
169.7040449206
 51
171.4198313747
  0
ARC
  5
383
100
AcDbEntity
  8
DRAFT
100
AcDbCircle
 62
7
  6
CONTINUOUS
 10
44.4084165263
 20
29.9966812828
 40
10.9098978175
100
AcDbArc
 50
227.9207504358
 51
232.0188892928
  0
ARC
  5
384
100
AcDbEntity
  8
DRAFT
100
AcDbCircle
 62
7
  6
CONTINUOUS
 10
39.6617552824
 20
33.5232804837
 40
9.2770134583
100
AcDbArc
 50
163.7936055136
 51
168.6759879996
  0
ARC
  5
385
100
AcDbEntity
  8
0
100
AcDbCircle
 62
7
  6
CONTINUOUS
 10
15.0302755542
 20
27.0626902691
 40
8.9253069101
100
AcDbArc
 50
264.2225437082
 51
267.0884479269
  0
ARC
  5
386
100
AcDbEntity
  8
0
100
AcDbCircle
 62
7
  6
CONTINUOUS
 10
22.0663518275
 20
20.4523844852
 40
8.051854145
100
AcDbArc
 50
189.3175606024
 51
189.7925119453
  0
ARC
  5
387
100
AcDbEntity
  8
0
100
AcDbCircle
 62
7
  6
CONTINUOUS
 10
19.0479853044
 20
25.2924620308
 40
7.92005644
100
AcDbArc
 50
231.6308965808
 51
235.6307820283
  0
ARC
  5
388
100
AcDbEntity
  8
0
100
AcDbCircle
 62
7
  6
CONTINUOUS
 10
20.6427234128
 20
20.4518130439
 40
7.4912776895
100
AcDbArc
 50
194.7048226947
 51
195.2031810519
  0
ARC
  5
389
100
AcDbEntity
  8
0
100
AcDbCircle
 62
7
  6
CONTINUOUS
 10
20.2622187129
 20
17.2537563189
 40
7.2082686164
100
AcDbArc
 50
161.8239130891
 51
162.2573500263
  0
ARC
  5
38A
100
AcDbEntity
  8
0
100
AcDbCircle
 62
7
  6
CONTINUOUS
 10
17.8600533838
 20
23.2805232763
 40
6.5035411377
100
AcDbArc
 50
222.1073157185
 51
226.6638372672
  0
ARC
  5
38B
100
AcDbEntity
  8
0
100
AcDbCircle
 62
7
  6
CONTINUOUS
 10
19.6256901379
 20
16.9148965686
 40
5.6382712085
100
AcDbArc
 50
167.0052115978
 51
167.5157734866
  0
ARC
  5
38C
100
AcDbEntity
  8
0
100
AcDbCircle
 62
7
  6
CONTINUOUS
 10
17.7023482751
 20
19.5951688538
 40
5.135726678
100
AcDbArc
 50
176.6149940728
 51
183.3820652921
  0
ARC
  5
38D
100
AcDbEntity
  8
DRAFT
100
AcDbCircle
 62
7
  6
CONTINUOUS
 10
37.4754315687
 20
34.4080827314
 40
4.8165985992
100
AcDbArc
 50
138.801340326
 51
142.7179739313
  0
ARC
  5
38E
100
AcDbEntity
  8
0
100
AcDbCircle
 62
7
  6
CONTINUOUS
 10
14.2318032497
 20
20.6875442675
 40
1.5781325559
100
AcDbArc
 50
151.917250494
 51
152.370357247
  0
ARC
  5
38F
100
AcDbEntity
  8
0
100
AcDbCircle
 62
7
  6
CONTINUOUS
 10
15.5359720646
 20
18.0146784341
 40
1.524477353
100
AcDbArc
 50
260.7480462131
 51
265.6008359283
  0
ARC
  5
390
100
AcDbEntity
  8
0
100
AcDbCircle
 62
7
  6
CONTINUOUS
 10
14.147455201
 20
20.7342993083
 40
1.4817059614
100
AcDbArc
 50
145.599767279
 51
151.9769542214
  0
ARC
  5
391
100
AcDbEntity
  8
0
100
AcDbCircle
 62
7
  6
CONTINUOUS
 10
15.527527539
 20
17.9167338146
 40
1.4261738463
100
AcDbArc
 50
265.6372683815
 51
267.4109906336
  0
ARC
  5
392
100
AcDbEntity
  8
0
100
AcDbCircle
 62
7
  6
CONTINUOUS
 10
13.3988053989
 20
20.5322909529
 40
1.0519489702
100
AcDbArc
 50
104.9023438519
 51
116.4820452494
  0
ARC
  5
393
100
AcDbEntity
  8
RACCORDO
100
AcDbCircle
 62
7
  6
CONTINUOUS
 10
51.8082010147
 20
37.5179870084
 40
0.5563291561
100
AcDbArc
 50
297.2185948217
 51
302.4374605949
  0
SPLINE
  5
394
100
AcDbEntity
  8
0
100
AcDbSpline
 62
7
  6
CONTINUOUS
 70
0
 71
3
 72
9
 73
5
 74
3
 42
0.0000001
 43
0.0000001
 44
0.0000000001
 12
-0.3146349819
 22
0.1676527526
 32
0.0
 13
-0.2882787499
 23
0.2094216566
 33
0.0
 40
0.0
 40
0.0
 40
0.0
 40
0.0
 40
0.2130096085
 40
1.0
 40
1.0
 40
1.0
 40
1.0
 10
-40.7639394347
 20
-23.1719165353
 30
0.0
 10
-40.7862795261
 20
-23.1600126529
 30
0.0
 10
-40.8902403666
 20
-23.1023983764
 30
0.0
 10
-40.9898594454
 20
-23.0372332646
 30
0.0
 10
-41.0654836475
 20
-22.9822956541
 30
0.0
 11
-40.7639394347
 21
-23.1719165353
 31
0.0
 11
-40.8303718428
 21
-23.1351252592
 31
0.0
 11
-41.0654836475
 21
-22.9822956541
 31
0.0
  0
SPLINE
  5
395
100
AcDbEntity
  8
0
100
AcDbSpline
 62
7
  6
CONTINUOUS
 70
0
 71
3
 72
15
 73
11
 74
9
 42
0.0000001
 43
0.0000001
 44
0.0000000001
 12
-2.939478045
 22
2.135399719
 32
0.0
 13
0.0
 23
3.6332441615
 33
0.0
 40
0.0
 40
0.0
 40
0.0
 40
0.0
 40
0.1166507875
 40
0.2400441641
 40
0.3682594671
 40
0.499036013
 40
0.6299439153
 40
0.7585448031
 40
0.8825520476
 40
1.0
 40
1.0
 40
1.0
 40
1.0
 10
-41.34832636
 20
-23.1237170104
 30
0.0
 10
-41.4626238363
 20
-23.0406849907
 30
0.0
 10
-41.6853960366
 20
-22.8522817766
 30
0.0
 10
-41.9879454566
 20
-22.5232825799
 30
0.0
 10
-42.2612027602
 20
-22.1482054802
 30
0.0
 10
-42.4970866882
 20
-21.7381251518
 30
0.0
 10
-42.6887045786
 20
-21.3050783926
 30
0.0
 10
-42.8304139909
 20
-20.8617551212
 30
0.0
 10
-42.9180391678
 20
-20.4212594462
 30
0.0
 10
-42.9393166177
 20
-20.1285866612
 30
0.0
 10
-42.9393166177
 20
-19.9863476321
 30
0.0
 11
-41.34832636
 21
-23.1237170104
 31
0.0
 11
-41.6731025102
 21
-22.851422103
 31
0.0
 11
-41.9775117219
 21
-22.5222955337
 31
0.0
 11
-42.2524140663
 21
-22.1462193733
 31
0.0
 11
-42.4895555623
 21
-21.7344853607
 31
0.0
 11
-42.6818160037
 21
-21.2994558667
 31
0.0
 11
-42.823422744
 21
-20.8541927123
 31
0.0
 11
-42.9101240213
 21
-20.4120649853
 31
0.0
 11
-42.9393166177
 21
-19.9863476321
 31
0.0
  0
SPLINE
  5
396
100
AcDbEntity
  8
0
100
AcDbSpline
 62
7
  6
CONTINUOUS
 70
0
 71
3
 72
13
 73
9
 74
7
 42
0.0000001
 43
0.0000001
 44
0.0000000001
 12
0.0
 22
1.733890101
 32
0.0
 13
1.5560297276
 23
0.7770044582
 33
0.0
 40
0.0
 40
0.0
 40
0.0
 40
0.0
 40
0.2293097471
 40
0.4403083728
 40
0.6335453992
 40
0.8121488115
 40
0.9819867274
 40
1.0
 40
1.0
 40
1.0
 40
1.0
 10
-42.9393166177
 20
-19.9863476321
 30
0.0
 10
-42.9393166177
 20
-19.8538149986
 30
0.0
 10
-42.9220742218
 20
-19.5987854311
 30
0.0
 10
-42.8376723044
 20
-19.240549836
 30
0.0
 10
-42.6971383667
 20
-18.9315710067
 30
0.0
 10
-42.5029117783
 20
-18.6817756639
 30
0.0
 10
-42.3306321078
 20
-18.5537641867
 30
0.0
 10
-42.2339488892
 20
-18.503619218
 30
0.0
 10
-42.2246058266
 20
-18.4989537536
 30
0.0
 11
-42.9393166177
 21
-19.9863476321
 31
0.0
 11
-42.9101240213
 21
-19.5898228753
 31
0.0
 11
-42.823422744
 21
-19.2343964256
 31
0.0
 11
-42.6818160037
 21
-18.9307400115
 31
0.0
 11
-42.4895555623
 21
-18.6879709589
 31
0.0
 11
-42.2524140663
 21
-18.5133784424
 31
0.0
 11
-42.2246058266
 21
-18.4989537536
 31
0.0
  0
SPLINE
  5
397
100
AcDbEntity
  8
0
100
AcDbSpline
 62
7
  6
CONTINUOUS
 70
0
 71
3
 72
11
 73
7
 74
5
 42
0.0000001
 43
0.0000001
 44
0.0000000001
 12
0.3585770888
 22
-0.0893745271
 32
0.0
 13
0.3641339119
 23
-0.0630224474
 33
0.0
 40
0.0
 40
0.0
 40
0.0
 40
0.0
 40
0.2843614962
 40
0.5413138567
 40
0.7772617616
 40
1.0
 40
1.0
 40
1.0
 40
1.0
 10
-42.1191775141
 20
-20.4468286047
 30
0.0
 10
-42.0851890082
 20
-20.4553001628
 30
0.0
 10
-42.0202912553
 20
-20.4706465641
 30
0.0
 10
-41.926670075
 20
-20.4907264545
 30
0.0
 10
-41.8401602389
 20
-20.5076934013
 30
0.0
 10
-41.7845523371
 20
-20.5177184726
 30
0.0
 10
-41.7575168218
 20
-20.5223976422
 30
0.0
 11
-42.1191775141
 21
-20.4468286047
 31
0.0
 11
-42.0169214386
 21
-20.4710477596
 31
0.0
 11
-41.924081843
 21
-20.4909843979
 31
0.0
 11
-41.8385211311
 21
-20.5077817142
 31
0.0
 11
-41.7575168218
 21
-20.5223976422
 31
0.0
  0
SPLINE
  5
398
100
AcDbEntity
  8
0
100
AcDbSpline
 62
7
  6
CONTINUOUS
 70
0
 71
3
 72
12
 73
8
 74
6
 42
0.0000001
 43
0.0000001
 44
0.0000000001
 12
-0.4846905088
 22
0.3399843163
 32
0.0
 13
-0.4301881365
 23
0.4067583948
 33
0.0
 40
0.0
 40
0.0
 40
0.0
 40
0.0
 40
0.2112889118
 40
0.4160796887
 40
0.6146197839
 40
0.8089140402
 40
1.0
 40
1.0
 40
1.0
 40
1.0
 10
-42.1191775141
 20
-20.4468286047
 30
0.0
 10
-42.1533140908
 20
-20.4228836326
 30
0.0
 10
-42.2199139923
 20
-20.3748329284
 30
0.0
 10
-42.316283479
 20
-20.3011527953
 30
0.0
 10
-42.407909554
 20
-20.2268666317
 30
0.0
 10
-42.4952597903
 20
-20.1516813462
 30
0.0
 10
-42.5513669768
 20
-20.100315867
 30
0.0
 10
-42.5787679478
 20
-20.0744072609
 30
0.0
 11
-42.1191775141
 21
-20.4468286047
 31
0.0
 11
-42.220603269
 21
-20.3736109549
 31
0.0
 11
-42.3169018731
 21
-20.2999435479
 31
0.0
 11
-42.4081868121
 21
-20.2258916134
 31
0.0
 11
-42.4953475556
 21
-20.1508249283
 31
0.0
 11
-42.5787679478
 21
-20.0744072609
 31
0.0
  0
SPLINE
  5
399
100
AcDbEntity
  8
0
100
AcDbSpline
 62
7
  6
CONTINUOUS
 70
0
 71
3
 72
18
 73
14
 74
12
 42
0.0000001
 43
0.0000001
 44
0.0000000001
 12
0.1278471796
 22
-1.688061552
 32
0.0
 13
0.6956974518
 23
-1.543341103
 33
0.0
 40
0.0
 40
0.0
 40
0.0
 40
0.0
 40
0.0994487293
 40
0.1982410428
 40
0.2951515135
 40
0.389225246
 40
0.480723723
 40
0.5709101839
 40
0.6599274556
 40
0.7471425123
 40
0.8326363975
 40
0.9167966359
 40
1.0
 40
1.0
 40
1.0
 40
1.0
 10
-41.0335962141
 20
-21.8390906813
 30
0.0
 10
-41.0293581343
 20
-21.8950492067
 30
0.0
 10
-41.0194012511
 20
-22.0064891545
 30
0.0
 10
-40.9999191489
 20
-22.1719213371
 30
0.0
 10
-40.9760909791
 20
-22.3337204383
 30
0.0
 10
-40.9482069793
 20
-22.4906911746
 30
0.0
 10
-40.9163927449
 20
-22.6430388591
 30
0.0
 10
-40.880572744
 20
-22.7915622351
 30
0.0
 10
-40.8406921042
 20
-22.9365431342
 30
0.0
 10
-40.7968741897
 20
-23.0776133148
 30
0.0
 10
-40.7492441489
 20
-23.2145453487
 30
0.0
 10
-40.6977317197
 20
-23.3476391934
 30
0.0
 10
-40.6605143683
 20
-23.4344666771
 30
0.0
 10
-40.6412195788
 20
-23.477270401
 30
0.0
 11
-41.0335962141
 21
-21.8390906813
 31
0.0
 11
-41.0185809844
 21
-22.0067761126
 31
0.0
 11
-40.9989859068
 21
-22.1728693363
 31
0.0
 11
-40.975047263
 21
-22.3351727853
 31
0.0
 11
-40.9471582958
 21
-22.491968865
 31
0.0
 11
-40.9154602046
 21
-22.6435882436
 31
0.0
 11
-40.8796296989
 21
-22.792000594
 31
0.0
 11
-40.8396252387
 21
-22.9372907265
 31
0.0
 11
-40.7957929939
 21
-23.0782803734
 31
0.0
 11
-40.7482086148
 21
-23.2149666993
 31
0.0
 11
-40.6967473746
 21
-23.3478227552
 31
0.0
 11
-40.6412195788
 21
-23.477270401
 31
0.0
  0
SPLINE
  5
39A
100
AcDbEntity
  8
0
100
AcDbSpline
 62
7
  6
CONTINUOUS
 70
0
 71
3
 72
12
 73
8
 74
6
 42
0.0000001
 43
0.0000001
 44
0.0000000001
 12
-0.7538005872
 22
0.1993050875
 32
0.0
 13
-0.7344507813
 23
0.2617630475
 33
0.0
 40
0.0
 40
0.0
 40
0.0
 40
0.0
 40
0.2031922224
 40
0.4037019467
 40
0.6024734814
 40
0.8012652599
 40
1.0
 40
1.0
 40
1.0
 40
1.0
 10
-39.8325663613
 20
-21.4475080541
 30
0.0
 10
-39.8836218335
 20
-21.4340089729
 30
0.0
 10
-39.984849997
 20
-21.4063915644
 30
0.0
 10
-40.1352362403
 20
-21.362751628
 30
0.0
 10
-40.2837933075
 20
-21.3169842858
 30
0.0
 10
-40.4311166716
 20
-21.2688550326
 30
0.0
 10
-40.5287554206
 20
-21.2350533077
 30
0.0
 10
-40.577409049
 20
-21.2177128373
 30
0.0
 11
-39.8325663613
 21
-21.4475080541
 31
0.0
 11
-39.9854065505
 21
-21.4057964913
 31
0.0
 11
-40.1355470875
 21
-21.3622138902
 31
0.0
 11
-40.2836561472
 21
-21.3165695544
 31
0.0
 11
-40.4309868564
 21
-21.2684213053
 31
0.0
 11
-40.577409049
 21
-21.2177128373
 31
0.0
  0
SPLINE
  5
39B
100
AcDbEntity
  8
0
100
AcDbSpline
 62
7
  6
CONTINUOUS
 70
0
 71
3
 72
17
 73
13
 74
11
 42
0.0000001
 43
0.0000001
 44
0.0000000001
 12
-0.4446982604
 22
-1.6445147598
 32
0.0
 13
-0.1196409239
 23
-1.6993491691
 33
0.0
 40
0.0
 40
0.0
 40
0.0
 40
0.0
 40
0.0090529507
 40
0.1207745843
 40
0.2322793774
 40
0.3435569181
 40
0.4537381009
 40
0.5629470783
 40
0.67258589
 40
0.7828027636
 40
0.8923984533
 40
1.0
 40
1.0
 40
1.0
 40
1.0
 10
-40.7441986466
 20
-19.1479390595
 30
0.0
 10
-40.7455405904
 20
-19.1529016298
 30
0.0
 10
-40.7633911161
 20
-19.2191209579
 30
0.0
 10
-40.796379766
 20
-19.3468382387
 30
0.0
 10
-40.8402271142
 20
-19.5316698497
 30
0.0
 10
-40.8801443397
 20
-19.716495581
 30
0.0
 10
-40.9160062767
 20
-19.9008230686
 30
0.0
 10
-40.9478589007
 20
-20.08494158
 30
0.0
 10
-40.9757795329
 20
-20.2697185498
 30
0.0
 10
-40.9996513125
 20
-20.4552848549
 30
0.0
 10
-41.0191861747
 20
-20.6401940729
 30
0.0
 10
-41.0293050313
 20
-20.7631273908
 30
0.0
 10
-41.0335962141
 20
-20.8240782571
 30
0.0
 11
-40.7441986466
 21
-19.1479390595
 31
0.0
 11
-40.7482127274
 21
-19.1628299442
 31
0.0
 11
-40.7957988659
 21
-19.3471090486
 31
0.0
 11
-40.8396320056
 21
-19.5319371035
 31
0.0
 11
-40.8796365882
 21
-19.7172354042
 31
0.0
 11
-40.915467335
 21
-19.9014834979
 31
0.0
 11
-40.9471655299
 21
-20.084806794
 31
0.0
 11
-40.9750530981
 21
-20.2694889149
 31
0.0
 11
-40.998989212
 21
-20.4557175199
 31
0.0
 11
-41.0185820518
 21
-20.6413889685
 31
0.0
 11
-41.0335962141
 21
-20.8240782571
 31
0.0
  0
SPLINE
  5
39C
100
AcDbEntity
  8
0
100
AcDbSpline
 62
7
  6
CONTINUOUS
 70
0
 71
3
 72
10
 73
6
 74
4
 42
0.0000001
 43
0.0000001
 44
0.0000000001
 12
-0.80417572
 22
-0.4015656697
 32
0.0
 13
-0.8643416125
 23
0.2364359748
 33
0.0
 40
0.0
 40
0.0
 40
0.0
 40
0.0
 40
0.2920401134
 40
0.6328640805
 40
1.0
 40
1.0
 40
1.0
 40
1.0
 10
-39.7649401122
 20
-23.4182851589
 30
0.0
 10
-39.8432239684
 20
-23.4573762535
 30
0.0
 10
-40.0238215958
 20
-23.5203334881
 30
0.0
 10
-40.3250211602
 20
-23.5422987786
 30
0.0
 10
-40.5354426279
 20
-23.506205114
 30
0.0
 10
-40.6412195788
 20
-23.477270401
 30
0.0
 11
-39.7649401122
 21
-23.4182851589
 31
0.0
 11
-40.0120342169
 21
-23.5050342861
 31
0.0
 11
-40.3164434286
 21
-23.5297516438
 31
0.0
 11
-40.6412195788
 21
-23.477270401
 31
0.0
  0
SPLINE
  5
39D
100
AcDbEntity
  8
0
100
AcDbSpline
 62
7
  6
CONTINUOUS
 70
0
 71
3
 72
12
 73
8
 74
6
 42
0.0000001
 43
0.0000001
 44
0.0000000001
 12
-0.4846905088
 22
0.3399843163
 32
0.0
 13
-0.4301881365
 23
0.4067583948
 33
0.0
 40
0.0
 40
0.0
 40
0.0
 40
0.0
 40
0.2112889118
 40
0.4160796887
 40
0.6146197839
 40
0.8089140402
 40
1.0
 40
1.0
 40
1.0
 40
1.0
 10
-42.1191775141
 20
-21.0530463874
 30
0.0
 10
-42.1533140908
 20
-21.0291014153
 30
0.0
 10
-42.2199139923
 20
-20.9810507111
 30
0.0
 10
-42.316283479
 20
-20.9073705779
 30
0.0
 10
-42.407909554
 20
-20.8330844143
 30
0.0
 10
-42.4952597903
 20
-20.7578991288
 30
0.0
 10
-42.5513669768
 20
-20.7065336496
 30
0.0
 10
-42.5787679478
 20
-20.6806250435
 30
0.0
 11
-42.1191775141
 21
-21.0530463874
 31
0.0
 11
-42.220603269
 21
-20.9798287375
 31
0.0
 11
-42.3169018731
 21
-20.9061613305
 31
0.0
 11
-42.4081868121
 21
-20.8321093961
 31
0.0
 11
-42.4953475556
 21
-20.7570427109
 31
0.0
 11
-42.5787679478
 21
-20.6806250435
 31
0.0
  0
SPLINE
  5
39E
100
AcDbEntity
  8
0
100
AcDbSpline
 62
7
  6
CONTINUOUS
 70
0
 71
3
 72
18
 73
14
 74
12
 42
0.0000001
 43
0.0000001
 44
0.0000000001
 12
-0.6956974515
 22
1.5433411025
 32
0.0
 13
-0.1278471795
 23
1.6880615514
 33
0.0
 40
0.0
 40
0.0
 40
0.0
 40
0.0
 40
0.0832064168
 40
0.1673706447
 40
0.2528685759
 40
0.3400867613
 40
0.4291060942
 40
0.5192954576
 40
0.610797256
 40
0.7048699557
 40
0.8017738049
 40
0.9005573899
 40
1.0
 40
1.0
 40
1.0
 40
1.0
 10
-41.34832636
 20
-23.1237170104
 30
0.0
 10
-41.3676218574
 20
-23.080911716
 30
0.0
 10
-41.4048407164
 20
-22.994080552
 30
0.0
 10
-41.456355123
 20
-22.8609807593
 30
0.0
 10
-41.5039867383
 20
-22.7240425991
 30
0.0
 10
-41.5478055193
 20
-22.5829672277
 30
0.0
 10
-41.5876865671
 20
-22.4379817032
 30
0.0
 10
-41.6235067502
 20
-22.2894535597
 30
0.0
 10
-41.6553205298
 20
-22.137102786
 30
0.0
 10
-41.6832030092
 20
-21.9801342645
 30
0.0
 10
-41.7070289451
 20
-21.818344184
 30
0.0
 10
-41.7265091316
 20
-21.6529239805
 30
0.0
 10
-41.7364651762
 20
-21.5414923729
 30
0.0
 10
-41.7407029953
 20
-21.4855372907
 30
0.0
 11
-41.34832636
 21
-23.1237170104
 31
0.0
 11
-41.4038561076
 21
-22.9942645785
 31
0.0
 11
-41.4553195086
 21
-22.861402117
 31
0.0
 11
-41.5029056471
 21
-22.724709151
 31
0.0
 11
-41.5467387867
 21
-22.5837142358
 31
0.0
 11
-41.5867433693
 21
-22.4384205177
 31
0.0
 11
-41.6225741162
 21
-22.2900031707
 31
0.0
 11
-41.6542723111
 21
-22.1383780695
 31
0.0
 11
-41.6821598793
 21
-21.9815835169
 31
0.0
 11
-41.7060959931
 21
-21.8192910257
 31
0.0
 11
-41.725688833
 21
-21.653212417
 31
0.0
 11
-41.7407029953
 21
-21.4855372907
 31
0.0
  0
SPLINE
  5
39F
100
AcDbEntity
  8
0
100
AcDbSpline
 62
7
  6
CONTINUOUS
 70
0
 71
3
 72
17
 73
13
 74
11
 42
0.0000001
 43
0.0000001
 44
0.0000000001
 12
0.1300619935
 22
1.8473673837
 32
0.0
 13
0.5103374417
 23
1.780270143
 33
0.0
 40
0.0
 40
0.0
 40
0.0
 40
0.0
 40
0.0989862623
 40
0.1998098983
 40
0.3012031679
 40
0.4020589693
 40
0.5025145917
 40
0.6038648314
 40
0.7062244143
 40
0.8087916628
 40
0.9115570984
 40
1.0
 40
1.0
 40
1.0
 40
1.0
 10
-41.7407029953
 20
-20.4705248665
 30
0.0
 10
-41.7364115451
 20
-20.4095702024
 30
0.0
 10
-41.7262918206
 20
-20.2866274493
 30
0.0
 10
-41.7067550268
 20
-20.1017043143
 30
0.0
 10
-41.6828810261
 20
-19.9161269333
 30
0.0
 10
-41.6549589074
 20
-19.7313464647
 30
0.0
 10
-41.6231058495
 20
-19.5472306833
 30
0.0
 10
-41.5872440935
 20
-19.3629081183
 30
0.0
 10
-41.5473272811
 20
-19.178087428
 30
0.0
 10
-41.5034808154
 20
-18.9932619215
 30
0.0
 10
-41.4581238774
 20
-18.8176616742
 30
0.0
 10
-41.4265352178
 20
-18.7039257929
 30
0.0
 10
-41.4114899765
 20
-18.6514417072
 30
0.0
 11
-41.7407029953
 21
-20.4705248665
 31
0.0
 11
-41.7256877656
 21
-20.2878242055
 31
0.0
 11
-41.706092688
 21
-20.1021359042
 31
0.0
 11
-41.6821540441
 21
-19.9158938113
 31
0.0
 11
-41.654265077
 21
-19.7312087645
 31
0.0
 11
-41.6225669858
 21
-19.5478912948
 31
0.0
 11
-41.5867364801
 21
-19.3636484386
 31
0.0
 11
-41.5467320199
 21
-19.1783538458
 31
0.0
 11
-41.502899775
 21
-18.9935319542
 31
0.0
 11
-41.455315396
 21
-18.8092612492
 31
0.0
 11
-41.4114899765
 21
-18.6514417072
 31
0.0
  0
SPLINE
  5
3A0
100
AcDbEntity
  8
0
100
AcDbSpline
 62
7
  6
CONTINUOUS
 70
0
 71
3
 72
9
 73
5
 74
3
 42
0.0000001
 43
0.0000001
 44
0.0000000001
 12
-0.1642762213
 22
-0.1282951516
 32
0.0
 13
-0.1864235189
 23
-0.0930907056
 33
0.0
 40
0.0
 40
0.0
 40
0.0
 40
0.0
 40
0.8496477921
 40
1.0
 40
1.0
 40
1.0
 40
1.0
 10
-39.5891511418
 20
-23.3070268339
 30
0.0
 10
-39.6356767848
 20
-23.3433620646
 30
0.0
 10
-39.6939347149
 20
-23.381638386
 30
0.0
 10
-39.7555970496
 20
-23.4136196945
 30
0.0
 10
-39.7649401122
 20
-23.4182851589
 30
0.0
 11
-39.5891511418
 21
-23.3070268339
 31
0.0
 11
-39.7371318726
 21
-23.4038604701
 31
0.0
 11
-39.7649401122
 21
-23.4182851589
 31
0.0
  0
SPLINE
  5
3A1
100
AcDbEntity
  8
0
100
AcDbSpline
 62
7
  6
CONTINUOUS
 70
0
 71
3
 72
12
 73
8
 74
6
 42
0.0000001
 43
0.0000001
 44
0.0000000001
 12
-0.7538005872
 22
0.1993050875
 32
0.0
 13
-0.7344507813
 23
0.2617630475
 33
0.0
 40
0.0
 40
0.0
 40
0.0
 40
0.0
 40
0.2031922224
 40
0.4037019467
 40
0.6024734814
 40
0.8012652599
 40
1.0
 40
1.0
 40
1.0
 40
1.0
 10
-39.8325663613
 20
-22.0537258368
 30
0.0
 10
-39.8836218335
 20
-22.0402267556
 30
0.0
 10
-39.984849997
 20
-22.0126093471
 30
0.0
 10
-40.1352362403
 20
-21.9689694107
 30
0.0
 10
-40.2837933075
 20
-21.9232020685
 30
0.0
 10
-40.4311166716
 20
-21.8750728152
 30
0.0
 10
-40.5287554206
 20
-21.8412710903
 30
0.0
 10
-40.577409049
 20
-21.8239306199
 30
0.0
 11
-39.8325663613
 21
-22.0537258368
 31
0.0
 11
-39.9854065505
 21
-22.012014274
 31
0.0
 11
-40.1355470875
 21
-21.9684316728
 31
0.0
 11
-40.2836561472
 21
-21.9227873371
 31
0.0
 11
-40.4309868564
 21
-21.874639088
 31
0.0
 11
-40.577409049
 21
-21.8239306199
 31
0.0
  0
SPLINE
  5
3A2
100
AcDbEntity
  8
0
100
AcDbSpline
 62
7
  6
CONTINUOUS
 70
0
 71
3
 72
9
 73
5
 74
3
 42
0.0000001
 43
0.0000001
 44
0.0000000001
 12
-0.3146349819
 22
0.1676527526
 32
0.0
 13
-0.2882787499
 23
0.2094216566
 33
0.0
 40
0.0
 40
0.0
 40
0.0
 40
0.0
 40
0.2130096085
 40
1.0
 40
1.0
 40
1.0
 40
1.0
 10
-40.7639394347
 20
44.3780649599
 30
0.0
 10
-40.7862795261
 20
44.3899688423
 30
0.0
 10
-40.8902403666
 20
44.4475831188
 30
0.0
 10
-40.9898594454
 20
44.5127482306
 30
0.0
 10
-41.0654836475
 20
44.5676858411
 30
0.0
 11
-40.7639394347
 21
44.3780649599
 31
0.0
 11
-40.8303718428
 21
44.414856236
 31
0.0
 11
-41.0654836475
 21
44.5676858411
 31
0.0
  0
SPLINE
  5
3A3
100
AcDbEntity
  8
0
100
AcDbSpline
 62
7
  6
CONTINUOUS
 70
0
 71
3
 72
15
 73
11
 74
9
 42
0.0000001
 43
0.0000001
 44
0.0000000001
 12
-2.939478045
 22
2.135399719
 32
0.0
 13
0.0
 23
3.6332441615
 33
0.0
 40
0.0
 40
0.0
 40
0.0
 40
0.0
 40
0.1166507875
 40
0.2400441641
 40
0.3682594671
 40
0.499036013
 40
0.6299439153
 40
0.7585448031
 40
0.8825520476
 40
1.0
 40
1.0
 40
1.0
 40
1.0
 10
-41.34832636
 20
44.4262644848
 30
0.0
 10
-41.4626238363
 20
44.5092965045
 30
0.0
 10
-41.6853960366
 20
44.6976997186
 30
0.0
 10
-41.9879454566
 20
45.0266989152
 30
0.0
 10
-42.2612027602
 20
45.401776015
 30
0.0
 10
-42.4970866882
 20
45.8118563434
 30
0.0
 10
-42.6887045786
 20
46.2449031026
 30
0.0
 10
-42.8304139909
 20
46.688226374
 30
0.0
 10
-42.9180391678
 20
47.128722049
 30
0.0
 10
-42.9393166177
 20
47.421394834
 30
0.0
 10
-42.9393166177
 20
47.5636338631
 30
0.0
 11
-41.34832636
 21
44.4262644848
 31
0.0
 11
-41.6731025102
 21
44.6985593922
 31
0.0
 11
-41.9775117219
 21
45.0276859615
 31
0.0
 11
-42.2524140663
 21
45.4037621219
 31
0.0
 11
-42.4895555623
 21
45.8154961345
 31
0.0
 11
-42.6818160037
 21
46.2505256285
 31
0.0
 11
-42.823422744
 21
46.6957887829
 31
0.0
 11
-42.9101240213
 21
47.1379165099
 31
0.0
 11
-42.9393166177
 21
47.5636338631
 31
0.0
  0
SPLINE
  5
3A4
100
AcDbEntity
  8
0
100
AcDbSpline
 62
7
  6
CONTINUOUS
 70
0
 71
3
 72
13
 73
9
 74
7
 42
0.0000001
 43
0.0000001
 44
0.0000000001
 12
0.0
 22
1.733890101
 32
0.0
 13
1.5560297276
 23
0.7770044582
 33
0.0
 40
0.0
 40
0.0
 40
0.0
 40
0.0
 40
0.2293097471
 40
0.4403083728
 40
0.6335453992
 40
0.8121488115
 40
0.9819867274
 40
1.0
 40
1.0
 40
1.0
 40
1.0
 10
-42.9393166177
 20
47.5636338631
 30
0.0
 10
-42.9393166177
 20
47.6961664966
 30
0.0
 10
-42.9220742218
 20
47.951196064
 30
0.0
 10
-42.8376723044
 20
48.3094316592
 30
0.0
 10
-42.6971383667
 20
48.6184104885
 30
0.0
 10
-42.5029117783
 20
48.8682058313
 30
0.0
 10
-42.3306321078
 20
48.9962173085
 30
0.0
 10
-42.2339488892
 20
49.0463622772
 30
0.0
 10
-42.2246058266
 20
49.0510277416
 30
0.0
 11
-42.9393166177
 21
47.5636338631
 31
0.0
 11
-42.9101240213
 21
47.9601586199
 31
0.0
 11
-42.823422744
 21
48.3155850696
 31
0.0
 11
-42.6818160037
 21
48.6192414837
 31
0.0
 11
-42.4895555623
 21
48.8620105362
 31
0.0
 11
-42.2524140663
 21
49.0366030528
 31
0.0
 11
-42.2246058266
 21
49.0510277416
 31
0.0
  0
SPLINE
  5
3A5
100
AcDbEntity
  8
0
100
AcDbSpline
 62
7
  6
CONTINUOUS
 70
0
 71
3
 72
11
 73
7
 74
5
 42
0.0000001
 43
0.0000001
 44
0.0000000001
 12
0.3585770888
 22
-0.0893745271
 32
0.0
 13
0.3641339119
 23
-0.0630224474
 33
0.0
 40
0.0
 40
0.0
 40
0.0
 40
0.0
 40
0.2843614962
 40
0.5413138567
 40
0.7772617616
 40
1.0
 40
1.0
 40
1.0
 40
1.0
 10
-42.1191775141
 20
47.1031528905
 30
0.0
 10
-42.0851890082
 20
47.0946813324
 30
0.0
 10
-42.0202912553
 20
47.0793349311
 30
0.0
 10
-41.926670075
 20
47.0592550407
 30
0.0
 10
-41.8401602389
 20
47.0422880939
 30
0.0
 10
-41.7845523371
 20
47.0322630226
 30
0.0
 10
-41.7575168218
 20
47.027583853
 30
0.0
 11
-42.1191775141
 21
47.1031528905
 31
0.0
 11
-42.0169214386
 21
47.0789337356
 31
0.0
 11
-41.924081843
 21
47.0589970973
 31
0.0
 11
-41.8385211311
 21
47.042199781
 31
0.0
 11
-41.7575168218
 21
47.027583853
 31
0.0
  0
SPLINE
  5
3A6
100
AcDbEntity
  8
0
100
AcDbSpline
 62
7
  6
CONTINUOUS
 70
0
 71
3
 72
12
 73
8
 74
6
 42
0.0000001
 43
0.0000001
 44
0.0000000001
 12
-0.4846905088
 22
0.3399843163
 32
0.0
 13
-0.4301881365
 23
0.4067583948
 33
0.0
 40
0.0
 40
0.0
 40
0.0
 40
0.0
 40
0.2112889118
 40
0.4160796887
 40
0.6146197839
 40
0.8089140402
 40
1.0
 40
1.0
 40
1.0
 40
1.0
 10
-42.1191775141
 20
47.1031528905
 30
0.0
 10
-42.1533140908
 20
47.1270978625
 30
0.0
 10
-42.2199139923
 20
47.1751485668
 30
0.0
 10
-42.316283479
 20
47.2488286999
 30
0.0
 10
-42.407909554
 20
47.3231148635
 30
0.0
 10
-42.4952597903
 20
47.398300149
 30
0.0
 10
-42.5513669768
 20
47.4496656282
 30
0.0
 10
-42.5787679478
 20
47.4755742343
 30
0.0
 11
-42.1191775141
 21
47.1031528905
 31
0.0
 11
-42.220603269
 21
47.1763705403
 31
0.0
 11
-42.3169018731
 21
47.2500379473
 31
0.0
 11
-42.4081868121
 21
47.3240898818
 31
0.0
 11
-42.4953475556
 21
47.3991565669
 31
0.0
 11
-42.5787679478
 21
47.4755742343
 31
0.0
  0
SPLINE
  5
3A7
100
AcDbEntity
  8
0
100
AcDbSpline
 62
7
  6
CONTINUOUS
 70
0
 71
3
 72
18
 73
14
 74
12
 42
0.0000001
 43
0.0000001
 44
0.0000000001
 12
0.1278471796
 22
-1.688061552
 32
0.0
 13
0.6956974518
 23
-1.543341103
 33
0.0
 40
0.0
 40
0.0
 40
0.0
 40
0.0
 40
0.0994487293
 40
0.1982410428
 40
0.2951515135
 40
0.389225246
 40
0.480723723
 40
0.5709101839
 40
0.6599274556
 40
0.7471425123
 40
0.8326363975
 40
0.9167966359
 40
1.0
 40
1.0
 40
1.0
 40
1.0
 10
-41.0335962141
 20
45.7108908139
 30
0.0
 10
-41.0293581343
 20
45.6549322885
 30
0.0
 10
-41.0194012511
 20
45.5434923407
 30
0.0
 10
-40.9999191489
 20
45.3780601581
 30
0.0
 10
-40.9760909791
 20
45.2162610569
 30
0.0
 10
-40.9482069793
 20
45.0592903206
 30
0.0
 10
-40.9163927449
 20
44.9069426361
 30
0.0
 10
-40.880572744
 20
44.75841926
 30
0.0
 10
-40.8406921042
 20
44.613438361
 30
0.0
 10
-40.7968741897
 20
44.4723681804
 30
0.0
 10
-40.7492441489
 20
44.3354361465
 30
0.0
 10
-40.6977317197
 20
44.2023423018
 30
0.0
 10
-40.6605143683
 20
44.1155148181
 30
0.0
 10
-40.6412195788
 20
44.0727110942
 30
0.0
 11
-41.0335962141
 21
45.7108908139
 31
0.0
 11
-41.0185809844
 21
45.5432053826
 31
0.0
 11
-40.9989859068
 21
45.3771121589
 31
0.0
 11
-40.975047263
 21
45.2148087099
 31
0.0
 11
-40.9471582958
 21
45.0580126302
 31
0.0
 11
-40.9154602046
 21
44.9063932516
 31
0.0
 11
-40.8796296989
 21
44.7579809012
 31
0.0
 11
-40.8396252387
 21
44.6126907686
 31
0.0
 11
-40.7957929939
 21
44.4717011218
 31
0.0
 11
-40.7482086148
 21
44.3350147959
 31
0.0
 11
-40.6967473746
 21
44.20215874
 31
0.0
 11
-40.6412195788
 21
44.0727110942
 31
0.0
  0
SPLINE
  5
3A8
100
AcDbEntity
  8
0
100
AcDbSpline
 62
7
  6
CONTINUOUS
 70
0
 71
3
 72
12
 73
8
 74
6
 42
0.0000001
 43
0.0000001
 44
0.0000000001
 12
-0.7538005872
 22
0.1993050875
 32
0.0
 13
-0.7344507813
 23
0.2617630475
 33
0.0
 40
0.0
 40
0.0
 40
0.0
 40
0.0
 40
0.2031922224
 40
0.4037019467
 40
0.6024734814
 40
0.8012652599
 40
1.0
 40
1.0
 40
1.0
 40
1.0
 10
-39.8325663613
 20
46.102473441
 30
0.0
 10
-39.8836218335
 20
46.1159725223
 30
0.0
 10
-39.984849997
 20
46.1435899307
 30
0.0
 10
-40.1352362403
 20
46.1872298672
 30
0.0
 10
-40.2837933075
 20
46.2329972093
 30
0.0
 10
-40.4311166716
 20
46.2811264626
 30
0.0
 10
-40.5287554206
 20
46.3149281875
 30
0.0
 10
-40.577409049
 20
46.3322686579
 30
0.0
 11
-39.8325663613
 21
46.102473441
 31
0.0
 11
-39.9854065505
 21
46.1441850039
 31
0.0
 11
-40.1355470875
 21
46.187767605
 31
0.0
 11
-40.2836561472
 21
46.2334119408
 31
0.0
 11
-40.4309868564
 21
46.2815601898
 31
0.0
 11
-40.577409049
 21
46.3322686579
 31
0.0
  0
SPLINE
  5
3A9
100
AcDbEntity
  8
0
100
AcDbSpline
 62
7
  6
CONTINUOUS
 70
0
 71
3
 72
17
 73
13
 74
11
 42
0.0000001
 43
0.0000001
 44
0.0000000001
 12
-0.4446982604
 22
-1.6445147598
 32
0.0
 13
-0.1196409239
 23
-1.6993491691
 33
0.0
 40
0.0
 40
0.0
 40
0.0
 40
0.0
 40
0.0090529507
 40
0.1207745843
 40
0.2322793774
 40
0.3435569181
 40
0.4537381009
 40
0.5629470783
 40
0.67258589
 40
0.7828027636
 40
0.8923984533
 40
1.0
 40
1.0
 40
1.0
 40
1.0
 10
-40.7441986466
 20
48.4020424357
 30
0.0
 10
-40.7455405904
 20
48.3970798654
 30
0.0
 10
-40.7633911161
 20
48.3308605373
 30
0.0
 10
-40.796379766
 20
48.2031432565
 30
0.0
 10
-40.8402271142
 20
48.0183116455
 30
0.0
 10
-40.8801443397
 20
47.8334859142
 30
0.0
 10
-40.9160062767
 20
47.6491584265
 30
0.0
 10
-40.9478589007
 20
47.4650399152
 30
0.0
 10
-40.9757795329
 20
47.2802629454
 30
0.0
 10
-40.9996513125
 20
47.0946966403
 30
0.0
 10
-41.0191861747
 20
46.9097874223
 30
0.0
 10
-41.0293050313
 20
46.7868541044
 30
0.0
 10
-41.0335962141
 20
46.7259032381
 30
0.0
 11
-40.7441986466
 21
48.4020424357
 31
0.0
 11
-40.7482127274
 21
48.387151551
 31
0.0
 11
-40.7957988659
 21
48.2028724466
 31
0.0
 11
-40.8396320056
 21
48.0180443917
 31
0.0
 11
-40.8796365882
 21
47.832746091
 31
0.0
 11
-40.915467335
 21
47.6484979973
 31
0.0
 11
-40.9471655299
 21
47.4651747011
 31
0.0
 11
-40.9750530981
 21
47.2804925803
 31
0.0
 11
-40.998989212
 21
47.0942639753
 31
0.0
 11
-41.0185820518
 21
46.9085925266
 31
0.0
 11
-41.0335962141
 21
46.7259032381
 31
0.0
  0
SPLINE
  5
3AA
100
AcDbEntity
  8
0
100
AcDbSpline
 62
7
  6
CONTINUOUS
 70
0
 71
3
 72
10
 73
6
 74
4
 42
0.0000001
 43
0.0000001
 44
0.0000000001
 12
-0.80417572
 22
-0.4015656697
 32
0.0
 13
-0.8643416125
 23
0.2364359748
 33
0.0
 40
0.0
 40
0.0
 40
0.0
 40
0.0
 40
0.2920401134
 40
0.6328640805
 40
1.0
 40
1.0
 40
1.0
 40
1.0
 10
-39.7649401122
 20
44.1316963363
 30
0.0
 10
-39.8432239684
 20
44.0926052417
 30
0.0
 10
-40.0238215958
 20
44.0296480071
 30
0.0
 10
-40.3250211602
 20
44.0076827166
 30
0.0
 10
-40.5354426279
 20
44.0437763812
 30
0.0
 10
-40.6412195788
 20
44.0727110942
 30
0.0
 11
-39.7649401122
 21
44.1316963363
 31
0.0
 11
-40.0120342169
 21
44.044947209
 31
0.0
 11
-40.3164434286
 21
44.0202298514
 31
0.0
 11
-40.6412195788
 21
44.0727110942
 31
0.0
  0
SPLINE
  5
3AB
100
AcDbEntity
  8
0
100
AcDbSpline
 62
7
  6
CONTINUOUS
 70
0
 71
3
 72
12
 73
8
 74
6
 42
0.0000001
 43
0.0000001
 44
0.0000000001
 12
-0.4846905088
 22
0.3399843163
 32
0.0
 13
-0.4301881365
 23
0.4067583948
 33
0.0
 40
0.0
 40
0.0
 40
0.0
 40
0.0
 40
0.2112889118
 40
0.4160796887
 40
0.6146197839
 40
0.8089140402
 40
1.0
 40
1.0
 40
1.0
 40
1.0
 10
-42.1191775141
 20
46.4969351078
 30
0.0
 10
-42.1533140908
 20
46.5208800799
 30
0.0
 10
-42.2199139923
 20
46.5689307841
 30
0.0
 10
-42.316283479
 20
46.6426109173
 30
0.0
 10
-42.407909554
 20
46.7168970809
 30
0.0
 10
-42.4952597903
 20
46.7920823664
 30
0.0
 10
-42.5513669768
 20
46.8434478456
 30
0.0
 10
-42.5787679478
 20
46.8693564517
 30
0.0
 11
-42.1191775141
 21
46.4969351078
 31
0.0
 11
-42.220603269
 21
46.5701527577
 31
0.0
 11
-42.3169018731
 21
46.6438201647
 31
0.0
 11
-42.4081868121
 21
46.7178720991
 31
0.0
 11
-42.4953475556
 21
46.7929387843
 31
0.0
 11
-42.5787679478
 21
46.8693564517
 31
0.0
  0
SPLINE
  5
3AC
100
AcDbEntity
  8
0
100
AcDbSpline
 62
7
  6
CONTINUOUS
 70
0
 71
3
 72
18
 73
14
 74
12
 42
0.0000001
 43
0.0000001
 44
0.0000000001
 12
-0.6956974515
 22
1.5433411025
 32
0.0
 13
-0.1278471795
 23
1.6880615514
 33
0.0
 40
0.0
 40
0.0
 40
0.0
 40
0.0
 40
0.0832064168
 40
0.1673706447
 40
0.2528685759
 40
0.3400867613
 40
0.4291060942
 40
0.5192954576
 40
0.610797256
 40
0.7048699557
 40
0.8017738049
 40
0.9005573899
 40
1.0
 40
1.0
 40
1.0
 40
1.0
 10
-41.34832636
 20
44.4262644848
 30
0.0
 10
-41.3676218574
 20
44.4690697792
 30
0.0
 10
-41.4048407164
 20
44.5559009432
 30
0.0
 10
-41.456355123
 20
44.6890007358
 30
0.0
 10
-41.5039867383
 20
44.8259388961
 30
0.0
 10
-41.5478055193
 20
44.9670142675
 30
0.0
 10
-41.5876865671
 20
45.111999792
 30
0.0
 10
-41.6235067502
 20
45.2605279354
 30
0.0
 10
-41.6553205298
 20
45.4128787092
 30
0.0
 10
-41.6832030092
 20
45.5698472307
 30
0.0
 10
-41.7070289451
 20
45.7316373112
 30
0.0
 10
-41.7265091316
 20
45.8970575147
 30
0.0
 10
-41.7364651762
 20
46.0084891223
 30
0.0
 10
-41.7407029953
 20
46.0644442045
 30
0.0
 11
-41.34832636
 21
44.4262644848
 31
0.0
 11
-41.4038561076
 21
44.5557169167
 31
0.0
 11
-41.4553195086
 21
44.6885793782
 31
0.0
 11
-41.5029056471
 21
44.8252723442
 31
0.0
 11
-41.5467387867
 21
44.9662672594
 31
0.0
 11
-41.5867433693
 21
45.1115609775
 31
0.0
 11
-41.6225741162
 21
45.2599783244
 31
0.0
 11
-41.6542723111
 21
45.4116034256
 31
0.0
 11
-41.6821598793
 21
45.5683979783
 31
0.0
 11
-41.7060959931
 21
45.7306904695
 31
0.0
 11
-41.725688833
 21
45.8967690782
 31
0.0
 11
-41.7407029953
 21
46.0644442045
 31
0.0
  0
SPLINE
  5
3AD
100
AcDbEntity
  8
0
100
AcDbSpline
 62
7
  6
CONTINUOUS
 70
0
 71
3
 72
17
 73
13
 74
11
 42
0.0000001
 43
0.0000001
 44
0.0000000001
 12
0.1300619935
 22
1.8473673837
 32
0.0
 13
0.5103374417
 23
1.780270143
 33
0.0
 40
0.0
 40
0.0
 40
0.0
 40
0.0
 40
0.0989862623
 40
0.1998098983
 40
0.3012031679
 40
0.4020589693
 40
0.5025145917
 40
0.6038648314
 40
0.7062244143
 40
0.8087916628
 40
0.9115570984
 40
1.0
 40
1.0
 40
1.0
 40
1.0
 10
-41.7407029953
 20
47.0794566286
 30
0.0
 10
-41.7364115451
 20
47.1404112928
 30
0.0
 10
-41.7262918206
 20
47.2633540459
 30
0.0
 10
-41.7067550268
 20
47.4482771809
 30
0.0
 10
-41.6828810261
 20
47.6338545618
 30
0.0
 10
-41.6549589074
 20
47.8186350305
 30
0.0
 10
-41.6231058495
 20
48.0027508119
 30
0.0
 10
-41.5872440935
 20
48.1870733769
 30
0.0
 10
-41.5473272811
 20
48.3718940672
 30
0.0
 10
-41.5034808154
 20
48.5567195737
 30
0.0
 10
-41.4581238774
 20
48.732319821
 30
0.0
 10
-41.4265352178
 20
48.8460557023
 30
0.0
 10
-41.4114899765
 20
48.898539788
 30
0.0
 11
-41.7407029953
 21
47.0794566286
 31
0.0
 11
-41.7256877656
 21
47.2621572896
 31
0.0
 11
-41.706092688
 21
47.447845591
 31
0.0
 11
-41.6821540441
 21
47.6340876838
 31
0.0
 11
-41.654265077
 21
47.8187727306
 31
0.0
 11
-41.6225669858
 21
48.0020902004
 31
0.0
 11
-41.5867364801
 21
48.1863330566
 31
0.0
 11
-41.5467320199
 21
48.3716276494
 31
0.0
 11
-41.502899775
 21
48.556449541
 31
0.0
 11
-41.455315396
 21
48.7407202459
 31
0.0
 11
-41.4114899765
 21
48.898539788
 31
0.0
  0
SPLINE
  5
3AE
100
AcDbEntity
  8
0
100
AcDbSpline
 62
7
  6
CONTINUOUS
 70
0
 71
3
 72
9
 73
5
 74
3
 42
0.0000001
 43
0.0000001
 44
0.0000000001
 12
-0.1642762213
 22
-0.1282951516
 32
0.0
 13
-0.1864235189
 23
-0.0930907056
 33
0.0
 40
0.0
 40
0.0
 40
0.0
 40
0.0
 40
0.8496477921
 40
1.0
 40
1.0
 40
1.0
 40
1.0
 10
-39.5891511418
 20
44.2429546613
 30
0.0
 10
-39.6356767848
 20
44.2066194305
 30
0.0
 10
-39.6939347149
 20
44.1683431092
 30
0.0
 10
-39.7555970496
 20
44.1363618007
 30
0.0
 10
-39.7649401122
 20
44.1316963363
 30
0.0
 11
-39.5891511418
 21
44.2429546613
 31
0.0
 11
-39.7371318726
 21
44.1461210251
 31
0.0
 11
-39.7649401122
 21
44.1316963363
 31
0.0
  0
SPLINE
  5
3AF
100
AcDbEntity
  8
0
100
AcDbSpline
 62
7
  6
CONTINUOUS
 70
0
 71
3
 72
12
 73
8
 74
6
 42
0.0000001
 43
0.0000001
 44
0.0000000001
 12
-0.7538005872
 22
0.1993050875
 32
0.0
 13
-0.7344507813
 23
0.2617630475
 33
0.0
 40
0.0
 40
0.0
 40
0.0
 40
0.0
 40
0.2031922224
 40
0.4037019467
 40
0.6024734814
 40
0.8012652599
 40
1.0
 40
1.0
 40
1.0
 40
1.0
 10
-39.8325663613
 20
45.4962556584
 30
0.0
 10
-39.8836218335
 20
45.5097547396
 30
0.0
 10
-39.984849997
 20
45.5373721481
 30
0.0
 10
-40.1352362403
 20
45.5810120845
 30
0.0
 10
-40.2837933075
 20
45.6267794267
 30
0.0
 10
-40.4311166716
 20
45.67490868
 30
0.0
 10
-40.5287554206
 20
45.7087104049
 30
0.0
 10
-40.577409049
 20
45.7260508753
 30
0.0
 11
-39.8325663613
 21
45.4962556584
 31
0.0
 11
-39.9854065505
 21
45.5379672212
 31
0.0
 11
-40.1355470875
 21
45.5815498224
 31
0.0
 11
-40.2836561472
 21
45.6271941581
 31
0.0
 11
-40.4309868564
 21
45.6753424072
 31
0.0
 11
-40.577409049
 21
45.7260508753
 31
0.0
  0
SPLINE
  5
3B0
100
AcDbEntity
  8
0
100
AcDbSpline
 62
7
  6
CONTINUOUS
 70
0
 71
3
 72
9
 73
5
 74
3
 42
0.0000001
 43
0.0000001
 44
0.0000000001
 12
-0.3146349819
 22
0.1676527526
 32
0.0
 13
-0.2882787499
 23
0.2094216566
 33
0.0
 40
0.0
 40
0.0
 40
0.0
 40
0.0
 40
0.2130096085
 40
1.0
 40
1.0
 40
1.0
 40
1.0
 10
14.3903894979
 20
-50.7490810016
 30
0.0
 10
14.3680494064
 20
-50.7371771192
 30
0.0
 10
14.264088566
 20
-50.6795628427
 30
0.0
 10
14.1644694871
 20
-50.6143977309
 30
0.0
 10
14.088845285
 20
-50.5594601204
 30
0.0
 11
14.3903894979
 21
-50.7490810016
 31
0.0
 11
14.3239570897
 21
-50.7122897254
 31
0.0
 11
14.088845285
 21
-50.5594601204
 31
0.0
  0
SPLINE
  5
3B1
100
AcDbEntity
  8
0
100
AcDbSpline
 62
7
  6
CONTINUOUS
 70
0
 71
3
 72
15
 73
11
 74
9
 42
0.0000001
 43
0.0000001
 44
0.0000000001
 12
-2.939478045
 22
2.135399719
 32
0.0
 13
0.0
 23
3.6332441615
 33
0.0
 40
0.0
 40
0.0
 40
0.0
 40
0.0
 40
0.1166507875
 40
0.2400441641
 40
0.3682594671
 40
0.499036013
 40
0.6299439153
 40
0.7585448031
 40
0.8825520476
 40
1.0
 40
1.0
 40
1.0
 40
1.0
 10
13.8060025725
 20
-50.7008814766
 30
0.0
 10
13.6917050963
 20
-50.617849457
 30
0.0
 10
13.468932896
 20
-50.4294462428
 30
0.0
 10
13.1663834759
 20
-50.1004470462
 30
0.0
 10
12.8931261723
 20
-49.7253699465
 30
0.0
 10
12.6572422443
 20
-49.3152896181
 30
0.0
 10
12.4656243539
 20
-48.8822428589
 30
0.0
 10
12.3239149417
 20
-48.4389195875
 30
0.0
 10
12.2362897647
 20
-47.9984239125
 30
0.0
 10
12.2150123149
 20
-47.7057511275
 30
0.0
 10
12.2150123149
 20
-47.5635120984
 30
0.0
 11
13.8060025725
 21
-50.7008814766
 31
0.0
 11
13.4812264223
 21
-50.4285865693
 31
0.0
 11
13.1768172106
 21
-50.0994599999
 31
0.0
 11
12.9019148663
 21
-49.7233838395
 31
0.0
 11
12.6647733703
 21
-49.311649827
 31
0.0
 11
12.4725129289
 21
-48.876620333
 31
0.0
 11
12.3309061885
 21
-48.4313571786
 31
0.0
 11
12.2442049112
 21
-47.9892294516
 31
0.0
 11
12.2150123149
 21
-47.5635120984
 31
0.0
  0
SPLINE
  5
3B2
100
AcDbEntity
  8
0
100
AcDbSpline
 62
7
  6
CONTINUOUS
 70
0
 71
3
 72
13
 73
9
 74
7
 42
0.0000001
 43
0.0000001
 44
0.0000000001
 12
0.0
 22
1.733890101
 32
0.0
 13
1.5560297276
 23
0.7770044582
 33
0.0
 40
0.0
 40
0.0
 40
0.0
 40
0.0
 40
0.2293097471
 40
0.4403083728
 40
0.6335453992
 40
0.8121488115
 40
0.9819867274
 40
1.0
 40
1.0
 40
1.0
 40
1.0
 10
12.2150123149
 20
-47.5635120984
 30
0.0
 10
12.2150123149
 20
-47.4309794649
 30
0.0
 10
12.2322547107
 20
-47.1759498974
 30
0.0
 10
12.3166566282
 20
-46.8177143023
 30
0.0
 10
12.4571905658
 20
-46.508735473
 30
0.0
 10
12.6514171543
 20
-46.2589401301
 30
0.0
 10
12.8236968247
 20
-46.130928653
 30
0.0
 10
12.9203800434
 20
-46.0807836843
 30
0.0
 10
12.9297231059
 20
-46.0761182199
 30
0.0
 11
12.2150123149
 21
-47.5635120984
 31
0.0
 11
12.2442049112
 21
-47.1669873416
 31
0.0
 11
12.3309061885
 21
-46.8115608919
 31
0.0
 11
12.4725129289
 21
-46.5079044778
 31
0.0
 11
12.6647733703
 21
-46.2651354252
 31
0.0
 11
12.9019148663
 21
-46.0905429087
 31
0.0
 11
12.9297231059
 21
-46.0761182199
 31
0.0
  0
SPLINE
  5
3B3
100
AcDbEntity
  8
0
100
AcDbSpline
 62
7
  6
CONTINUOUS
 70
0
 71
3
 72
11
 73
7
 74
5
 42
0.0000001
 43
0.0000001
 44
0.0000000001
 12
0.3585770888
 22
-0.0893745271
 32
0.0
 13
0.3641339119
 23
-0.0630224474
 33
0.0
 40
0.0
 40
0.0
 40
0.0
 40
0.0
 40
0.2843614962
 40
0.5413138567
 40
0.7772617616
 40
1.0
 40
1.0
 40
1.0
 40
1.0
 10
13.0351514185
 20
-48.023993071
 30
0.0
 10
13.0691399243
 20
-48.0324646291
 30
0.0
 10
13.1340376773
 20
-48.0478110303
 30
0.0
 10
13.2276588576
 20
-48.0678909208
 30
0.0
 10
13.3141686937
 20
-48.0848578676
 30
0.0
 10
13.3697765954
 20
-48.0948829388
 30
0.0
 10
13.3968121108
 20
-48.0995621085
 30
0.0
 11
13.0351514185
 21
-48.023993071
 31
0.0
 11
13.1374074939
 21
-48.0482122259
 31
0.0
 11
13.2302470895
 21
-48.0681488642
 31
0.0
 11
13.3158078015
 21
-48.0849461804
 31
0.0
 11
13.3968121108
 21
-48.0995621085
 31
0.0
  0
SPLINE
  5
3B4
100
AcDbEntity
  8
0
100
AcDbSpline
 62
7
  6
CONTINUOUS
 70
0
 71
3
 72
12
 73
8
 74
6
 42
0.0000001
 43
0.0000001
 44
0.0000000001
 12
-0.4846905088
 22
0.3399843163
 32
0.0
 13
-0.4301881365
 23
0.4067583948
 33
0.0
 40
0.0
 40
0.0
 40
0.0
 40
0.0
 40
0.2112889118
 40
0.4160796887
 40
0.6146197839
 40
0.8089140402
 40
1.0
 40
1.0
 40
1.0
 40
1.0
 10
13.0351514185
 20
-48.023993071
 30
0.0
 10
13.0010148418
 20
-48.0000480989
 30
0.0
 10
12.9344149402
 20
-47.9519973947
 30
0.0
 10
12.8380454535
 20
-47.8783172615
 30
0.0
 10
12.7464193786
 20
-47.8040310979
 30
0.0
 10
12.6590691422
 20
-47.7288458124
 30
0.0
 10
12.6029619557
 20
-47.6774803332
 30
0.0
 10
12.5755609847
 20
-47.6515717272
 30
0.0
 11
13.0351514185
 21
-48.023993071
 31
0.0
 11
12.9337256635
 21
-47.9507754212
 31
0.0
 11
12.8374270594
 21
-47.8771080141
 31
0.0
 11
12.7461421204
 21
-47.8030560797
 31
0.0
 11
12.6589813769
 21
-47.7279893946
 31
0.0
 11
12.5755609847
 21
-47.6515717272
 31
0.0
  0
SPLINE
  5
3B5
100
AcDbEntity
  8
0
100
AcDbSpline
 62
7
  6
CONTINUOUS
 70
0
 71
3
 72
18
 73
14
 74
12
 42
0.0000001
 43
0.0000001
 44
0.0000000001
 12
0.1278471796
 22
-1.688061552
 32
0.0
 13
0.6956974518
 23
-1.543341103
 33
0.0
 40
0.0
 40
0.0
 40
0.0
 40
0.0
 40
0.0994487293
 40
0.1982410428
 40
0.2951515135
 40
0.389225246
 40
0.480723723
 40
0.5709101839
 40
0.6599274556
 40
0.7471425123
 40
0.8326363975
 40
0.9167966359
 40
1.0
 40
1.0
 40
1.0
 40
1.0
 10
14.1207327184
 20
-49.4162551475
 30
0.0
 10
14.1249707983
 20
-49.472213673
 30
0.0
 10
14.1349276815
 20
-49.5836536208
 30
0.0
 10
14.1544097836
 20
-49.7490858034
 30
0.0
 10
14.1782379535
 20
-49.9108849046
 30
0.0
 10
14.2061219533
 20
-50.0678556409
 30
0.0
 10
14.2379361876
 20
-50.2202033253
 30
0.0
 10
14.2737561886
 20
-50.3687267014
 30
0.0
 10
14.3136368283
 20
-50.5137076005
 30
0.0
 10
14.3574547429
 20
-50.654777781
 30
0.0
 10
14.4050847837
 20
-50.791709815
 30
0.0
 10
14.4565972128
 20
-50.9248036597
 30
0.0
 10
14.4938145643
 20
-51.0116311433
 30
0.0
 10
14.5131093537
 20
-51.0544348672
 30
0.0
 11
14.1207327184
 21
-49.4162551475
 31
0.0
 11
14.1357479481
 21
-49.5839405789
 31
0.0
 11
14.1553430257
 21
-49.7500338026
 31
0.0
 11
14.1792816696
 21
-49.9123372516
 31
0.0
 11
14.2071706367
 21
-50.0691333312
 31
0.0
 11
14.2388687279
 21
-50.2207527098
 31
0.0
 11
14.2746992336
 21
-50.3691650603
 31
0.0
 11
14.3147036939
 21
-50.5144551928
 31
0.0
 11
14.3585359387
 21
-50.6554448396
 31
0.0
 11
14.4061203177
 21
-50.7921311656
 31
0.0
 11
14.4575815579
 21
-50.9249872215
 31
0.0
 11
14.5131093537
 21
-51.0544348672
 31
0.0
  0
SPLINE
  5
3B6
100
AcDbEntity
  8
0
100
AcDbSpline
 62
7
  6
CONTINUOUS
 70
0
 71
3
 72
12
 73
8
 74
6
 42
0.0000001
 43
0.0000001
 44
0.0000000001
 12
-0.7538005872
 22
0.1993050875
 32
0.0
 13
-0.7344507813
 23
0.2617630475
 33
0.0
 40
0.0
 40
0.0
 40
0.0
 40
0.0
 40
0.2031922224
 40
0.4037019467
 40
0.6024734814
 40
0.8012652599
 40
1.0
 40
1.0
 40
1.0
 40
1.0
 10
15.3217625712
 20
-49.0246725204
 30
0.0
 10
15.2707070991
 20
-49.0111734392
 30
0.0
 10
15.1694789355
 20
-48.9835560307
 30
0.0
 10
15.0190926923
 20
-48.9399160943
 30
0.0
 10
14.870535625
 20
-48.8941487521
 30
0.0
 10
14.7232122609
 20
-48.8460194988
 30
0.0
 10
14.625573512
 20
-48.8122177739
 30
0.0
 10
14.5769198836
 20
-48.7948773035
 30
0.0
 11
15.3217625712
 21
-49.0246725204
 31
0.0
 11
15.1689223821
 21
-48.9829609576
 31
0.0
 11
15.0187818451
 21
-48.9393783565
 31
0.0
 11
14.8706727853
 21
-48.8937340207
 31
0.0
 11
14.7233420762
 21
-48.8455857716
 31
0.0
 11
14.5769198836
 21
-48.7948773035
 31
0.0
  0
SPLINE
  5
3B7
100
AcDbEntity
  8
0
100
AcDbSpline
 62
7
  6
CONTINUOUS
 70
0
 71
3
 72
17
 73
13
 74
11
 42
0.0000001
 43
0.0000001
 44
0.0000000001
 12
-0.4446982604
 22
-1.6445147598
 32
0.0
 13
-0.1196409239
 23
-1.6993491691
 33
0.0
 40
0.0
 40
0.0
 40
0.0
 40
0.0
 40
0.0090529507
 40
0.1207745843
 40
0.2322793774
 40
0.3435569181
 40
0.4537381009
 40
0.5629470783
 40
0.67258589
 40
0.7828027636
 40
0.8923984533
 40
1.0
 40
1.0
 40
1.0
 40
1.0
 10
14.410130286
 20
-46.7251035257
 30
0.0
 10
14.4087883422
 20
-46.730066096
 30
0.0
 10
14.3909378165
 20
-46.7962854242
 30
0.0
 10
14.3579491665
 20
-46.924002705
 30
0.0
 10
14.3141018184
 20
-47.108834316
 30
0.0
 10
14.2741845929
 20
-47.2936600473
 30
0.0
 10
14.2383226558
 20
-47.4779875349
 30
0.0
 10
14.2064700318
 20
-47.6621060463
 30
0.0
 10
14.1785493997
 20
-47.846883016
 30
0.0
 10
14.15467762
 20
-48.0324493211
 30
0.0
 10
14.1351427578
 20
-48.2173585392
 30
0.0
 10
14.1250239013
 20
-48.3402918571
 30
0.0
 10
14.1207327184
 20
-48.4012427234
 30
0.0
 11
14.410130286
 21
-46.7251035257
 31
0.0
 11
14.4061162051
 21
-46.7399944104
 31
0.0
 11
14.3585300666
 21
-46.9242735149
 31
0.0
 11
14.314696927
 21
-47.1091015697
 31
0.0
 11
14.2746923444
 21
-47.2943998704
 31
0.0
 11
14.2388615976
 21
-47.4786479642
 31
0.0
 11
14.2071634027
 21
-47.6619712603
 31
0.0
 11
14.1792758344
 21
-47.8466533812
 31
0.0
 11
14.1553397206
 21
-48.0328819862
 31
0.0
 11
14.1357468807
 21
-48.2185534348
 31
0.0
 11
14.1207327184
 21
-48.4012427234
 31
0.0
  0
SPLINE
  5
3B8
100
AcDbEntity
  8
0
100
AcDbSpline
 62
7
  6
CONTINUOUS
 70
0
 71
3
 72
10
 73
6
 74
4
 42
0.0000001
 43
0.0000001
 44
0.0000000001
 12
-0.80417572
 22
-0.4015656697
 32
0.0
 13
-0.8643416125
 23
0.2364359748
 33
0.0
 40
0.0
 40
0.0
 40
0.0
 40
0.0
 40
0.2920401134
 40
0.6328640805
 40
1.0
 40
1.0
 40
1.0
 40
1.0
 10
15.3893888204
 20
-50.9954496252
 30
0.0
 10
15.3111049642
 20
-51.0345407198
 30
0.0
 10
15.1305073367
 20
-51.0974979544
 30
0.0
 10
14.8293077723
 20
-51.1194632449
 30
0.0
 10
14.6188863046
 20
-51.0833695802
 30
0.0
 10
14.5131093537
 20
-51.0544348672
 30
0.0
 11
15.3893888204
 21
-50.9954496252
 31
0.0
 11
15.1422947156
 21
-51.0821987524
 31
0.0
 11
14.8378855039
 21
-51.1069161101
 31
0.0
 11
14.5131093537
 21
-51.0544348672
 31
0.0
  0
SPLINE
  5
3B9
100
AcDbEntity
  8
0
100
AcDbSpline
 62
7
  6
CONTINUOUS
 70
0
 71
3
 72
12
 73
8
 74
6
 42
0.0000001
 43
0.0000001
 44
0.0000000001
 12
-0.4846905088
 22
0.3399843163
 32
0.0
 13
-0.4301881365
 23
0.4067583948
 33
0.0
 40
0.0
 40
0.0
 40
0.0
 40
0.0
 40
0.2112889118
 40
0.4160796887
 40
0.6146197839
 40
0.8089140402
 40
1.0
 40
1.0
 40
1.0
 40
1.0
 10
13.0351514185
 20
-48.6302108536
 30
0.0
 10
13.0010148418
 20
-48.6062658816
 30
0.0
 10
12.9344149402
 20
-48.5582151773
 30
0.0
 10
12.8380454535
 20
-48.4845350442
 30
0.0
 10
12.7464193786
 20
-48.4102488806
 30
0.0
 10
12.6590691422
 20
-48.3350635951
 30
0.0
 10
12.6029619557
 20
-48.2836981159
 30
0.0
 10
12.5755609847
 20
-48.2577895098
 30
0.0
 11
13.0351514185
 21
-48.6302108536
 31
0.0
 11
12.9337256635
 21
-48.5569932038
 31
0.0
 11
12.8374270594
 21
-48.4833257968
 31
0.0
 11
12.7461421204
 21
-48.4092738623
 31
0.0
 11
12.6589813769
 21
-48.3342071772
 31
0.0
 11
12.5755609847
 21
-48.2577895098
 31
0.0
  0
SPLINE
  5
3BA
100
AcDbEntity
  8
0
100
AcDbSpline
 62
7
  6
CONTINUOUS
 70
0
 71
3
 72
18
 73
14
 74
12
 42
0.0000001
 43
0.0000001
 44
0.0000000001
 12
-0.6956974515
 22
1.5433411025
 32
0.0
 13
-0.1278471795
 23
1.6880615514
 33
0.0
 40
0.0
 40
0.0
 40
0.0
 40
0.0
 40
0.0832064168
 40
0.1673706447
 40
0.2528685759
 40
0.3400867613
 40
0.4291060942
 40
0.5192954576
 40
0.610797256
 40
0.7048699557
 40
0.8017738049
 40
0.9005573899
 40
1.0
 40
1.0
 40
1.0
 40
1.0
 10
13.8060025725
 20
-50.7008814766
 30
0.0
 10
13.7867070752
 20
-50.6580761823
 30
0.0
 10
13.7494882162
 20
-50.5712450183
 30
0.0
 10
13.6979738096
 20
-50.4381452256
 30
0.0
 10
13.6503421943
 20
-50.3012070654
 30
0.0
 10
13.6065234132
 20
-50.1601316939
 30
0.0
 10
13.5666423654
 20
-50.0151461694
 30
0.0
 10
13.5308221824
 20
-49.866618026
 30
0.0
 10
13.4990084027
 20
-49.7142672523
 30
0.0
 10
13.4711259234
 20
-49.5572987307
 30
0.0
 10
13.4472999875
 20
-49.3955086503
 30
0.0
 10
13.4278198009
 20
-49.2300884468
 30
0.0
 10
13.4178637563
 20
-49.1186568392
 30
0.0
 10
13.4136259373
 20
-49.062701757
 30
0.0
 11
13.8060025725
 21
-50.7008814766
 31
0.0
 11
13.7504728249
 21
-50.5714290448
 31
0.0
 11
13.6990094239
 21
-50.4385665832
 31
0.0
 11
13.6514232854
 21
-50.3018736173
 31
0.0
 11
13.6075901458
 21
-50.1608787021
 31
0.0
 11
13.5675855632
 21
-50.015584984
 31
0.0
 11
13.5317548164
 21
-49.867167637
 31
0.0
 11
13.5000566215
 21
-49.7155425358
 31
0.0
 11
13.4721690532
 21
-49.5587479832
 31
0.0
 11
13.4482329394
 21
-49.396455492
 31
0.0
 11
13.4286400995
 21
-49.2303768833
 31
0.0
 11
13.4136259373
 21
-49.062701757
 31
0.0
  0
SPLINE
  5
3BB
100
AcDbEntity
  8
0
100
AcDbSpline
 62
7
  6
CONTINUOUS
 70
0
 71
3
 72
17
 73
13
 74
11
 42
0.0000001
 43
0.0000001
 44
0.0000000001
 12
0.1300619935
 22
1.8473673837
 32
0.0
 13
0.5103374417
 23
1.780270143
 33
0.0
 40
0.0
 40
0.0
 40
0.0
 40
0.0
 40
0.0989862623
 40
0.1998098983
 40
0.3012031679
 40
0.4020589693
 40
0.5025145917
 40
0.6038648314
 40
0.7062244143
 40
0.8087916628
 40
0.9115570984
 40
1.0
 40
1.0
 40
1.0
 40
1.0
 10
13.4136259373
 20
-48.0476893328
 30
0.0
 10
13.4179173875
 20
-47.9867346687
 30
0.0
 10
13.4280371119
 20
-47.8637919156
 30
0.0
 10
13.4475739057
 20
-47.6788687806
 30
0.0
 10
13.4714479065
 20
-47.4932913996
 30
0.0
 10
13.4993700251
 20
-47.308510931
 30
0.0
 10
13.5312230831
 20
-47.1243951495
 30
0.0
 10
13.567084839
 20
-46.9400725846
 30
0.0
 10
13.6070016514
 20
-46.7552518942
 30
0.0
 10
13.6508481172
 20
-46.5704263878
 30
0.0
 10
13.6962050551
 20
-46.3948261404
 30
0.0
 10
13.7277937147
 20
-46.2810902592
 30
0.0
 10
13.7428389561
 20
-46.2286061735
 30
0.0
 11
13.4136259373
 21
-48.0476893328
 31
0.0
 11
13.4286411669
 21
-47.8649886718
 31
0.0
 11
13.4482362445
 21
-47.6793003705
 31
0.0
 11
13.4721748884
 21
-47.4930582776
 31
0.0
 11
13.5000638556
 21
-47.3083732308
 31
0.0
 11
13.5317619467
 21
-47.1250557611
 31
0.0
 11
13.5675924525
 21
-46.9408129049
 31
0.0
 11
13.6075969127
 21
-46.7555183121
 31
0.0
 11
13.6514291575
 21
-46.5706964205
 31
0.0
 11
13.6990135365
 21
-46.3864257155
 31
0.0
 11
13.7428389561
 21
-46.2286061735
 31
0.0
  0
SPLINE
  5
3BC
100
AcDbEntity
  8
0
100
AcDbSpline
 62
7
  6
CONTINUOUS
 70
0
 71
3
 72
9
 73
5
 74
3
 42
0.0000001
 43
0.0000001
 44
0.0000000001
 12
-0.1642762213
 22
-0.1282951516
 32
0.0
 13
-0.1864235189
 23
-0.0930907056
 33
0.0
 40
0.0
 40
0.0
 40
0.0
 40
0.0
 40
0.8496477921
 40
1.0
 40
1.0
 40
1.0
 40
1.0
 10
15.5651777907
 20
-50.8841913002
 30
0.0
 10
15.5186521478
 20
-50.9205265309
 30
0.0
 10
15.4603942176
 20
-50.9588028523
 30
0.0
 10
15.3987318829
 20
-50.9907841608
 30
0.0
 10
15.3893888204
 20
-50.9954496252
 30
0.0
 11
15.5651777907
 21
-50.8841913002
 31
0.0
 11
15.41719706
 21
-50.9810249364
 31
0.0
 11
15.3893888204
 21
-50.9954496252
 31
0.0
  0
SPLINE
  5
3BD
100
AcDbEntity
  8
0
100
AcDbSpline
 62
7
  6
CONTINUOUS
 70
0
 71
3
 72
12
 73
8
 74
6
 42
0.0000001
 43
0.0000001
 44
0.0000000001
 12
-0.7538005872
 22
0.1993050875
 32
0.0
 13
-0.7344507813
 23
0.2617630475
 33
0.0
 40
0.0
 40
0.0
 40
0.0
 40
0.0
 40
0.2031922224
 40
0.4037019467
 40
0.6024734814
 40
0.8012652599
 40
1.0
 40
1.0
 40
1.0
 40
1.0
 10
15.3217625712
 20
-49.6308903031
 30
0.0
 10
15.2707070991
 20
-49.6173912218
 30
0.0
 10
15.1694789355
 20
-49.5897738134
 30
0.0
 10
15.0190926923
 20
-49.5461338769
 30
0.0
 10
14.870535625
 20
-49.5003665348
 30
0.0
 10
14.7232122609
 20
-49.4522372815
 30
0.0
 10
14.625573512
 20
-49.4184355566
 30
0.0
 10
14.5769198836
 20
-49.4010950862
 30
0.0
 11
15.3217625712
 21
-49.6308903031
 31
0.0
 11
15.1689223821
 21
-49.5891787403
 31
0.0
 11
15.0187818451
 21
-49.5455961391
 31
0.0
 11
14.8706727853
 21
-49.4999518034
 31
0.0
 11
14.7233420762
 21
-49.4518035543
 31
0.0
 11
14.5769198836
 21
-49.4010950862
 31
0.0
  0
SPLINE
  5
3BE
100
AcDbEntity
  8
0
100
AcDbSpline
 62
7
  6
CONTINUOUS
 70
0
 71
3
 72
9
 73
5
 74
3
 42
0.0000001
 43
0.0000001
 44
0.0000000001
 12
-0.3146349819
 22
0.1676527526
 32
0.0
 13
-0.2882787499
 23
0.2094216566
 33
0.0
 40
0.0
 40
0.0
 40
0.0
 40
0.0
 40
0.2130096085
 40
1.0
 40
1.0
 40
1.0
 40
1.0
 10
14.3903894979
 20
16.8009004936
 30
0.0
 10
14.3680494064
 20
16.812804376
 30
0.0
 10
14.264088566
 20
16.8704186525
 30
0.0
 10
14.1644694871
 20
16.9355837643
 30
0.0
 10
14.088845285
 20
16.9905213748
 30
0.0
 11
14.3903894979
 21
16.8009004936
 31
0.0
 11
14.3239570897
 21
16.8376917697
 31
0.0
 11
14.088845285
 21
16.9905213748
 31
0.0
  0
SPLINE
  5
3BF
100
AcDbEntity
  8
0
100
AcDbSpline
 62
7
  6
CONTINUOUS
 70
0
 71
3
 72
13
 73
9
 74
7
 42
0.0000001
 43
0.0000001
 44
0.0000000001
 12
1.584558847
 22
-0.7699509634
 32
0.0
 13
0.6472363504
 23
-1.6373607944
 33
0.0
 40
0.0
 40
0.0
 40
0.0
 40
0.0
 40
0.0353752577
 40
0.2369877797
 40
0.443051789
 40
0.647685532
 40
0.844208842
 40
1.0
 40
1.0
 40
1.0
 40
1.0
 10
33.7404728558
 20
29.8510304068
 30
0.0
 10
33.7591575816
 20
29.8419513356
 30
0.0
 10
33.8833398977
 20
29.779098684
 30
0.0
 10
34.1025865744
 20
29.637651338
 30
0.0
 10
34.3722025998
 20
29.3986772605
 30
0.0
 10
34.604011341
 20
29.1269972766
 30
0.0
 10
34.7813974574
 20
28.8516321247
 30
0.0
 10
34.8703711215
 20
28.6645584428
 30
0.0
 10
34.9039823551
 20
28.5795296647
 30
0.0
 11
33.7404728558
 21
29.8510304068
 31
0.0
 11
33.7960771544
 21
29.8229018877
 31
0.0
 11
34.0949468059
 21
29.6319908463
 31
0.0
 11
34.3667765385
 21
29.3922120629
 31
0.0
 11
34.6005044306
 21
29.118462157
 31
0.0
 11
34.7871402677
 21
28.8274848649
 31
0.0
 11
34.9039823551
 21
28.5795296647
 31
0.0
  0
SPLINE
  5
3C0
100
AcDbEntity
  8
0
100
AcDbSpline
 62
7
  6
CONTINUOUS
 70
0
 71
3
 72
11
 73
7
 74
5
 42
0.0000001
 43
0.0000001
 44
0.0000000001
 12
0.7144798095
 22
-0.1961968943
 32
0.0
 13
0.5775904013
 23
-0.4633637099
 33
0.0
 40
0.0
 40
0.0
 40
0.0
 40
0.0
 40
0.2131331335
 40
0.5577191415
 40
0.8963406604
 40
1.0
 40
1.0
 40
1.0
 40
1.0
 10
34.0042096996
 20
30.3762241842
 30
0.0
 10
34.0549694731
 20
30.362285498
 30
0.0
 10
34.1858344403
 20
30.3187895195
 30
0.0
 10
34.3860494027
 20
30.223117717
 30
0.0
 10
34.5489069903
 20
30.1165612364
 30
0.0
 10
34.6353010551
 20
30.0497940782
 30
0.0
 10
34.6552586016
 20
30.0337834195
 30
0.0
 11
34.0042096996
 21
30.3762241842
 31
0.0
 11
34.1540716799
 21
30.326699989
 31
0.0
 11
34.3845314846
 21
30.217496119
 31
0.0
 11
34.594521326
 21
30.0807135103
 31
0.0
 11
34.6552586016
 21
30.0337834195
 31
0.0
  0
SPLINE
  5
3C1
100
AcDbEntity
  8
0
100
AcDbSpline
 62
7
  6
CONTINUOUS
 70
0
 71
3
 72
12
 73
8
 74
6
 42
0.0000001
 43
0.0000001
 44
0.0000000001
 12
0.7102149643
 22
-0.5697598852
 32
0.0
 13
0.3629237571
 23
-0.8345245342
 33
0.0
 40
0.0
 40
0.0
 40
0.0
 40
0.0
 40
0.180010187
 40
0.4265761774
 40
0.6489740782
 40
0.8415822725
 40
1.0
 40
1.0
 40
1.0
 40
1.0
 10
34.6552586016
 20
30.0337834195
 30
0.0
 10
34.6978739111
 20
29.9995958917
 30
0.0
 10
34.7957164691
 20
29.9146676934
 30
0.0
 10
34.9325339543
 20
29.7726409343
 30
0.0
 10
35.0568636762
 20
29.6146911472
 30
0.0
 10
35.1508475351
 20
29.4680245879
 30
0.0
 10
35.1993090122
 20
29.3729515114
 30
0.0
 10
35.2184735311
 20
29.3288836847
 30
0.0
 11
34.6552586016
 21
30.0337834195
 31
0.0
 11
34.7790419632
 21
29.9264178009
 31
0.0
 11
34.9346616628
 21
29.7647718932
 31
0.0
 11
35.0595980088
 21
29.6055499158
 31
0.0
 11
35.1537201596
 21
29.4576869072
 31
0.0
 11
35.2184735311
 21
29.3288836847
 31
0.0
  0
SPLINE
  5
3C2
100
AcDbEntity
  8
0
100
AcDbSpline
 62
7
  6
CONTINUOUS
 70
0
 71
3
 72
15
 73
11
 74
9
 42
0.0000001
 43
0.0000001
 44
0.0000000001
 12
-2.939478045
 22
2.135399719
 32
0.0
 13
0.0
 23
3.6332441615
 33
0.0
 40
0.0
 40
0.0
 40
0.0
 40
0.0
 40
0.1166507875
 40
0.2400441641
 40
0.3682594671
 40
0.499036013
 40
0.6299439153
 40
0.7585448031
 40
0.8825520476
 40
1.0
 40
1.0
 40
1.0
 40
1.0
 10
13.8060025725
 20
16.8491000185
 30
0.0
 10
13.6917050963
 20
16.9321320382
 30
0.0
 10
13.468932896
 20
17.1205352523
 30
0.0
 10
13.1663834759
 20
17.449534449
 30
0.0
 10
12.8931261723
 20
17.8246115487
 30
0.0
 10
12.6572422443
 20
18.2346918771
 30
0.0
 10
12.4656243539
 20
18.6677386363
 30
0.0
 10
12.3239149417
 20
19.1110619077
 30
0.0
 10
12.2362897647
 20
19.5515575827
 30
0.0
 10
12.2150123149
 20
19.8442303677
 30
0.0
 10
12.2150123149
 20
19.9864693968
 30
0.0
 11
13.8060025725
 21
16.8491000185
 31
0.0
 11
13.4812264223
 21
17.1213949259
 31
0.0
 11
13.1768172106
 21
17.4505214953
 31
0.0
 11
12.9019148663
 21
17.8265976556
 31
0.0
 11
12.6647733703
 21
18.2383316682
 31
0.0
 11
12.4725129289
 21
18.6733611622
 31
0.0
 11
12.3309061885
 21
19.1186243166
 31
0.0
 11
12.2442049112
 21
19.5607520436
 31
0.0
 11
12.2150123149
 21
19.9864693968
 31
0.0
  0
SPLINE
  5
3C3
100
AcDbEntity
  8
0
100
AcDbSpline
 62
7
  6
CONTINUOUS
 70
0
 71
3
 72
13
 73
9
 74
7
 42
0.0000001
 43
0.0000001
 44
0.0000000001
 12
0.0
 22
1.733890101
 32
0.0
 13
1.5560297276
 23
0.7770044582
 33
0.0
 40
0.0
 40
0.0
 40
0.0
 40
0.0
 40
0.2293097471
 40
0.4403083728
 40
0.6335453992
 40
0.8121488115
 40
0.9819867274
 40
1.0
 40
1.0
 40
1.0
 40
1.0
 10
12.2150123149
 20
19.9864693968
 30
0.0
 10
12.2150123149
 20
20.1190020303
 30
0.0
 10
12.2322547107
 20
20.3740315978
 30
0.0
 10
12.3166566282
 20
20.7322671929
 30
0.0
 10
12.4571905658
 20
21.0412460222
 30
0.0
 10
12.6514171543
 20
21.291041365
 30
0.0
 10
12.8236968247
 20
21.4190528422
 30
0.0
 10
12.9203800434
 20
21.4691978109
 30
0.0
 10
12.9297231059
 20
21.4738632753
 30
0.0
 11
12.2150123149
 21
19.9864693968
 31
0.0
 11
12.2442049112
 21
20.3829941536
 31
0.0
 11
12.3309061885
 21
20.7384206033
 31
0.0
 11
12.4725129289
 21
21.0420770174
 31
0.0
 11
12.6647733703
 21
21.28484607
 31
0.0
 11
12.9019148663
 21
21.4594385865
 31
0.0
 11
12.9297231059
 21
21.4738632753
 31
0.0
  0
SPLINE
  5
3C4
100
AcDbEntity
  8
0
100
AcDbSpline
 62
7
  6
CONTINUOUS
 70
0
 71
3
 72
11
 73
7
 74
5
 42
0.0000001
 43
0.0000001
 44
0.0000000001
 12
0.3585770888
 22
-0.0893745271
 32
0.0
 13
0.3641339119
 23
-0.0630224474
 33
0.0
 40
0.0
 40
0.0
 40
0.0
 40
0.0
 40
0.2843614962
 40
0.5413138567
 40
0.7772617616
 40
1.0
 40
1.0
 40
1.0
 40
1.0
 10
13.0351514185
 20
19.5259884242
 30
0.0
 10
13.0691399243
 20
19.5175168661
 30
0.0
 10
13.1340376773
 20
19.5021704648
 30
0.0
 10
13.2276588576
 20
19.4820905744
 30
0.0
 10
13.3141686937
 20
19.4651236276
 30
0.0
 10
13.3697765954
 20
19.4550985563
 30
0.0
 10
13.3968121108
 20
19.4504193867
 30
0.0
 11
13.0351514185
 21
19.5259884242
 31
0.0
 11
13.1374074939
 21
19.5017692693
 31
0.0
 11
13.2302470895
 21
19.481832631
 31
0.0
 11
13.3158078015
 21
19.4650353147
 31
0.0
 11
13.3968121108
 21
19.4504193867
 31
0.0
  0
SPLINE
  5
3C5
100
AcDbEntity
  8
0
100
AcDbSpline
 62
7
  6
CONTINUOUS
 70
0
 71
3
 72
12
 73
8
 74
6
 42
0.0000001
 43
0.0000001
 44
0.0000000001
 12
-0.4846905088
 22
0.3399843163
 32
0.0
 13
-0.4301881365
 23
0.4067583948
 33
0.0
 40
0.0
 40
0.0
 40
0.0
 40
0.0
 40
0.2112889118
 40
0.4160796887
 40
0.6146197839
 40
0.8089140402
 40
1.0
 40
1.0
 40
1.0
 40
1.0
 10
13.0351514185
 20
19.5259884242
 30
0.0
 10
13.0010148418
 20
19.5499333963
 30
0.0
 10
12.9344149402
 20
19.5979841005
 30
0.0
 10
12.8380454535
 20
19.6716642336
 30
0.0
 10
12.7464193786
 20
19.7459503972
 30
0.0
 10
12.6590691422
 20
19.8211356827
 30
0.0
 10
12.6029619557
 20
19.8725011619
 30
0.0
 10
12.5755609847
 20
19.898409768
 30
0.0
 11
13.0351514185
 21
19.5259884242
 31
0.0
 11
12.9337256635
 21
19.599206074
 31
0.0
 11
12.8374270594
 21
19.6728734811
 31
0.0
 11
12.7461421204
 21
19.7469254155
 31
0.0
 11
12.6589813769
 21
19.8219921006
 31
0.0
 11
12.5755609847
 21
19.898409768
 31
0.0
  0
SPLINE
  5
3C6
100
AcDbEntity
  8
0
100
AcDbSpline
 62
7
  6
CONTINUOUS
 70
0
 71
3
 72
18
 73
14
 74
12
 42
0.0000001
 43
0.0000001
 44
0.0000000001
 12
0.1278471796
 22
-1.688061552
 32
0.0
 13
0.6956974518
 23
-1.543341103
 33
0.0
 40
0.0
 40
0.0
 40
0.0
 40
0.0
 40
0.0994487293
 40
0.1982410428
 40
0.2951515135
 40
0.389225246
 40
0.480723723
 40
0.5709101839
 40
0.6599274556
 40
0.7471425123
 40
0.8326363975
 40
0.9167966359
 40
1.0
 40
1.0
 40
1.0
 40
1.0
 10
14.1207327184
 20
18.1337263476
 30
0.0
 10
14.1249707983
 20
18.0777678222
 30
0.0
 10
14.1349276815
 20
17.9663278744
 30
0.0
 10
14.1544097836
 20
17.8008956918
 30
0.0
 10
14.1782379535
 20
17.6390965906
 30
0.0
 10
14.2061219533
 20
17.4821258543
 30
0.0
 10
14.2379361876
 20
17.3297781698
 30
0.0
 10
14.2737561886
 20
17.1812547938
 30
0.0
 10
14.3136368283
 20
17.0362738947
 30
0.0
 10
14.3574547429
 20
16.8952037141
 30
0.0
 10
14.4050847837
 20
16.7582716802
 30
0.0
 10
14.4565972128
 20
16.6251778355
 30
0.0
 10
14.4938145643
 20
16.5383503518
 30
0.0
 10
14.5131093537
 20
16.495546628
 30
0.0
 11
14.1207327184
 21
18.1337263476
 31
0.0
 11
14.1357479481
 21
17.9660409163
 31
0.0
 11
14.1553430257
 21
17.7999476926
 31
0.0
 11
14.1792816696
 21
17.6376442436
 31
0.0
 11
14.2071706367
 21
17.480848164
 31
0.0
 11
14.2388687279
 21
17.3292287854
 31
0.0
 11
14.2746992336
 21
17.1808164349
 31
0.0
 11
14.3147036939
 21
17.0355263024
 31
0.0
 11
14.3585359387
 21
16.8945366555
 31
0.0
 11
14.4061203177
 21
16.7578503296
 31
0.0
 11
14.4575815579
 21
16.6249942737
 31
0.0
 11
14.5131093537
 21
16.495546628
 31
0.0
  0
SPLINE
  5
3C7
100
AcDbEntity
  8
0
100
AcDbSpline
 62
7
  6
CONTINUOUS
 70
0
 71
3
 72
12
 73
8
 74
6
 42
0.0000001
 43
0.0000001
 44
0.0000000001
 12
-0.7538005872
 22
0.1993050875
 32
0.0
 13
-0.7344507813
 23
0.2617630475
 33
0.0
 40
0.0
 40
0.0
 40
0.0
 40
0.0
 40
0.2031922224
 40
0.4037019467
 40
0.6024734814
 40
0.8012652599
 40
1.0
 40
1.0
 40
1.0
 40
1.0
 10
15.3217625712
 20
18.5253089748
 30
0.0
 10
15.2707070991
 20
18.538808056
 30
0.0
 10
15.1694789355
 20
18.5664254645
 30
0.0
 10
15.0190926923
 20
18.6100654009
 30
0.0
 10
14.870535625
 20
18.6558327431
 30
0.0
 10
14.7232122609
 20
18.7039619964
 30
0.0
 10
14.625573512
 20
18.7377637212
 30
0.0
 10
14.5769198836
 20
18.7551041916
 30
0.0
 11
15.3217625712
 21
18.5253089748
 31
0.0
 11
15.1689223821
 21
18.5670205376
 31
0.0
 11
15.0187818451
 21
18.6106031387
 31
0.0
 11
14.8706727853
 21
18.6562474745
 31
0.0
 11
14.7233420762
 21
18.7043957236
 31
0.0
 11
14.5769198836
 21
18.7551041916
 31
0.0
  0
SPLINE
  5
3C8
100
AcDbEntity
  8
0
100
AcDbSpline
 62
7
  6
CONTINUOUS
 70
0
 71
3
 72
17
 73
13
 74
11
 42
0.0000001
 43
0.0000001
 44
0.0000000001
 12
-0.4446982604
 22
-1.6445147598
 32
0.0
 13
-0.1196409239
 23
-1.6993491691
 33
0.0
 40
0.0
 40
0.0
 40
0.0
 40
0.0
 40
0.0090529507
 40
0.1207745843
 40
0.2322793774
 40
0.3435569181
 40
0.4537381009
 40
0.5629470783
 40
0.67258589
 40
0.7828027636
 40
0.8923984533
 40
1.0
 40
1.0
 40
1.0
 40
1.0
 10
14.410130286
 20
20.8248779695
 30
0.0
 10
14.4087883422
 20
20.8199153991
 30
0.0
 10
14.3909378165
 20
20.753696071
 30
0.0
 10
14.3579491665
 20
20.6259787902
 30
0.0
 10
14.3141018184
 20
20.4411471792
 30
0.0
 10
14.2741845929
 20
20.2563214479
 30
0.0
 10
14.2383226558
 20
20.0719939603
 30
0.0
 10
14.2064700318
 20
19.8878754489
 30
0.0
 10
14.1785493997
 20
19.7030984792
 30
0.0
 10
14.15467762
 20
19.517532174
 30
0.0
 10
14.1351427578
 20
19.332622956
 30
0.0
 10
14.1250239013
 20
19.2096896381
 30
0.0
 10
14.1207327184
 20
19.1487387718
 30
0.0
 11
14.410130286
 21
20.8248779695
 31
0.0
 11
14.4061162051
 21
20.8099870847
 31
0.0
 11
14.3585300666
 21
20.6257079803
 31
0.0
 11
14.314696927
 21
20.4408799254
 31
0.0
 11
14.2746923444
 21
20.2555816247
 31
0.0
 11
14.2388615976
 21
20.071333531
 31
0.0
 11
14.2071634027
 21
19.8880102349
 31
0.0
 11
14.1792758344
 21
19.703328114
 31
0.0
 11
14.1553397206
 21
19.517099509
 31
0.0
 11
14.1357468807
 21
19.3314280604
 31
0.0
 11
14.1207327184
 21
19.1487387718
 31
0.0
  0
SPLINE
  5
3C9
100
AcDbEntity
  8
0
100
AcDbSpline
 62
7
  6
CONTINUOUS
 70
0
 71
3
 72
10
 73
6
 74
4
 42
0.0000001
 43
0.0000001
 44
0.0000000001
 12
-0.80417572
 22
-0.4015656697
 32
0.0
 13
-0.8643416125
 23
0.2364359748
 33
0.0
 40
0.0
 40
0.0
 40
0.0
 40
0.0
 40
0.2920401134
 40
0.6328640805
 40
1.0
 40
1.0
 40
1.0
 40
1.0
 10
15.3893888204
 20
16.55453187
 30
0.0
 10
15.3111049642
 20
16.5154407754
 30
0.0
 10
15.1305073367
 20
16.4524835408
 30
0.0
 10
14.8293077723
 20
16.4305182503
 30
0.0
 10
14.6188863046
 20
16.466611915
 30
0.0
 10
14.5131093537
 20
16.495546628
 30
0.0
 11
15.3893888204
 21
16.55453187
 31
0.0
 11
15.1422947156
 21
16.4677827428
 31
0.0
 11
14.8378855039
 21
16.4430653851
 31
0.0
 11
14.5131093537
 21
16.495546628
 31
0.0
  0
SPLINE
  5
3CA
100
AcDbEntity
  8
0
100
AcDbSpline
 62
7
  6
CONTINUOUS
 70
0
 71
3
 72
14
 73
10
 74
8
 42
0.0000001
 43
0.0000001
 44
0.0000000001
 12
1.4647940371
 22
-0.4037498371
 32
0.0
 13
0.7372949897
 23
-1.326531264
 33
0.0
 40
0.0
 40
0.0
 40
0.0
 40
0.0
 40
0.1064695202
 40
0.2762083011
 40
0.4428679485
 40
0.6025812754
 40
0.7512219685
 40
0.884839082
 40
1.0
 40
1.0
 40
1.0
 40
1.0
 10
33.9348939296
 20
30.340485525
 30
0.0
 10
33.9868792357
 20
30.3261565079
 30
0.0
 10
34.1196940517
 20
30.2816864633
 30
0.0
 10
34.3221950067
 20
30.1839890608
 30
0.0
 10
34.5321346337
 20
30.045261634
 30
0.0
 10
34.7159374775
 20
29.8896787073
 30
0.0
 10
34.8703992915
 20
29.727459638
 30
0.0
 10
34.9939065527
 20
29.5684296619
 30
0.0
 10
35.0611584575
 20
29.4617598301
 30
0.0
 10
35.0894609801
 20
29.4108383108
 30
0.0
 11
33.9348939296
 21
30.340485525
 31
0.0
 11
34.0883024102
 21
30.2894269175
 31
0.0
 11
34.3206841972
 21
30.1782542966
 31
0.0
 11
34.5319909999
 21
30.0392424308
 31
0.0
 11
34.7171232399
 21
29.8827842872
 31
0.0
 11
34.8726196973
 21
29.7193528054
 31
0.0
 11
34.9967397428
 21
29.5589905211
 31
0.0
 11
35.0894609801
 21
29.4108383108
 31
0.0
  0
SPLINE
  5
3CB
100
AcDbEntity
  8
0
100
AcDbSpline
 62
7
  6
CONTINUOUS
 70
0
 71
3
 72
12
 73
8
 74
6
 42
0.0000001
 43
0.0000001
 44
0.0000000001
 12
-0.4846905088
 22
0.3399843163
 32
0.0
 13
-0.4301881365
 23
0.4067583948
 33
0.0
 40
0.0
 40
0.0
 40
0.0
 40
0.0
 40
0.2112889118
 40
0.4160796887
 40
0.6146197839
 40
0.8089140402
 40
1.0
 40
1.0
 40
1.0
 40
1.0
 10
13.0351514185
 20
18.9197706416
 30
0.0
 10
13.0010148418
 20
18.9437156136
 30
0.0
 10
12.9344149402
 20
18.9917663178
 30
0.0
 10
12.8380454535
 20
19.065446451
 30
0.0
 10
12.7464193786
 20
19.1397326146
 30
0.0
 10
12.6590691422
 20
19.2149179001
 30
0.0
 10
12.6029619557
 20
19.2662833793
 30
0.0
 10
12.5755609847
 20
19.2921919854
 30
0.0
 11
13.0351514185
 21
18.9197706416
 31
0.0
 11
12.9337256635
 21
18.9929882914
 31
0.0
 11
12.8374270594
 21
19.0666556984
 31
0.0
 11
12.7461421204
 21
19.1407076329
 31
0.0
 11
12.6589813769
 21
19.215774318
 31
0.0
 11
12.5755609847
 21
19.2921919854
 31
0.0
  0
SPLINE
  5
3CC
100
AcDbEntity
  8
0
100
AcDbSpline
 62
7
  6
CONTINUOUS
 70
0
 71
3
 72
18
 73
14
 74
12
 42
0.0000001
 43
0.0000001
 44
0.0000000001
 12
-0.6956974515
 22
1.5433411025
 32
0.0
 13
-0.1278471795
 23
1.6880615514
 33
0.0
 40
0.0
 40
0.0
 40
0.0
 40
0.0
 40
0.0832064168
 40
0.1673706447
 40
0.2528685759
 40
0.3400867613
 40
0.4291060942
 40
0.5192954576
 40
0.610797256
 40
0.7048699557
 40
0.8017738049
 40
0.9005573899
 40
1.0
 40
1.0
 40
1.0
 40
1.0
 10
13.8060025725
 20
16.8491000185
 30
0.0
 10
13.7867070752
 20
16.8919053129
 30
0.0
 10
13.7494882162
 20
16.9787364769
 30
0.0
 10
13.6979738096
 20
17.1118362696
 30
0.0
 10
13.6503421943
 20
17.2487744298
 30
0.0
 10
13.6065234132
 20
17.3898498013
 30
0.0
 10
13.5666423654
 20
17.5348353258
 30
0.0
 10
13.5308221824
 20
17.6833634692
 30
0.0
 10
13.4990084027
 20
17.8357142429
 30
0.0
 10
13.4711259234
 20
17.9926827644
 30
0.0
 10
13.4472999875
 20
18.1544728449
 30
0.0
 10
13.4278198009
 20
18.3198930484
 30
0.0
 10
13.4178637563
 20
18.431324656
 30
0.0
 10
13.4136259373
 20
18.4872797382
 30
0.0
 11
13.8060025725
 21
16.8491000185
 31
0.0
 11
13.7504728249
 21
16.9785524504
 31
0.0
 11
13.6990094239
 21
17.111414912
 31
0.0
 11
13.6514232854
 21
17.2481078779
 31
0.0
 11
13.6075901458
 21
17.3891027931
 31
0.0
 11
13.5675855632
 21
17.5343965112
 31
0.0
 11
13.5317548164
 21
17.6828138582
 31
0.0
 11
13.5000566215
 21
17.8344389594
 31
0.0
 11
13.4721690532
 21
17.991233512
 31
0.0
 11
13.4482329394
 21
18.1535260032
 31
0.0
 11
13.4286400995
 21
18.3196046119
 31
0.0
 11
13.4136259373
 21
18.4872797382
 31
0.0
  0
SPLINE
  5
3CD
100
AcDbEntity
  8
0
100
AcDbSpline
 62
7
  6
CONTINUOUS
 70
0
 71
3
 72
17
 73
13
 74
11
 42
0.0000001
 43
0.0000001
 44
0.0000000001
 12
0.1300619935
 22
1.8473673837
 32
0.0
 13
0.5103374417
 23
1.780270143
 33
0.0
 40
0.0
 40
0.0
 40
0.0
 40
0.0
 40
0.0989862623
 40
0.1998098983
 40
0.3012031679
 40
0.4020589693
 40
0.5025145917
 40
0.6038648314
 40
0.7062244143
 40
0.8087916628
 40
0.9115570984
 40
1.0
 40
1.0
 40
1.0
 40
1.0
 10
13.4136259373
 20
19.5022921624
 30
0.0
 10
13.4179173875
 20
19.5632468265
 30
0.0
 10
13.4280371119
 20
19.6861895796
 30
0.0
 10
13.4475739057
 20
19.8711127146
 30
0.0
 10
13.4714479065
 20
20.0566900956
 30
0.0
 10
13.4993700251
 20
20.2414705642
 30
0.0
 10
13.5312230831
 20
20.4255863456
 30
0.0
 10
13.567084839
 20
20.6099089106
 30
0.0
 10
13.6070016514
 20
20.794729601
 30
0.0
 10
13.6508481172
 20
20.9795551074
 30
0.0
 10
13.6962050551
 20
21.1551553548
 30
0.0
 10
13.7277937147
 20
21.268891236
 30
0.0
 10
13.7428389561
 20
21.3213753217
 30
0.0
 11
13.4136259373
 21
19.5022921624
 31
0.0
 11
13.4286411669
 21
19.6849928234
 31
0.0
 11
13.4482362445
 21
19.8706811247
 31
0.0
 11
13.4721748884
 21
20.0569232176
 31
0.0
 11
13.5000638556
 21
20.2416082644
 31
0.0
 11
13.5317619467
 21
20.4249257341
 31
0.0
 11
13.5675924525
 21
20.6091685903
 31
0.0
 11
13.6075969127
 21
20.7944631831
 31
0.0
 11
13.6514291575
 21
20.9792850747
 31
0.0
 11
13.6990135365
 21
21.1635557797
 31
0.0
 11
13.7428389561
 21
21.3213753217
 31
0.0
  0
SPLINE
  5
3CE
100
AcDbEntity
  8
0
100
AcDbSpline
 62
7
  6
CONTINUOUS
 70
0
 71
3
 72
9
 73
5
 74
3
 42
0.0000001
 43
0.0000001
 44
0.0000000001
 12
-0.1642762213
 22
-0.1282951516
 32
0.0
 13
-0.1864235189
 23
-0.0930907056
 33
0.0
 40
0.0
 40
0.0
 40
0.0
 40
0.0
 40
0.8496477921
 40
1.0
 40
1.0
 40
1.0
 40
1.0
 10
15.5651777907
 20
16.665790195
 30
0.0
 10
15.5186521478
 20
16.6294549643
 30
0.0
 10
15.4603942176
 20
16.5911786429
 30
0.0
 10
15.3987318829
 20
16.5591973344
 30
0.0
 10
15.3893888204
 20
16.55453187
 30
0.0
 11
15.5651777907
 21
16.665790195
 31
0.0
 11
15.41719706
 21
16.5689565588
 31
0.0
 11
15.3893888204
 21
16.55453187
 31
0.0
  0
SPLINE
  5
3CF
100
AcDbEntity
  8
0
100
AcDbSpline
 62
7
  6
CONTINUOUS
 70
0
 71
3
 72
12
 73
8
 74
6
 42
0.0000001
 43
0.0000001
 44
0.0000000001
 12
-0.7538005872
 22
0.1993050875
 32
0.0
 13
-0.7344507813
 23
0.2617630475
 33
0.0
 40
0.0
 40
0.0
 40
0.0
 40
0.0
 40
0.2031922224
 40
0.4037019467
 40
0.6024734814
 40
0.8012652599
 40
1.0
 40
1.0
 40
1.0
 40
1.0
 10
15.3217625712
 20
17.9190911921
 30
0.0
 10
15.2707070991
 20
17.9325902733
 30
0.0
 10
15.1694789355
 20
17.9602076818
 30
0.0
 10
15.0190926923
 20
18.0038476183
 30
0.0
 10
14.870535625
 20
18.0496149604
 30
0.0
 10
14.7232122609
 20
18.0977442137
 30
0.0
 10
14.625573512
 20
18.1315459386
 30
0.0
 10
14.5769198836
 20
18.148886409
 30
0.0
 11
15.3217625712
 21
17.9190911921
 31
0.0
 11
15.1689223821
 21
17.9608027549
 31
0.0
 11
15.0187818451
 21
18.0043853561
 31
0.0
 11
14.8706727853
 21
18.0500296918
 31
0.0
 11
14.7233420762
 21
18.0981779409
 31
0.0
 11
14.5769198836
 21
18.148886409
 31
0.0
  0
SPLINE
  5
3D0
100
AcDbEntity
  8
0
100
AcDbSpline
 62
7
  6
CONTINUOUS
 70
0
 71
3
 72
8
 73
4
 74
2
 42
0.0000001
 43
0.0000001
 44
0.0000000001
 12
0.0
 22
-0.105419825
 32
0.0
 13
-0.0113739069
 23
-0.1049567692
 33
0.0
 40
0.0
 40
0.0
 40
0.0
 40
0.0
 40
1.0
 40
1.0
 40
1.0
 40
1.0
 10
35.0798661799
 20
28.7672458999
 30
0.0
 10
35.0798661799
 20
28.7321059582
 30
0.0
 10
35.0781322293
 20
28.6969038593
 30
0.0
 10
35.074340927
 20
28.6619182695
 30
0.0
 11
35.0798661799
 21
28.7672458999
 31
0.0
 11
35.074340927
 21
28.6619182695
 31
0.0
  0
SPLINE
  5
3D1
100
AcDbEntity
  8
0
100
AcDbSpline
 62
7
  6
CONTINUOUS
 70
0
 71
3
 72
10
 73
6
 74
4
 42
0.0000001
 43
0.0000001
 44
0.0000000001
 12
0.5518436653
 22
-0.3357149291
 32
0.0
 13
0.4210028359
 23
-0.4898903518
 33
0.0
 40
0.0
 40
0.0
 40
0.0
 40
0.0
 40
0.3534105167
 40
0.6910610321
 40
1.0
 40
1.0
 40
1.0
 40
1.0
 10
34.5992712629
 20
29.8279326337
 30
0.0
 10
34.6642803812
 20
29.7883842382
 30
0.0
 10
34.7869446353
 20
29.7034802657
 30
0.0
 10
34.9500865567
 20
29.5624468549
 30
0.0
 10
35.0461062529
 20
29.4612870507
 30
0.0
 10
35.0894609801
 20
29.4108383108
 30
0.0
 11
34.5992712629
 21
29.8279326337
 31
0.0
 11
34.7871468068
 21
29.6982594696
 31
0.0
 11
34.9521892384
 21
29.5556790457
 31
0.0
 11
35.0894609801
 21
29.4108383108
 31
0.0
  0
SPLINE
  5
3D2
100
AcDbEntity
  8
0
100
AcDbSpline
 62
7
  6
CONTINUOUS
 70
0
 71
3
 72
9
 73
5
 74
3
 42
0.0000001
 43
0.0000001
 44
0.0000000001
 12
0.1283787156
 22
-0.0829485079
 32
0.0
 13
0.1302838867
 23
-0.0799228282
 33
0.0
 40
0.0
 40
0.0
 40
0.0
 40
0.0
 40
0.5226635613
 40
1.0
 40
1.0
 40
1.0
 40
1.0
 10
35.0894609801
 20
29.4108383108
 30
0.0
 10
35.1118272723
 20
29.3963869233
 30
0.0
 10
35.1546382381
 20
29.3687658006
 30
0.0
 10
35.1977437823
 20
29.3416003774
 30
0.0
 10
35.2184735311
 20
29.3288836847
 30
0.0
 11
35.0894609801
 21
29.4108383108
 31
0.0
 11
35.1566592081
 21
29.3676383013
 31
0.0
 11
35.2184735311
 21
29.3288836847
 31
0.0
  0
SPLINE
  5
3D3
100
AcDbEntity
  8
0
100
AcDbSpline
 62
7
  6
CONTINUOUS
 70
0
 71
3
 72
11
 73
7
 74
5
 42
0.0000001
 43
0.0000001
 44
0.0000000001
 12
0.8643029643
 22
0.2638786714
 32
0.0
 13
0.835364039
 23
-0.3425717307
 33
0.0
 40
0.0
 40
0.0
 40
0.0
 40
0.0
 40
0.2087852255
 40
0.4678669221
 40
0.7311781968
 40
1.0
 40
1.0
 40
1.0
 40
1.0
 10
33.7152309527
 20
29.8934600232
 30
0.0
 10
33.7753821824
 20
29.9118246791
 30
0.0
 10
33.9140545904
 20
29.941235445
 30
0.0
 10
34.1353530819
 20
29.9465616882
 30
0.0
 10
34.3716454417
 20
29.9089952412
 30
0.0
 10
34.5244165738
 20
29.8586295505
 30
0.0
 10
34.5992712629
 20
29.8279326337
 30
0.0
 11
33.7152309527
 21
29.8934600232
 31
0.0
 11
33.8997310011
 21
29.9328956237
 31
0.0
 11
34.1335570483
 21
29.9394941512
 31
0.0
 11
34.368494475
 21
29.9031110934
 31
0.0
 11
34.5992712629
 21
29.8279326337
 31
0.0
  0
SPLINE
  5
3D4
100
AcDbEntity
  8
0
100
AcDbSpline
 62
7
  6
CONTINUOUS
 70
0
 71
3
 72
14
 73
10
 74
8
 42
0.0000001
 43
0.0000001
 44
0.0000000001
 12
0.0
 22
1.1946006046
 32
0.0
 13
-0.8817073386
 23
0.8060166088
 33
0.0
 40
0.0
 40
0.0
 40
0.0
 40
0.0
 40
0.1332233404
 40
0.2740144691
 40
0.4200159045
 40
0.5684890876
 40
0.7165250722
 40
0.8612446014
 40
1.0
 40
1.0
 40
1.0
 40
1.0
 10
35.0798661799
 20
28.7672458999
 30
0.0
 10
35.0798661799
 20
28.8202954609
 30
0.0
 10
35.0717253591
 20
28.9295049862
 30
0.0
 10
35.0382796445
 20
29.0937572803
 30
0.0
 10
34.9842582793
 20
29.2588371242
 30
0.0
 10
34.9113342863
 20
29.4196213926
 30
0.0
 10
34.8217486644
 20
29.571176856
 30
0.0
 10
34.7182890764
 20
29.7087991138
 30
0.0
 10
34.640051814
 20
29.7906529151
 30
0.0
 10
34.5992712629
 20
29.8279326337
 30
0.0
 11
35.0798661799
 21
28.7672458999
 31
0.0
 11
35.0687167651
 21
28.9260035575
 31
0.0
 11
35.035620121
 21
29.0909041584
 31
0.0
 11
34.9816199603
 21
29.2567475115
 31
0.0
 11
34.9084191947
 21
29.4183036957
 31
0.0
 11
34.8183262329
 21
29.5704779871
 31
0.0
 11
34.7141821841
 21
29.7084715226
 31
0.0
 11
34.5992712629
 21
29.8279326337
 31
0.0
  0
SPLINE
  5
3D5
100
AcDbEntity
  8
0
100
AcDbSpline
 62
7
  6
CONTINUOUS
 70
0
 71
3
 72
12
 73
8
 74
6
 42
0.0000001
 43
0.0000001
 44
0.0000000001
 12
1.3921005155
 22
-0.8098885419
 32
0.0
 13
0.5927404937
 23
-1.4972112632
 33
0.0
 40
0.0
 40
0.0
 40
0.0
 40
0.0
 40
0.1663977601
 40
0.391703563
 40
0.6154455446
 40
0.8303197591
 40
1.0
 40
1.0
 40
1.0
 40
1.0
 10
33.8015110789
 20
29.7453862109
 30
0.0
 10
33.8787252148
 20
29.7004649978
 30
0.0
 10
34.053639278
 20
29.5830060325
 30
0.0
 10
34.3014919217
 20
29.3633219214
 30
0.0
 10
34.5333006629
 20
29.0916419376
 30
0.0
 10
34.710495006
 20
28.8165744847
 30
0.0
 10
34.7993562561
 20
28.6298424997
 30
0.0
 10
34.832881706
 20
28.5451601105
 30
0.0
 11
33.8015110789
 21
29.7453862109
 31
0.0
 11
34.0242361277
 21
29.5966355073
 31
0.0
 11
34.2960658604
 21
29.3568567238
 31
0.0
 11
34.5297937525
 21
29.083106818
 31
0.0
 11
34.7164295896
 21
28.7921295258
 31
0.0
 11
34.832881706
 21
28.5451601105
 31
0.0
  0
SPLINE
  5
3D6
100
AcDbEntity
  8
RACCORDO
100
AcDbSpline
 62
7
  6
CONTINUOUS
 70
0
 71
3
 72
10
 73
6
 74
4
 42
0.0000001
 43
0.0000001
 44
0.0000000001
 12
9.118926683
 22
4.3104578469
 32
0.0
 13
9.0885208111
 23
-4.2987561682
 33
0.0
 40
0.0
 40
0.0
 40
0.0
 40
0.0
 40
0.3146643885
 40
0.6565836724
 40
1.0
 40
1.0
 40
1.0
 40
1.0
 10
-31.1178882407
 20
63.480362079
 30
0.0
 10
-30.161421078
 20
63.9324779398
 30
0.0
 10
-27.9918405334
 20
64.5071993485
 30
0.0
 10
-24.6021752406
 20
64.2417433639
 30
0.0
 10
-22.4197269413
 20
63.4612130056
 30
0.0
 10
-21.3793447947
 20
62.9691253202
 30
0.0
 11
-31.1178882407
 21
63.480362079
 31
0.0
 11
-28.069034125
 21
64.3113119218
 31
0.0
 11
-24.6422488203
 21
64.093142863
 31
0.0
 11
-21.3793447947
 21
62.9691253202
 31
0.0
  0
SPLINE
  5
3D7
100
AcDbEntity
  8
RACCORDO
100
AcDbSpline
 62
7
  6
CONTINUOUS
 70
0
 71
3
 72
11
 73
7
 74
5
 42
0.0000001
 43
0.0000001
 44
0.0000000001
 12
-0.2116140706
 22
-13.7415759161
 32
0.0
 13
-12.1886191289
 23
-6.4639319471
 33
0.0
 40
0.0
 40
0.0
 40
0.0
 40
0.0
 40
0.2792733401
 40
0.553784476
 40
0.7997866822
 40
1.0
 40
1.0
 40
1.0
 40
1.0
 10
38.1713716614
 20
-39.6116806045
 30
0.0
 10
38.1516722719
 20
-40.8908992058
 30
0.0
 10
37.8992360261
 20
-43.4318962726
 30
0.0
 10
36.7419025692
 20
-46.9468390303
 30
0.0
 10
34.8344775477
 20
-49.7069616052
 30
0.0
 10
33.1717328964
 20
-50.955132582
 30
0.0
 10
32.3582916047
 20
-51.3865210024
 30
0.0
 11
38.1713716614
 21
-39.6116806045
 31
0.0
 11
37.7574651349
 21
-43.426485084
 31
0.0
 11
36.5269964587
 21
-46.9903040072
 31
0.0
 11
34.5668507075
 21
-49.7422992336
 31
0.0
 11
32.3582916047
 21
-51.3865210024
 31
0.0
  0
SPLINE
  5
3D8
100
AcDbEntity
  8
RACCORDO
100
AcDbSpline
 62
7
  6
CONTINUOUS
 70
0
 71
3
 72
14
 73
10
 74
8
 42
0.0000001
 43
0.0000001
 44
0.0000000001
 12
28.5560527372
 22
-14.2780263685
 32
0.0
 13
-0.0000000002
 23
-31.9266375448
 33
0.0
 40
0.0
 40
0.0
 40
0.0
 40
0.0
 40
0.1286131171
 40
0.2678549271
 40
0.4147078145
 40
0.5654326234
 40
0.7158878199
 40
0.861950715
 40
1.0
 40
1.0
 40
1.0
 40
1.0
 10
22.8092082204
 20
40.8795470843
 30
0.0
 10
24.033435872
 20
40.2674332585
 30
0.0
 10
26.441401297
 20
38.7004430915
 30
0.0
 10
29.6702024465
 20
35.6656721829
 30
0.0
 10
32.5449902789
 20
31.9910660666
 30
0.0
 10
34.9392353546
 20
27.8508108066
 30
0.0
 10
36.7486149195
 20
23.4319376924
 30
0.0
 10
37.8892968131
 20
18.9344844935
 30
0.0
 10
38.1741015333
 20
15.9071642967
 30
0.0
 10
38.1741015333
 20
14.4380144685
 30
0.0
 11
22.8092082204
 21
40.8795470843
 31
0.0
 11
26.2714931909
 21
38.6719844257
 31
0.0
 11
29.5293141534
 21
35.6472074847
 31
0.0
 11
32.42984181
 21
31.9635749206
 31
0.0
 11
34.8427474944
 21
27.8000977305
 31
0.0
 11
36.657920757
 21
23.3527353299
 31
0.0
 11
37.788500994
 21
18.8285637714
 31
0.0
 11
38.1741015333
 21
14.4380144685
 31
0.0
  0
SPLINE
  5
3D9
100
AcDbEntity
  8
RACCORDO
100
AcDbSpline
 62
7
  6
CONTINUOUS
 70
0
 71
3
 72
8
 73
4
 74
2
 42
0.0000001
 43
0.0000001
 44
0.0000000001
 12
0.2370927539
 22
0.1505663846
 32
0.0
 13
0.1427352782
 23
0.2443571921
 33
0.0
 40
0.0
 40
0.0
 40
0.0
 40
0.0
 40
1.0
 40
1.0
 40
1.0
 40
1.0
 10
52.1066041304
 20
37.0484577648
 30
0.0
 10
52.1856350484
 20
37.0986465597
 30
0.0
 10
52.253608449
 20
37.1691878356
 30
0.0
 10
52.3011868751
 20
37.250640233
 30
0.0
 11
52.1066041304
 21
37.0484577648
 31
0.0
 11
52.3011868751
 21
37.250640233
 31
0.0
  0
SPLINE
  5
3DA
100
AcDbEntity
  8
RACCORDO
100
AcDbSpline
 62
7
  6
CONTINUOUS
 70
0
 71
3
 72
8
 73
4
 74
2
 42
0.0000001
 43
0.0000001
 44
0.0000000001
 12
0.0612496185
 22
0.104856942
 32
0.0
 13
0.0391048791
 23
0.1147059001
 33
0.0
 40
0.0
 40
0.0
 40
0.0
 40
0.0
 40
1.0
 40
1.0
 40
1.0
 40
1.0
 10
52.3011868751
 20
37.250640233
 30
0.0
 10
52.3216034146
 20
37.285592547
 30
0.0
 10
52.3382644582
 20
37.3225540163
 30
0.0
 10
52.3512994179
 20
37.3607893164
 30
0.0
 11
52.3011868751
 21
37.250640233
 31
0.0
 11
52.3512994179
 21
37.3607893164
 31
0.0
  0
SPLINE
  5
3DB
100
AcDbEntity
  8
RACCORDO
100
AcDbSpline
 62
7
  6
CONTINUOUS
 70
0
 71
3
 72
8
 73
4
 74
2
 42
0.0000001
 43
0.0000001
 44
0.0000000001
 12
0.0803436861
 22
0.235671227
 32
0.0
 13
-0.008128951
 23
0.2488021084
 33
0.0
 40
0.0
 40
0.0
 40
0.0
 40
0.0
 40
1.0
 40
1.0
 40
1.0
 40
1.0
 10
52.3512994179
 20
37.3607893164
 30
0.0
 10
52.3780806465
 20
37.439346392
 30
0.0
 10
52.3895552496
 20
37.5232806323
 30
0.0
 10
52.3868455992
 20
37.6062146684
 30
0.0
 11
52.3512994179
 21
37.3607893164
 31
0.0
 11
52.3868455992
 21
37.6062146684
 31
0.0
  0
SPLINE
  5
3DC
100
AcDbEntity
  8
RACCORDO
100
AcDbSpline
 62
7
  6
CONTINUOUS
 70
0
 71
3
 72
8
 73
4
 74
2
 42
0.0000001
 43
0.0000001
 44
0.0000000001
 12
-0.0087989689
 22
0.2693092875
 32
0.0
 13
-0.0996256441
 23
0.2500538914
 33
0.0
 40
0.0
 40
0.0
 40
0.0
 40
0.0
 40
1.0
 40
1.0
 40
1.0
 40
1.0
 10
52.3868455992
 20
37.6062146684
 30
0.0
 10
52.3839126096
 20
37.6959844309
 30
0.0
 10
52.3643607676
 20
37.7845823133
 30
0.0
 10
52.3311522196
 20
37.8679336104
 30
0.0
 11
52.3868455992
 21
37.6062146684
 31
0.0
 11
52.3311522196
 21
37.8679336104
 31
0.0
  0
SPLINE
  5
3DD
100
AcDbEntity
  8
RACCORDO
100
AcDbSpline
 62
7
  6
CONTINUOUS
 70
0
 71
3
 72
11
 73
7
 74
5
 42
0.0000001
 43
0.0000001
 44
0.0000000001
 12
-0.4139493317
 22
1.038985917
 32
0.0
 13
-0.9950238443
 23
-0.4838572486
 33
0.0
 40
0.0
 40
0.0
 40
0.0
 40
0.0
 40
0.115521697
 40
0.4391855349
 40
0.7257093261
 40
1.0
 40
1.0
 40
1.0
 40
1.0
 10
52.3311522196
 20
37.8679336104
 30
0.0
 10
52.3152121765
 20
37.9079420825
 30
0.0
 10
52.2426498295
 20
38.0554490302
 30
0.0
 10
52.0554250855
 20
38.2595575655
 30
0.0
 10
51.7353186218
 20
38.3739470946
 30
0.0
 10
51.5207409245
 20
38.3332861207
 30
0.0
 10
51.4297656708
 20
38.2890469438
 30
0.0
 11
52.3311522196
 21
37.8679336104
 31
0.0
 11
52.2742202321
 21
37.9838819895
 31
0.0
 11
52.0280009818
 21
38.243920736
 31
0.0
 11
51.7278607042
 21
38.3459834436
 31
0.0
 11
51.4297656708
 21
38.2890469438
 31
0.0
  0
SPLINE
  5
3DE
100
AcDbEntity
  8
DRAFT
100
AcDbSpline
 62
7
  6
CONTINUOUS
 70
0
 71
3
 72
9
 73
5
 74
3
 42
0.0000001
 43
0.0000001
 44
0.0000000001
 12
-1.1528280719
 22
0.1095300558
 32
0.0
 13
-1.1462013836
 23
-0.1737779509
 33
0.0
 40
0.0
 40
0.0
 40
0.0
 40
0.0
 40
0.5811621933
 40
1.0
 40
1.0
 40
1.0
 40
1.0
 10
36.8594097569
 20
38.4685385174
 30
0.0
 10
36.63608306
 20
38.4897567599
 30
0.0
 10
36.2496559029
 20
38.5016620973
 30
0.0
 10
35.864313435
 20
38.4650139929
 30
0.0
 10
35.7042892771
 20
38.4407524009
 30
0.0
 11
36.8594097569
 21
38.4685385174
 31
0.0
 11
36.1872957049
 21
38.4871957234
 31
0.0
 11
35.7042892771
 21
38.4407524009
 31
0.0
  0
SPLINE
  5
3DF
100
AcDbEntity
  8
DRAFT
100
AcDbSpline
 62
7
  6
CONTINUOUS
 70
0
 71
3
 72
9
 73
5
 74
3
 42
0.0000001
 43
0.0000001
 44
0.0000000001
 12
-0.4802874953
 22
-0.630437172
 32
0.0
 13
-0.3793893769
 23
-0.6929468562
 33
0.0
 40
0.0
 40
0.0
 40
0.0
 40
0.0
 40
0.8468416446
 40
1.0
 40
1.0
 40
1.0
 40
1.0
 10
33.6430396627
 20
37.3256835171
 30
0.0
 10
33.5074638452
 20
37.1477233666
 30
0.0
 10
33.3614742462
 20
36.9266080039
 30
0.0
 10
33.2324548355
 20
36.6968872264
 30
0.0
 10
33.2130859512
 20
36.6615103594
 30
0.0
 11
33.6430396627
 21
37.3256835171
 31
0.0
 11
33.2723737149
 21
36.767052678
 31
0.0
 11
33.2130859512
 21
36.6615103594
 31
0.0
  0
SPLINE
  5
3E0
100
AcDbEntity
  8
DRAFT
100
AcDbSpline
 62
7
  6
CONTINUOUS
 70
0
 71
3
 72
10
 73
6
 74
4
 42
0.0000001
 43
0.0000001
 44
0.0000000001
 12
6.8994069556
 22
0.9589044457
 32
0.0
 13
6.2095801579
 23
-3.104790079
 33
0.0
 40
0.0
 40
0.0
 40
0.0
 40
0.0
 40
0.1983999697
 40
0.5801311748
 40
1.0
 40
1.0
 40
1.0
 40
1.0
 10
-30.3219200709
 20
61.8364509776
 30
0.0
 10
-29.8656393607
 20
61.8998665153
 30
0.0
 10
-28.5163396932
 20
61.9773726116
 30
0.0
 10
-26.2073127281
 20
61.6174758346
 30
0.0
 10
-24.4690158608
 20
60.9295649237
 30
0.0
 10
-23.5999461522
 20
60.4950300695
 30
0.0
 11
-30.3219200709
 21
61.8364509776
 31
0.0
 11
-28.9438827908
 21
61.9193950038
 31
0.0
 11
-26.3209130206
 21
61.5406225245
 31
0.0
 11
-23.5999461522
 21
60.4950300695
 31
0.0
  0
SPLINE
  5
3E1
100
AcDbEntity
  8
DRAFT
100
AcDbSpline
 62
7
  6
CONTINUOUS
 70
0
 71
3
 72
11
 73
7
 74
5
 42
0.0000001
 43
0.0000001
 44
0.0000000001
 12
0.0
 22
-10.3006639346
 32
0.0
 13
-7.2227051758
 23
-7.3923978992
 33
0.0
 40
0.0
 40
0.0
 40
0.0
 40
0.0
 40
0.3120416386
 40
0.5967135403
 40
0.855617316
 40
1.0
 40
1.0
 40
1.0
 40
1.0
 10
34.7672197826
 20
-40.1734400343
 30
0.0
 10
34.7672197826
 20
-41.2448520518
 30
0.0
 10
34.6172881606
 20
-43.2989807159
 30
0.0
 10
33.8763881135
 20
-46.1613989455
 30
0.0
 10
32.793741437
 20
-48.285088481
 30
0.0
 10
31.9066354657
 20
-49.365044691
 30
0.0
 10
31.5590242794
 20
-49.7208227742
 30
0.0
 11
34.7672197826
 21
-40.1734400343
 31
0.0
 11
34.5101123747
 21
-43.3773765477
 31
0.0
 11
33.7485558845
 21
-46.2090670763
 31
0.0
 11
32.5094725401
 21
-48.570618598
 31
0.0
 11
31.5590242794
 21
-49.7208227742
 31
0.0
  0
SPLINE
  5
3E2
100
AcDbEntity
  8
DRAFT
100
AcDbSpline
 62
7
  6
CONTINUOUS
 70
0
 71
3
 72
10
 73
6
 74
4
 42
0.0000001
 43
0.0000001
 44
0.0000000001
 12
2.7523165975
 22
-8.2701141256
 32
0.0
 13
0.0
 23
-8.7114231914
 33
0.0
 40
0.0
 40
0.0
 40
0.0
 40
0.0
 40
0.1799682483
 40
0.601605793
 40
1.0
 40
1.0
 40
1.0
 40
1.0
 10
33.2904529225
 20
22.0744510038
 30
0.0
 10
33.4555627882
 20
21.5783316863
 30
0.0
 10
33.9666392426
 20
19.9063907959
 30
0.0
 10
34.5787696891
 20
17.0604787357
 30
0.0
 10
34.7672197826
 20
14.6769951784
 30
0.0
 10
34.7672197826
 20
13.5201350003
 30
0.0
 11
33.2904529225
 21
22.0744510038
 31
0.0
 11
33.7485558845
 21
20.5744259405
 31
0.0
 11
34.5101123747
 21
16.9811789216
 31
0.0
 11
34.7672197826
 21
13.5201350003
 31
0.0
  0
SPLINE
  5
3E3
100
AcDbEntity
  8
DRAFT
100
AcDbSpline
 62
7
  6
CONTINUOUS
 70
0
 71
3
 72
11
 73
7
 74
5
 42
0.0000001
 43
0.0000001
 44
0.0000000001
 12
12.6221039672
 22
-6.3110519836
 32
0.0
 13
7.3179085715
 23
-12.066279453
 33
0.0
 40
0.0
 40
0.0
 40
0.0
 40
0.0
 40
0.2264318936
 40
0.4710483267
 40
0.7304706913
 40
1.0
 40
1.0
 40
1.0
 40
1.0
 10
20.2406742813
 20
38.5747198527
 30
0.0
 10
21.1933565823
 20
38.0983787022
 30
0.0
 10
23.0825337214
 20
36.9164702458
 30
0.0
 10
25.6902676783
 20
34.6625123768
 30
0.0
 10
28.1078003846
 20
31.9298917104
 30
0.0
 10
29.521604353
 20
29.8741559973
 30
0.0
 10
30.1790679659
 20
28.7900840106
 30
0.0
 11
20.2406742813
 21
38.5747198527
 31
0.0
 11
22.9616411498
 21
36.8993454393
 31
0.0
 11
25.5846109199
 21
34.6551481485
 31
0.0
 11
28.0186633201
 21
31.9205609771
 31
0.0
 11
30.1790679659
 21
28.7900840106
 31
0.0
  0
SPLINE
  5
3E4
100
AcDbEntity
  8
DRAFT
100
AcDbSpline
 62
7
  6
CONTINUOUS
 70
0
 71
3
 72
10
 73
6
 74
4
 42
0.0000001
 43
0.0000001
 44
0.0000000001
 12
2.775845633
 22
3.1572565749
 32
0.0
 13
0.0
 23
4.1920775247
 33
0.0
 40
0.0
 40
0.0
 40
0.0
 40
0.0
 40
0.2382332077
 40
0.5970148069
 40
1.0
 40
1.0
 40
1.0
 40
1.0
 10
31.5579563426
 20
-46.9750648162
 30
0.0
 10
31.7783892124
 20
-46.7243436957
 30
0.0
 10
32.249987203
 20
-46.0198053052
 30
0.0
 10
32.6978924876
 20
-44.6807175653
 30
0.0
 10
32.7940105764
 20
-43.6113486598
 30
0.0
 10
32.7940105764
 20
-43.0482336028
 30
0.0
 11
31.5579563426
 21
-46.9750648162
 31
0.0
 11
32.1222486111
 21
-46.1469507723
 31
0.0
 11
32.6237275877
 21
-44.7289747519
 31
0.0
 11
32.7940105764
 21
-43.0482336028
 31
0.0
  0
SPLINE
  5
3E5
100
AcDbEntity
  8
RACCORDO
100
AcDbSpline
 62
253
  6
CONTINUOUS
 70
0
 71
3
 72
9
 73
5
 74
3
 42
0.0000001
 43
0.0000001
 44
0.0000000001
 12
-0.3987603119
 22
0.211716861
 32
0.0
 13
-0.3996812778
 23
-0.191296252
 33
0.0
 40
0.0
 40
0.0
 40
0.0
 40
0.0
 40
0.2048121
 40
1.0
 40
1.0
 40
1.0
 40
1.0
 10
22.8080377148
 20
40.8773424854
 30
0.0
 10
22.7808140691
 20
40.8917965437
 30
0.0
 10
22.6409492757
 20
40.9467091836
 30
0.0
 10
22.4802759044
 20
40.9078892468
 30
0.0
 10
22.3743353324
 20
40.8571837585
 30
0.0
 11
22.8080377148
 21
40.8773424854
 31
0.0
 11
22.7226491869
 21
40.9103581961
 31
0.0
 11
22.3743353324
 21
40.8571837585
 31
0.0
  0
SPLINE
  5
3E6
100
AcDbEntity
  8
RACCORDO
100
AcDbSpline
 62
253
  6
CONTINUOUS
 70
0
 71
3
 72
9
 73
5
 74
3
 42
0.0000001
 43
0.0000001
 44
0.0000000001
 12
-0.3987603054
 22
0.2117168563
 32
0.0
 13
-0.3996812724
 23
-0.1912962494
 33
0.0
 40
0.0
 40
0.0
 40
0.0
 40
0.0
 40
0.2048120793
 40
1.0
 40
1.0
 40
1.0
 40
1.0
 10
-21.0325827173
 20
62.7976527029
 30
0.0
 10
-21.0598063597
 20
62.8121067595
 30
0.0
 10
-21.1996711503
 20
62.8670193991
 30
0.0
 10
-21.3603445204
 20
62.8281994604
 30
0.0
 10
-21.4662850937
 20
62.7774939715
 30
0.0
 11
-21.0325827173
 21
62.7976527029
 31
0.0
 11
-21.1179712349
 21
62.8306684102
 31
0.0
 11
-21.4662850937
 21
62.7774939715
 31
0.0
  0
LINE
  5
3E7
100
AcDbEntity
  8
DRAFT
100
AcDbLine
 62
7
  6
CONTINUOUS
 10
30.9637351961
 20
27.3882997688
 11
30.5440925165
 21
27.1886813594
  0
SPLINE
  5
3E8
100
AcDbEntity
  8
DRAFT
100
AcDbSpline
 62
7
  6
CONTINUOUS
 70
0
 71
3
 72
9
 73
5
 74
3
 42
0.0000001
 43
0.0000001
 44
0.0000000001
 12
0.0
 22
2.1337154065
 32
0.0
 13
-0.4224626189
 23
2.094092876
 33
0.0
 40
0.0
 40
0.0
 40
0.0
 40
0.0
 40
0.8711752895
 40
1.0
 40
1.0
 40
1.0
 40
1.0
 10
32.7940105764
 20
21.903671681
 30
0.0
 10
32.7940105764
 20
22.52328506
 30
0.0
 10
32.723468212
 20
23.235459227
 30
0.0
 10
32.5905058134
 20
23.9351867791
 30
0.0
 10
32.5723646053
 20
24.0251104152
 30
0.0
 11
32.7940105764
 21
21.903671681
 31
0.0
 11
32.6237275877
 21
23.7546958189
 31
0.0
 11
32.5723646053
 21
24.0251104152
 31
0.0
  0
SPLINE
  5
3E9
100
AcDbEntity
  8
DRAFT
100
AcDbSpline
 62
7
  6
CONTINUOUS
 70
0
 71
3
 72
9
 73
5
 74
3
 42
0.0000001
 43
0.0000001
 44
0.0000000001
 12
-0.8898479816
 22
0.8020049774
 32
0.0
 13
-0.983262459
 23
0.6874709806
 33
0.0
 40
0.0
 40
0.0
 40
0.0
 40
0.0
 40
0.5324821042
 40
1.0
 40
1.0
 40
1.0
 40
1.0
 10
28.5334732191
 20
31.2370717139
 30
0.0
 10
28.3755305106
 20
31.3794228132
 30
0.0
 10
28.070744
 20
31.6378214539
 30
0.0
 10
27.7501876609
 20
31.8774748317
 30
0.0
 10
27.5969567289
 20
31.9846098271
 30
0.0
 11
28.5334732191
 21
31.2370717139
 31
0.0
 11
28.0464724527
 21
31.6492931379
 31
0.0
 11
27.5969567289
 21
31.9846098271
 31
0.0
  0
SPLINE
  5
3EA
100
AcDbEntity
  8
RACCORDO
100
AcDbSpline
 62
253
  6
CONTINUOUS
 70
0
 71
3
 72
10
 73
6
 74
4
 42
0.0000001
 43
0.0000001
 44
0.0000000001
 12
9.0648266094
 22
4.284116893
 32
0.0
 13
8.9279975313
 23
-4.4639987705
 33
0.0
 40
0.0
 40
0.0
 40
0.0
 40
0.0
 40
0.3027432966
 40
0.6322836397
 40
1.0
 40
1.0
 40
1.0
 40
1.0
 10
-31.1178882116
 20
63.4803619577
 30
0.0
 10
-30.2031163813
 20
63.9126911815
 30
0.0
 10
-28.1207199615
 20
64.4512856171
 30
0.0
 10
-24.7549193815
 20
64.1552793375
 30
0.0
 10
-22.5606086794
 20
63.3246557649
 30
0.0
 10
-21.4662850937
 20
62.7774939715
 30
0.0
 11
-31.1178882116
 21
63.4803619577
 31
0.0
 11
-28.1984875281
 21
64.262073992
 31
0.0
 11
-24.917480356
 21
64.0271429254
 31
0.0
 11
-21.4662850937
 21
62.7774939715
 31
0.0
  0
SPLINE
  5
3EB
100
AcDbEntity
  8
RACCORDO
100
AcDbSpline
 62
253
  6
CONTINUOUS
 70
0
 71
3
 72
9
 73
5
 74
3
 42
0.0000001
 43
0.0000001
 44
0.0000000001
 12
0.0024217361
 22
-0.4768866734
 32
0.0
 13
-0.4073237689
 23
-0.2108980551
 33
0.0
 40
0.0
 40
0.0
 40
0.0
 40
0.0
 40
0.2696006593
 40
1.0
 40
1.0
 40
1.0
 40
1.0
 10
38.167099577
 20
-39.2555961243
 30
0.0
 10
38.1673172109
 20
-39.2984524448
 30
0.0
 10
38.1377478292
 20
-39.4571334842
 30
0.0
 10
37.9926110044
 20
-39.551543142
 30
0.0
 10
37.8934413337
 20
-39.6028897421
 30
0.0
 11
38.167099577
 21
-39.2555961243
 31
0.0
 11
38.1429733977
 21
-39.3793419363
 31
0.0
 11
37.8934413337
 21
-39.6028897421
 31
0.0
  0
SPLINE
  5
3EC
100
AcDbEntity
  8
RACCORDO
100
AcDbSpline
 62
253
  6
CONTINUOUS
 70
0
 71
3
 72
9
 73
5
 74
3
 42
0.0000001
 43
0.0000001
 44
0.0000000001
 12
0.0024217356
 22
-0.4768866775
 32
0.0
 13
-0.4073237749
 23
-0.2108980583
 33
0.0
 40
0.0
 40
0.0
 40
0.0
 40
0.0
 40
0.2696006354
 40
1.0
 40
1.0
 40
1.0
 40
1.0
 10
38.167099578
 20
14.4379789111
 30
0.0
 10
38.1673172118
 20
14.395122594
 30
0.0
 10
38.1377478319
 20
14.2364415526
 30
0.0
 10
37.9926110091
 20
14.1420318859
 30
0.0
 10
37.8934413336
 20
14.0906852833
 30
0.0
 11
38.167099578
 21
14.4379789111
 31
0.0
 11
38.1429734025
 21
14.3142331077
 31
0.0
 11
37.8934413336
 21
14.0906852833
 31
0.0
  0
SPLINE
  5
3ED
100
AcDbEntity
  8
RACCORDO
100
AcDbSpline
 62
253
  6
CONTINUOUS
 70
0
 71
3
 72
10
 73
6
 74
4
 42
0.0000001
 43
0.0000001
 44
0.0000000001
 12
-0.7835197163
 22
0.3901159249
 32
0.0
 13
-0.8534746231
 23
-0.1919414683
 33
0.0
 40
0.0
 40
0.0
 40
0.0
 40
0.0
 40
0.0871967732
 40
0.7572808924
 40
1.0
 40
1.0
 40
1.0
 40
1.0
 10
49.1357219761
 20
42.8207881892
 30
0.0
 10
49.1129485125
 20
42.8321271392
 30
0.0
 10
48.9118680568
 20
42.9235729737
 30
0.0
 10
48.612114699
 20
42.9583126821
 30
0.0
 10
48.3486235353
 20
42.9164154232
 30
0.0
 10
48.2795720023
 20
42.9008861359
 30
0.0
 11
49.1357219761
 21
42.8207881892
 31
0.0
 11
49.0662982573
 21
42.8523225008
 31
0.0
 11
48.489466737
 21
42.9334923401
 31
0.0
 11
48.2795720023
 21
42.9008861359
 31
0.0
  0
SPLINE
  5
3EE
100
AcDbEntity
  8
RACCORDO
100
AcDbSpline
 62
253
  6
CONTINUOUS
 70
0
 71
3
 72
8
 73
4
 74
2
 42
0.0000001
 43
0.0000001
 44
0.0000000001
 12
-0.4497892073
 22
-0.1011549712
 32
0.0
 13
-0.4120615569
 23
-0.2002379471
 33
0.0
 40
0.0
 40
0.0
 40
0.0
 40
0.0
 40
1.0
 40
1.0
 40
1.0
 40
1.0
 10
48.2795720023
 20
42.9008861359
 30
0.0
 10
48.1296422666
 20
42.8671678122
 30
0.0
 10
47.9844841564
 20
42.8127598062
 30
0.0
 10
47.8471303041
 20
42.7460138239
 30
0.0
 11
48.2795720023
 21
42.9008861359
 31
0.0
 11
47.8471303041
 21
42.7460138239
 31
0.0
  0
SPLINE
  5
3EF
100
AcDbEntity
  8
RACCORDO
100
AcDbSpline
 62
253
  6
CONTINUOUS
 70
0
 71
3
 72
11
 73
7
 74
5
 42
0.0000001
 43
0.0000001
 44
0.0000000001
 12
0.3377246841
 22
0.1646129786
 32
0.0
 13
0.3202310359
 23
-0.1937068746
 33
0.0
 40
0.0
 40
0.0
 40
0.0
 40
0.0
 40
0.1144634546
 40
0.4356752379
 40
0.8408708899
 40
1.0
 40
1.0
 40
1.0
 40
1.0
 10
51.4297965187
 20
38.2889836554
 30
0.0
 10
51.4426822301
 20
38.2952643788
 30
0.0
 10
51.4936082992
 20
38.3152790541
 30
0.0
 10
51.6009148191
 20
38.3224198445
 30
0.0
 10
51.7077533787
 20
38.2877926527
 30
0.0
 10
51.7696974261
 20
38.2541568785
 30
0.0
 10
51.7866834527
 20
38.2438820776
 30
0.0
 11
51.4297965187
 21
38.2889836554
 31
0.0
 11
51.4697639771
 21
38.3046550149
 31
0.0
 11
51.5892080264
 21
38.3149463445
 31
0.0
 11
51.7342750036
 21
38.2722063188
 31
0.0
 11
51.7866834527
 21
38.2438820776
 31
0.0
  0
SPLINE
  5
3F0
100
AcDbEntity
  8
RACCORDO
100
AcDbSpline
 62
253
  6
CONTINUOUS
 70
0
 71
3
 72
11
 73
7
 74
5
 42
0.0000001
 43
0.0000001
 44
0.0000000001
 12
0.594648902
 22
-0.3597014885
 32
0.0
 13
0.218396916
 23
-0.6594142886
 33
0.0
 40
0.0
 40
0.0
 40
0.0
 40
0.0
 40
0.1915623761
 40
0.5222025364
 40
0.8803865193
 40
1.0
 40
1.0
 40
1.0
 40
1.0
 10
51.7866834527
 20
38.2438820776
 30
0.0
 10
51.8246542382
 20
38.2209136537
 30
0.0
 10
51.9216104435
 20
38.147537982
 30
0.0
 10
52.0559664959
 20
37.9925252062
 30
0.0
 10
52.1462345018
 20
37.8274523918
 30
0.0
 10
52.1850227597
 20
37.7237389326
 30
0.0
 10
52.1937304982
 20
37.6974473198
 30
0.0
 11
51.7866834527
 21
38.2438820776
 31
0.0
 11
51.8934651617
 21
38.1645810832
 31
0.0
 11
52.0452634041
 21
37.9929130022
 31
0.0
 11
52.1646893982
 21
37.7752812762
 31
0.0
 11
52.1937304982
 21
37.6974473198
 31
0.0
  0
SPLINE
  5
3F1
100
AcDbEntity
  8
RACCORDO
100
AcDbSpline
 62
253
  6
CONTINUOUS
 70
0
 71
3
 72
11
 73
7
 74
5
 42
0.0000001
 43
0.0000001
 44
0.0000000001
 12
0.2166955415
 22
-0.6542772626
 32
0.0
 13
-0.5446122799
 23
-0.4298186752
 33
0.0
 40
0.0
 40
0.0
 40
0.0
 40
0.0
 40
0.2348184409
 40
0.5559146829
 40
0.8273333561
 40
1.0
 40
1.0
 40
1.0
 40
1.0
 10
52.1937304982
 20
37.6974473198
 30
0.0
 10
52.2106918679
 20
37.6462351976
 30
0.0
 10
52.241840528
 20
37.5220516027
 30
0.0
 10
52.2509142786
 20
37.3304443829
 30
0.0
 10
52.203773213
 20
37.1569817656
 30
0.0
 10
52.1366582207
 20
37.075442745
 30
0.0
 10
52.1053127625
 20
37.0507042957
 30
0.0
 11
52.1937304982
 21
37.6974473198
 31
0.0
 11
52.2325364961
 21
37.5405105252
 31
0.0
 11
52.238830402
 21
37.3197921414
 31
0.0
 11
52.1828385764
 21
37.1417422153
 31
0.0
 11
52.1053127625
 21
37.0507042957
 31
0.0
  0
SPLINE
  5
3F2
100
AcDbEntity
  8
RACCORDO
100
AcDbSpline
 62
253
  6
CONTINUOUS
 70
0
 71
3
 72
9
 73
5
 74
3
 42
0.0000001
 43
0.0000001
 44
0.0000000001
 12
-0.0398899514
 22
-0.0314819308
 32
0.0
 13
-0.0453448514
 23
-0.0230731733
 33
0.0
 40
0.0
 40
0.0
 40
0.0
 40
0.0
 40
0.7945728883
 40
1.0
 40
1.0
 40
1.0
 40
1.0
 10
52.1053127625
 20
37.0507042957
 30
0.0
 10
52.0947476046
 20
37.0423660661
 30
0.0
 10
52.0807002912
 20
37.032867941
 30
0.0
 10
52.0657543322
 20
37.0248701424
 30
0.0
 10
52.0626493116
 20
37.0232901906
 30
0.0
 11
52.1053127625
 21
37.0507042957
 31
0.0
 11
52.0718570195
 21
37.028219386
 31
0.0
 11
52.0626493116
 21
37.0232901906
 31
0.0
  0
SPLINE
  5
3F3
100
AcDbEntity
  8
RACCORDO
100
AcDbSpline
 62
253
  6
CONTINUOUS
 70
0
 71
3
 72
8
 73
4
 74
2
 42
0.0000001
 43
0.0000001
 44
0.0000000001
 12
0.0811235201
 22
0.1564379002
 32
0.0
 13
-0.0012232781
 23
0.1741421502
 33
0.0
 40
0.0
 40
0.0
 40
0.0
 40
0.0
 40
1.0
 40
1.0
 40
1.0
 40
1.0
 10
53.9571929867
 20
-28.6260649794
 30
0.0
 10
53.98423416
 20
-28.5739190126
 30
0.0
 10
53.9920348946
 20
-28.5125652245
 30
0.0
 10
53.9916271353
 20
-28.454517841
 30
0.0
 11
53.9571929867
 21
-28.6260649794
 31
0.0
 11
53.9916271353
 21
-28.454517841
 31
0.0
  0
SPLINE
  5
3F4
100
AcDbEntity
  8
RACCORDO
100
AcDbSpline
 62
253
  6
CONTINUOUS
 70
0
 71
3
 72
8
 73
4
 74
2
 42
0.0000001
 43
0.0000001
 44
0.0000000001
 12
0.1150416664
 22
0.0031346002
 32
0.0
 13
0.1075233163
 23
-0.0447395687
 33
0.0
 40
0.0
 40
0.0
 40
0.0
 40
0.0
 40
1.0
 40
1.0
 40
1.0
 40
1.0
 10
-1.774053911
 20
67.5222888209
 30
0.0
 10
-1.7357066889
 20
67.5233336877
 30
0.0
 10
-1.6963194896
 20
67.5137568662
 30
0.0
 10
-1.6604783841
 20
67.4988436767
 30
0.0
 11
-1.774053911
 21
67.5222888209
 31
0.0
 11
-1.6604783841
 21
67.4988436767
 31
0.0
  0
SPLINE
  5
3F5
100
AcDbEntity
  8
RACCORDO
100
AcDbSpline
 62
253
  6
CONTINUOUS
 70
0
 71
3
 72
10
 73
6
 74
4
 42
0.0000001
 43
0.0000001
 44
0.0000000001
 12
-0.0933193203
 22
-0.8677533767
 32
0.0
 13
-0.6712719972
 23
-0.5440632627
 33
0.0
 40
0.0
 40
0.0
 40
0.0
 40
0.0
 40
0.1519259269
 40
0.7639775443
 40
1.0
 40
1.0
 40
1.0
 40
1.0
 10
54.8262240227
 20
-27.4908025319
 30
0.0
 10
54.8214981479
 20
-27.5347472772
 30
0.0
 10
54.7801244393
 20
-27.7531997946
 30
0.0
 10
54.6090770727
 20
-27.9991933337
 30
0.0
 10
54.4273672711
 20
-28.1637325408
 30
0.0
 10
54.374555516
 20
-28.2065362566
 30
0.0
 11
54.8262240227
 21
-27.4908025319
 31
0.0
 11
54.8015112876
 21
-27.6204240823
 31
0.0
 11
54.5256698436
 21
-28.0687344291
 31
0.0
 11
54.374555516
 21
-28.2065362566
 31
0.0
  0
SPLINE
  5
3F6
100
AcDbEntity
  8
RACCORDO
100
AcDbSpline
 62
253
  6
CONTINUOUS
 70
0
 71
3
 72
8
 73
4
 74
2
 42
0.0000001
 43
0.0000001
 44
0.0000000001
 12
-0.3557876258
 22
-0.2883644444
 32
0.0
 13
-0.4033039375
 23
-0.212423397
 33
0.0
 40
0.0
 40
0.0
 40
0.0
 40
0.0
 40
1.0
 40
1.0
 40
1.0
 40
1.0
 10
54.374555516
 20
-28.2065362566
 30
0.0
 10
54.2559596407
 20
-28.3026577381
 30
0.0
 10
54.1260617811
 20
-28.383710042
 30
0.0
 10
53.9916271353
 20
-28.454517841
 30
0.0
 11
54.374555516
 21
-28.2065362566
 31
0.0
 11
53.9916271353
 21
-28.454517841
 31
0.0
  0
SPLINE
  5
3F7
100
AcDbEntity
  8
RACCORDO
100
AcDbSpline
 62
253
  6
CONTINUOUS
 70
0
 71
3
 72
11
 73
7
 74
5
 42
0.0000001
 43
0.0000001
 44
0.0000000001
 12
-0.5989819908
 22
1.0269859495
 32
0.0
 13
-1.1848593431
 23
-0.1366643279
 33
0.0
 40
0.0
 40
0.0
 40
0.0
 40
0.0
 40
0.1577017002
 40
0.5603265209
 40
0.9697644476
 40
1.0
 40
1.0
 40
1.0
 40
1.0
 10
49.6991851771
 20
41.785621219
 30
0.0
 10
49.667698351
 20
41.8396070292
 30
0.0
 10
49.5414204822
 20
42.0227638517
 30
0.0
 10
49.2247664589
 20
42.2672457432
 30
0.0
 10
48.8812246231
 20
42.3065597477
 30
0.0
 10
48.707180722
 20
42.2890614049
 30
0.0
 10
48.6952390964
 20
42.2876840311
 30
0.0
 11
49.6991851771
 21
41.785621219
 31
0.0
 11
49.5921275048
 21
41.9393859025
 31
0.0
 11
49.2107546101
 21
42.2245195438
 31
0.0
 11
48.7311430734
 21
42.291288265
 31
0.0
 11
48.6952390964
 21
42.2876840311
 31
0.0
  0
SPLINE
  5
3F8
100
AcDbEntity
  8
DRAFT
100
AcDbSpline
 62
7
  6
CONTINUOUS
 70
0
 71
3
 72
18
 73
14
 74
12
 42
0.0000001
 43
0.0000001
 44
0.0000000001
 12
0.0
 22
32.3892934823
 32
0.0
 13
-28.9698647879
 23
14.4849323939
 33
0.0
 40
0.0
 40
0.0
 40
0.0
 40
0.0
 40
0.0863081897
 40
0.1767391531
 40
0.2705254476
 40
0.3663289397
 40
0.4632816011
 40
0.5597960495
 40
0.6550242922
 40
0.7474614277
 40
0.8363849781
 40
0.9207107898
 40
1.0
 40
1.0
 40
1.0
 40
1.0
 10
35.7970234674
 20
13.0052331579
 30
0.0
 10
35.7970234674
 20
13.9370535869
 30
0.0
 10
35.683135753
 20
15.8464361318
 30
0.0
 10
35.2061939306
 20
18.7324952887
 30
0.0
 10
34.4286205319
 20
21.6586280907
 30
0.0
 10
33.3654958952
 20
24.5681572021
 30
0.0
 10
32.03919853
 20
27.4000217205
 30
0.0
 10
30.4748841993
 20
30.1005079249
 30
0.0
 10
28.7057226012
 20
32.6123216989
 30
0.0
 10
26.7651410191
 20
34.8878802784
 30
0.0
 10
24.6935163938
 20
36.8795010213
 30
0.0
 10
22.5306514284
 20
38.548598903
 30
0.0
 10
21.006340181
 20
39.4531336844
 30
0.0
 10
20.2406742813
 20
39.8359666342
 30
0.0
 11
35.7970234674
 21
13.0052331579
 31
0.0
 11
35.6386447024
 21
15.7962043102
 31
0.0
 11
35.1671039393
 21
18.6869933188
 31
0.0
 11
34.3909203981
 21
21.6238265092
 31
0.0
 11
33.3281054175
 21
24.5391445658
 31
0.0
 11
31.9966882689
 21
27.3831490592
 31
0.0
 11
30.4287131076
 21
30.0875061771
 31
0.0
 11
28.6501419374
 21
32.6074380866
 31
0.0
 11
26.7036871108
 21
34.8823426967
 31
0.0
 11
24.6226484558
 21
36.8734888355
 31
0.0
 11
22.4548348246
 21
38.5349127824
 31
0.0
 11
20.2406742813
 21
39.8359666342
 31
0.0
  0
SPLINE
  5
3F9
100
AcDbEntity
  8
DRAFT
100
AcDbSpline
 62
7
  6
CONTINUOUS
 70
0
 71
3
 72
11
 73
7
 74
5
 42
0.0000001
 43
0.0000001
 44
0.0000000001
 12
-6.5928070564
 22
3.2964035282
 32
0.0
 13
-7.3236072003
 23
-0.9629035209
 33
0.0
 40
0.0
 40
0.0
 40
0.0
 40
0.0
 40
0.3249297288
 40
0.6269482304
 40
0.9095400402
 40
1.0
 40
1.0
 40
1.0
 40
1.0
 10
-23.5999461522
 20
61.756276851
 30
0.0
 10
-24.3140124885
 20
62.1133100191
 30
0.0
 10
-25.7409983749
 20
62.7109704385
 30
0.0
 10
-27.9243941821
 20
63.2354473869
 30
0.0
 10
-29.5920566776
 20
63.318064935
 30
0.0
 10
-30.5071239834
 20
63.2314278908
 30
0.0
 10
-30.7279550544
 20
63.2023931529
 30
0.0
 11
-23.5999461522
 21
61.756276851
 31
0.0
 11
-25.8141066955
 21
62.6693835425
 31
0.0
 11
-27.9819203267
 21
63.1757732268
 31
0.0
 11
-30.0629589817
 21
63.265665743
 31
0.0
 11
-30.7279550544
 21
63.2023931529
 31
0.0
  0
SPLINE
  5
3FA
100
AcDbEntity
  8
DRAFT
100
AcDbSpline
 62
7
  6
CONTINUOUS
 70
0
 71
3
 72
10
 73
6
 74
4
 42
0.0000001
 43
0.0000001
 44
0.0000000001
 12
-0.4714052264
 22
-0.2346914478
 32
0.0
 13
-0.4718100887
 23
-0.2338764701
 33
0.0
 40
0.0
 40
0.0
 40
0.0
 40
0.0
 40
0.3326790491
 40
0.6660127876
 40
1.0
 40
1.0
 40
1.0
 40
1.0
 10
46.3579730779
 20
26.2257330681
 30
0.0
 10
46.3056975304
 20
26.1997074256
 30
0.0
 10
46.2010283093
 20
26.1476355515
 30
0.0
 10
46.0438251037
 20
26.0695420463
 30
0.0
 10
45.9388902604
 20
26.0174887431
 30
0.0
 10
45.8863640816
 20
25.991451493
 30
0.0
 11
46.3579730779
 21
26.2257330681
 31
0.0
 11
46.2011236827
 21
26.1477018586
 31
0.0
 11
46.0439203838
 21
26.0696080812
 31
0.0
 11
45.8863640816
 21
25.991451493
 31
0.0
  0
SPLINE
  5
3FB
100
AcDbEntity
  8
RACCORDO
100
AcDbSpline
 62
253
  6
CONTINUOUS
 70
0
 71
3
 72
11
 73
7
 74
5
 42
0.0000001
 43
0.0000001
 44
0.0000000001
 12
0.8808295759
 22
0.6934723856
 32
0.0
 13
-0.5429420806
 23
0.98171181
 33
0.0
 40
0.0
 40
0.0
 40
0.0
 40
0.0
 40
0.1474688271
 40
0.5331596605
 40
0.8772999008
 40
1.0
 40
1.0
 40
1.0
 40
1.0
 10
53.9555947949
 20
32.9571592218
 30
0.0
 10
53.9988930964
 20
32.9912477416
 30
0.0
 10
54.149062227
 20
33.1233198327
 30
0.0
 10
54.3481807468
 20
33.4009632692
 30
0.0
 10
54.3410246829
 20
33.7408193353
 30
0.0
 10
54.2702923623
 20
33.9005351746
 30
0.0
 10
54.2480860133
 20
33.94068722
 30
0.0
 11
53.9555947949
 21
32.9571592218
 31
0.0
 11
54.0797340857
 21
33.0671130852
 31
0.0
 11
54.3096389804
 21
33.4308609651
 31
0.0
 11
54.3028581523
 21
33.8147558156
 31
0.0
 11
54.2480860133
 21
33.94068722
 31
0.0
  0
SPLINE
  5
3FC
100
AcDbEntity
  8
RACCORDO
100
AcDbSpline
 62
253
  6
CONTINUOUS
 70
0
 71
3
 72
9
 73
5
 74
3
 42
0.0000001
 43
0.0000001
 44
0.0000000001
 12
-0.2129269734
 22
0.3850004114
 32
0.0
 13
-0.3437369798
 23
0.2745484049
 33
0.0
 40
0.0
 40
0.0
 40
0.0
 40
0.0
 40
0.6916484321
 40
1.0
 40
1.0
 40
1.0
 40
1.0
 10
54.2480860133
 20
33.94068722
 30
0.0
 10
54.1989958109
 20
34.0294488637
 30
0.0
 10
54.1024729788
 20
34.1448789436
 30
0.0
 10
53.9915918821
 20
34.2415761918
 30
0.0
 10
53.9562612699
 20
34.2697953355
 30
0.0
 11
54.2480860133
 21
33.94068722
 31
0.0
 11
54.0586074084
 21
34.1801615651
 31
0.0
 11
53.9562612699
 21
34.2697953355
 31
0.0
  0
SPLINE
  5
3FD
100
AcDbEntity
  8
DRAFT
100
AcDbSpline
 62
7
  6
CONTINUOUS
 70
0
 71
3
 72
9
 73
5
 74
3
 42
0.0000001
 43
0.0000001
 44
0.0000000001
 12
-0.9837003024
 22
-0.8850471423
 32
0.0
 13
-0.6952649664
 23
-1.1245788495
 33
0.0
 40
0.0
 40
0.0
 40
0.0
 40
0.0
 40
0.5979469517
 40
1.0
 40
1.0
 40
1.0
 40
1.0
 10
33.6049680393
 20
37.4523273481
 30
0.0
 10
33.4089011736
 20
37.2759236011
 30
0.0
 10
33.1084439962
 20
36.9500921047
 30
0.0
 10
32.8576706042
 20
36.5870978238
 30
0.0
 10
32.7644928045
 20
36.4363843723
 30
0.0
 11
33.6049680393
 21
37.4523273481
 31
0.0
 11
33.0673502352
 21
36.8729764984
 31
0.0
 11
32.7644928045
 21
36.4363843723
 31
0.0
  0
SPLINE
  5
3FE
100
AcDbEntity
  8
DRAFT
100
AcDbSpline
 62
7
  6
CONTINUOUS
 70
0
 71
3
 72
12
 73
8
 74
6
 42
0.0000001
 43
0.0000001
 44
0.0000000001
 12
7.4948908332
 22
7.9259003101
 32
0.0
 13
0.0
 23
10.8886603116
 33
0.0
 40
0.0
 40
0.0
 40
0.0
 40
0.0
 40
0.1244383138
 40
0.3205809155
 40
0.5314275204
 40
0.7577891033
 40
1.0
 40
1.0
 40
1.0
 40
1.0
 10
32.4681398696
 20
-50.8023486676
 30
0.0
 10
32.7790237287
 20
-50.4735867777
 30
0.0
 10
33.5179447825
 20
-49.5677811268
 30
0.0
 10
34.4725902072
 20
-47.8786702462
 30
0.0
 10
35.2401070681
 20
-45.7009539936
 30
0.0
 10
35.7012878884
 20
-43.2705010883
 30
0.0
 10
35.7970234674
 20
-41.5674592694
 30
0.0
 10
35.7970234674
 20
-40.6883418767
 30
0.0
 11
32.4681398696
 21
-50.8023486676
 31
0.0
 11
33.3281054175
 21
-49.7533352346
 31
0.0
 11
34.3909203981
 21
-47.9008321587
 31
0.0
 11
35.1671039393
 21
-45.7401825094
 31
0.0
 11
35.6386447024
 21
-43.320934264
 31
0.0
 11
35.7970234674
 21
-40.6883418767
 31
0.0
  0
SPLINE
  5
3FF
100
AcDbEntity
  8
RACCORDO
100
AcDbSpline
 62
253
  6
CONTINUOUS
 70
0
 71
3
 72
14
 73
10
 74
8
 42
0.0000001
 43
0.0000001
 44
0.0000000001
 12
27.9603877137
 22
-14.704148284
 32
0.0
 13
0.4516667156
 23
-31.5851887776
 33
0.0
 40
0.0
 40
0.0
 40
0.0
 40
0.0
 40
0.1178671827
 40
0.2596210522
 40
0.4102606047
 40
0.5653769148
 40
0.7203183559
 40
0.8701955945
 40
1.0
 40
1.0
 40
1.0
 40
1.0
 10
22.7044259246
 20
40.687868965
 30
0.0
 10
23.8029633003
 20
40.1101567876
 30
0.0
 10
26.0973487417
 20
38.5899437921
 30
0.0
 10
29.2565233719
 20
35.6197093874
 30
0.0
 10
32.1702575487
 20
31.8960654357
 30
0.0
 10
34.6063072806
 20
27.6851094243
 30
0.0
 10
36.447614888
 20
23.1900914474
 30
0.0
 10
37.5766757113
 20
18.7407288722
 30
0.0
 10
37.8714699666
 20
15.79601352
 30
0.0
 10
37.8910127431
 20
14.4293813027
 30
0.0
 11
22.7044259246
 21
40.687868965
 31
0.0
 11
25.8254075496
 21
38.6557332287
 31
0.0
 11
29.106359905
 21
35.6097552192
 31
0.0
 11
32.0503233714
 21
31.872488545
 31
0.0
 11
34.5075650103
 21
27.6344074472
 31
0.0
 11
36.3571857768
 21
23.1040442813
 31
0.0
 11
37.504830789
 21
18.51182332
 31
0.0
 11
37.8910127431
 21
14.4293813027
 31
0.0
  0
SPLINE
  5
400
100
AcDbEntity
  8
RACCORDO
100
AcDbSpline
 62
253
  6
CONTINUOUS
 70
0
 71
3
 72
11
 73
7
 74
5
 42
0.0000001
 43
0.0000001
 44
0.0000000001
 12
0.0000000027
 22
-13.630280119
 32
0.0
 13
-12.0958116266
 23
-6.4183449562
 33
0.0
 40
0.0
 40
0.0
 40
0.0
 40
0.0
 40
0.2972112142
 40
0.5635793081
 40
0.8025289842
 40
1.0
 40
1.0
 40
1.0
 40
1.0
 10
37.8934413336
 20
-39.6028897513
 30
0.0
 10
37.8934413339
 20
-40.9532471194
 30
0.0
 10
37.6728965262
 20
-43.5239508811
 30
0.0
 10
36.5602595744
 20
-47.0342880918
 30
0.0
 10
34.7601646863
 20
-49.7359535507
 30
0.0
 10
33.1544796325
 20
-50.9640370721
 30
0.0
 10
32.3582888961
 20
-51.3865161049
 30
0.0
 11
37.8934413336
 21
-39.6028897513
 31
0.0
 11
37.5048587758
 21
-43.6352821913
 31
0.0
 11
36.3572714196
 21
-47.0798170656
 31
0.0
 11
34.5076739879
 21
-49.7606227808
 31
0.0
 11
32.3582888961
 21
-51.3865161049
 31
0.0
  0
SPLINE
  5
401
100
AcDbEntity
  8
RACCORDO
100
AcDbSpline
 62
253
  6
CONTINUOUS
 70
0
 71
3
 72
8
 73
4
 74
2
 42
0.0000001
 43
0.0000001
 44
0.0000000001
 12
0.215354683
 22
0.1015824539
 32
0.0
 13
0.2262985548
 23
0.078294102
 33
0.0
 40
0.0
 40
0.0
 40
0.0
 40
0.0
 40
1.0
 40
1.0
 40
1.0
 40
1.0
 10
-1.6348832023
 20
67.4870205771
 30
0.0
 10
-1.563098308
 20
67.5208813951
 30
0.0
 10
-1.489274308
 20
67.5514091249
 30
0.0
 10
-1.4138414564
 20
67.5775071589
 30
0.0
 11
-1.6348832023
 21
67.4870205771
 31
0.0
 11
-1.4138414564
 21
67.5775071589
 31
0.0
  0
SPLINE
  5
402
100
AcDbEntity
  8
RACCORDO
100
AcDbSpline
 62
253
  6
CONTINUOUS
 70
0
 71
3
 72
9
 73
5
 74
3
 42
0.0000001
 43
0.0000001
 44
0.0000000001
 12
0.9673081885
 22
0.3346664146
 32
0.0
 13
0.9504868464
 23
-0.3794514195
 33
0.0
 40
0.0
 40
0.0
 40
0.0
 40
0.0
 40
0.4316301999
 40
1.0
 40
1.0
 40
1.0
 40
1.0
 10
-1.4138414564
 20
67.5775071589
 30
0.0
 10
-1.2746683142
 20
67.6256578694
 30
0.0
 10
-0.9395442274
 20
67.702279053
 30
0.0
 10
-0.5895284914
 20
67.660997705
 30
0.0
 10
-0.4094524851
 20
67.5891081292
 30
0.0
 11
-1.4138414564
 21
67.5775071589
 31
0.0
 11
-0.9825945779
 21
67.6698361155
 31
0.0
 11
-0.4094524851
 21
67.5891081292
 31
0.0
  0
SPLINE
  5
403
100
AcDbEntity
  8
RACCORDO
100
AcDbSpline
 62
253
  6
CONTINUOUS
 70
0
 71
3
 72
8
 73
4
 74
2
 42
0.0000001
 43
0.0000001
 44
0.0000000001
 12
0.2088608068
 22
0.1062213603
 32
0.0
 13
0.1990732814
 23
0.1246712366
 33
0.0
 40
0.0
 40
0.0
 40
0.0
 40
0.0
 40
1.0
 40
1.0
 40
1.0
 40
1.0
 10
53.9916271353
 20
32.1483244271
 30
0.0
 10
54.0612474042
 20
32.1837315472
 30
0.0
 10
54.1297056001
 20
32.2218521156
 30
0.0
 10
54.1960633605
 20
32.2634091945
 30
0.0
 11
53.9916271353
 21
32.1483244271
 31
0.0
 11
54.1960633605
 21
32.2634091945
 31
0.0
  0
SPLINE
  5
404
100
AcDbEntity
  8
RACCORDO
100
AcDbSpline
 62
253
  6
CONTINUOUS
 70
0
 71
3
 72
10
 73
6
 74
4
 42
0.0000001
 43
0.0000001
 44
0.0000000001
 12
0.9786771305
 22
0.6129043899
 32
0.0
 13
-0.0026417245
 23
1.1723993452
 33
0.0
 40
0.0
 40
0.0
 40
0.0
 40
0.0
 40
0.3631233132
 40
0.8124375348
 40
1.0
 40
1.0
 40
1.0
 40
1.0
 10
54.1960633605
 20
32.2634091945
 30
0.0
 10
54.3145235213
 20
32.3375958187
 30
0.0
 10
54.5645851697
 20
32.5280807394
 30
0.0
 10
54.7982415406
 20
32.8553648926
 30
0.0
 10
54.8310340434
 20
33.1039856033
 30
0.0
 10
54.8308688806
 20
33.1772849738
 30
0.0
 11
54.1960633605
 21
32.2634091945
 31
0.0
 11
54.5260241298
 21
32.5229375213
 31
0.0
 11
54.8016565275
 21
32.9610312223
 31
0.0
 11
54.8308688806
 21
33.1772849738
 31
0.0
  0
SPLINE
  5
405
100
AcDbEntity
  8
RACCORDO
100
AcDbSpline
 62
253
  6
CONTINUOUS
 70
0
 71
3
 72
8
 73
4
 74
2
 42
0.0000001
 43
0.0000001
 44
0.0000000001
 12
0.0675080386
 22
-0.2023988989
 32
0.0
 13
-0.001474558
 23
-0.211464297
 33
0.0
 40
0.0
 40
0.0
 40
0.0
 40
0.0
 40
1.0
 40
1.0
 40
1.0
 40
1.0
 10
53.956350956
 20
32.3570087951
 30
0.0
 10
53.9788536355
 20
32.2895424955
 30
0.0
 10
53.9921187171
 20
32.2188125578
 30
0.0
 10
53.9916271977
 20
32.1483244588
 30
0.0
 11
53.956350956
 21
32.3570087951
 31
0.0
 11
53.9916271977
 21
32.1483244588
 31
0.0
  0
SPLINE
  5
406
100
AcDbEntity
  8
RACCORDO
100
AcDbSpline
 62
253
  6
CONTINUOUS
 70
0
 71
3
 72
8
 73
4
 74
2
 42
0.0000001
 43
0.0000001
 44
0.0000000001
 12
-0.1242172633
 22
0.1282050631
 32
0.0
 13
-0.1582058418
 23
0.0777638525
 33
0.0
 40
0.0
 40
0.0
 40
0.0
 40
0.0
 40
1.0
 40
1.0
 40
1.0
 40
1.0
 10
47.9884797355
 20
42.6403501374
 30
0.0
 10
47.947073981
 20
42.6830851584
 30
0.0
 10
47.8998655847
 20
42.7200925397
 30
0.0
 10
47.8471303041
 20
42.7460138239
 30
0.0
 11
47.9884797355
 21
42.6403501374
 31
0.0
 11
47.8471303041
 21
42.7460138239
 31
0.0
  0
SPLINE
  5
407
100
AcDbEntity
  8
0
100
AcDbSpline
 62
7
  6
CONTINUOUS
 70
0
 71
3
 72
11
 73
7
 74
5
 42
0.0000001
 43
0.0000001
 44
0.0000000001
 12
0.0
 22
3.027944847
 32
0.0
 13
-1.9341672895
 23
2.334988671
 33
0.0
 40
0.0
 40
0.0
 40
0.0
 40
0.0
 40
0.2352255441
 40
0.4870808209
 40
0.7456501518
 40
1.0
 40
1.0
 40
1.0
 40
1.0
 10
-39.3684273727
 20
45.2832144937
 30
0.0
 10
-39.3684273727
 20
45.5206311518
 30
0.0
 10
-39.4228044951
 20
46.0129436705
 30
0.0
 10
-39.635762971
 20
46.7380619411
 30
0.0
 10
-39.9697875614
 20
47.4375999933
 30
0.0
 10
-40.2651024923
 20
47.865576575
 30
0.0
 10
-40.4290875445
 20
48.0635445796
 30
0.0
 11
-39.3684273727
 21
45.2832144937
 31
0.0
 11
-39.4407096106
 21
45.9917872168
 31
0.0
 11
-39.6526304092
 21
46.7243541176
 31
0.0
 11
-39.9897477162
 21
47.4309919726
 31
0.0
 11
-40.4290875445
 21
48.0635445796
 31
0.0
  0
SPLINE
  5
408
100
AcDbEntity
  8
0
100
AcDbSpline
 62
7
  6
CONTINUOUS
 70
0
 71
3
 72
8
 73
4
 74
2
 42
0.0000001
 43
0.0000001
 44
0.0000000001
 12
-0.3137768097
 22
0.3788014096
 32
0.0
 13
-0.3574880884
 23
0.3378624488
 33
0.0
 40
0.0
 40
0.0
 40
0.0
 40
0.0
 40
1.0
 40
1.0
 40
1.0
 40
1.0
 10
-40.4290875445
 20
48.0635445796
 30
0.0
 10
-40.5336798143
 20
48.1898117162
 30
0.0
 10
-40.6454084422
 20
48.3102777831
 30
0.0
 10
-40.7645711383
 20
48.4228985994
 30
0.0
 11
-40.4290875445
 21
48.0635445796
 31
0.0
 11
-40.7645711383
 21
48.4228985994
 31
0.0
  0
SPLINE
  5
409
100
AcDbEntity
  8
0
100
AcDbSpline
 62
7
  6
CONTINUOUS
 70
0
 71
3
 72
12
 73
8
 74
6
 42
0.0000001
 43
0.0000001
 44
0.0000000001
 12
-1.6597060336
 22
1.5685902917
 32
0.0
 13
-2.0574283357
 23
-1.0250810968
 33
0.0
 40
0.0
 40
0.0
 40
0.0
 40
0.0
 40
0.1030319933
 40
0.3916494942
 40
0.6458336001
 40
0.8701786499
 40
1.0
 40
1.0
 40
1.0
 40
1.0
 10
-40.7645711383
 20
48.4228985994
 30
0.0
 10
-40.8215720786
 20
48.4767702608
 30
0.0
 10
-41.0447124172
 20
48.6747258255
 30
0.0
 10
-41.4539799765
 20
48.9530527839
 30
0.0
 10
-42.0098445028
 20
49.1539829299
 30
0.0
 10
-42.4836308326
 20
49.1607765678
 30
0.0
 10
-42.7424145783
 20
49.0709569182
 30
0.0
 10
-42.8314472864
 20
49.0265977809
 30
0.0
 11
-40.7645711383
 21
48.4228985994
 31
0.0
 11
-40.9407096106
 21
48.5789045239
 31
0.0
 11
-41.4897477162
 21
48.9419508769
 31
0.0
 11
-42.0387858219
 21
49.1279426296
 31
0.0
 11
-42.550407888
 21
49.1242047514
 31
0.0
 11
-42.8314472864
 21
49.0265977809
 31
0.0
  0
SPLINE
  5
40A
100
AcDbEntity
  8
0
100
AcDbSpline
 62
7
  6
CONTINUOUS
 70
0
 71
3
 72
11
 73
7
 74
5
 42
0.0000001
 43
0.0000001
 44
0.0000000001
 12
0.0
 22
-1.8865811492
 32
0.0
 13
-1.7019854425
 23
-0.8479873023
 33
0.0
 40
0.0
 40
0.0
 40
0.0
 40
0.0
 40
0.3394409699
 40
0.6373997744
 40
0.9025320094
 40
1.0
 40
1.0
 40
1.0
 40
1.0
 10
15.7859015599
 20
17.7060500275
 30
0.0
 10
15.7859015599
 20
17.4925890491
 30
0.0
 10
15.7461223715
 20
17.0894753323
 30
0.0
 10
15.5404403797
 20
16.551230846
 30
0.0
 10
15.2589305744
 20
16.2304410861
 30
0.0
 10
15.0615771535
 20
16.1115376233
 30
0.0
 10
15.0062807865
 20
16.0839870839
 30
0.0
 11
15.7859015599
 21
17.7060500275
 31
0.0
 11
15.713619322
 21
17.0697595423
 31
0.0
 11
15.5016985234
 21
16.54911344
 31
0.0
 11
15.1645812163
 21
16.1795928921
 31
0.0
 11
15.0062807865
 21
16.0839870839
 31
0.0
  0
SPLINE
  5
40B
100
AcDbEntity
  8
0
100
AcDbSpline
 62
7
  6
CONTINUOUS
 70
0
 71
3
 72
11
 73
7
 74
5
 42
0.0000001
 43
0.0000001
 44
0.0000000001
 12
0.0
 22
-1.8865811492
 32
0.0
 13
-1.7019854425
 23
-0.8479873023
 33
0.0
 40
0.0
 40
0.0
 40
0.0
 40
0.0
 40
0.3394409699
 40
0.6373997744
 40
0.9025320094
 40
1.0
 40
1.0
 40
1.0
 40
1.0
 10
-39.3684273727
 20
-22.2667670015
 30
0.0
 10
-39.3684273727
 20
-22.4802279798
 30
0.0
 10
-39.408206561
 20
-22.8833416966
 30
0.0
 10
-39.6138885529
 20
-23.4215861829
 30
0.0
 10
-39.8953983581
 20
-23.7423759429
 30
0.0
 10
-40.092751779
 20
-23.8612794056
 30
0.0
 10
-40.148048146
 20
-23.888829945
 30
0.0
 11
-39.3684273727
 21
-22.2667670015
 31
0.0
 11
-39.4407096106
 21
-22.9030574866
 31
0.0
 11
-39.6526304092
 21
-23.4237035889
 31
0.0
 11
-39.9897477162
 21
-23.7932241368
 31
0.0
 11
-40.148048146
 21
-23.888829945
 31
0.0
  0
SPLINE
  5
40C
100
AcDbEntity
  8
0
100
AcDbSpline
 62
7
  6
CONTINUOUS
 70
0
 71
3
 72
11
 73
7
 74
5
 42
0.0000001
 43
0.0000001
 44
0.0000000001
 12
0.0
 22
3.027944847
 32
0.0
 13
-1.9341672895
 23
2.334988671
 33
0.0
 40
0.0
 40
0.0
 40
0.0
 40
0.0
 40
0.2352255441
 40
0.4870808209
 40
0.7456501518
 40
1.0
 40
1.0
 40
1.0
 40
1.0
 10
15.7859015599
 20
-49.8439314677
 30
0.0
 10
15.7859015599
 20
-49.6065148097
 30
0.0
 10
15.7315244375
 20
-49.114202291
 30
0.0
 10
15.5185659615
 20
-48.3890840203
 30
0.0
 10
15.1845413711
 20
-47.6895459682
 30
0.0
 10
14.8892264402
 20
-47.2615693865
 30
0.0
 10
14.7252413881
 20
-47.0636013818
 30
0.0
 11
15.7859015599
 21
-49.8439314677
 31
0.0
 11
15.713619322
 21
-49.1353587447
 31
0.0
 11
15.5016985234
 21
-48.4027918438
 31
0.0
 11
15.1645812163
 21
-47.6961539889
 31
0.0
 11
14.7252413881
 21
-47.0636013818
 31
0.0
  0
SPLINE
  5
40D
100
AcDbEntity
  8
0
100
AcDbSpline
 62
7
  6
CONTINUOUS
 70
0
 71
3
 72
8
 73
4
 74
2
 42
0.0000001
 43
0.0000001
 44
0.0000000001
 12
-0.3137768097
 22
0.3788014096
 32
0.0
 13
-0.3574880884
 23
0.3378624488
 33
0.0
 40
0.0
 40
0.0
 40
0.0
 40
0.0
 40
1.0
 40
1.0
 40
1.0
 40
1.0
 10
14.7252413881
 20
-47.0636013818
 30
0.0
 10
14.6206491182
 20
-46.9373342453
 30
0.0
 10
14.5089204904
 20
-46.8168681784
 30
0.0
 10
14.3897577942
 20
-46.7042473621
 30
0.0
 11
14.7252413881
 21
-47.0636013818
 31
0.0
 11
14.3897577942
 21
-46.7042473621
 31
0.0
  0
SPLINE
  5
40E
100
AcDbEntity
  8
0
100
AcDbSpline
 62
7
  6
CONTINUOUS
 70
0
 71
3
 72
12
 73
8
 74
6
 42
0.0000001
 43
0.0000001
 44
0.0000000001
 12
-1.6597060336
 22
1.5685902917
 32
0.0
 13
-2.0574283357
 23
-1.0250810968
 33
0.0
 40
0.0
 40
0.0
 40
0.0
 40
0.0
 40
0.1030319933
 40
0.3916494942
 40
0.6458336001
 40
0.8701786499
 40
1.0
 40
1.0
 40
1.0
 40
1.0
 10
14.3897577942
 20
-46.7042473621
 30
0.0
 10
14.3327568539
 20
-46.6503757006
 30
0.0
 10
14.1096165153
 20
-46.4524201359
 30
0.0
 10
13.7003489561
 20
-46.1740931775
 30
0.0
 10
13.1444844297
 20
-45.9731630315
 30
0.0
 10
12.6706980999
 20
-45.9663693937
 30
0.0
 10
12.4119143542
 20
-46.0561890433
 30
0.0
 10
12.3228816461
 20
-46.1005481806
 30
0.0
 11
14.3897577942
 21
-46.7042473621
 31
0.0
 11
14.213619322
 21
-46.5482414376
 31
0.0
 11
13.6645812163
 21
-46.1851950846
 31
0.0
 11
13.1155431106
 21
-45.9992033319
 31
0.0
 11
12.6039210445
 21
-46.0029412101
 31
0.0
 11
12.3228816461
 21
-46.1005481806
 31
0.0
  0
SPLINE
  5
40F
100
AcDbEntity
  8
0
100
AcDbSpline
 62
7
  6
CONTINUOUS
 70
0
 71
3
 72
15
 73
11
 74
9
 42
0.0000001
 43
0.0000001
 44
0.0000000001
 12
0.0
 22
14.7168945061
 32
0.0
 13
-13.1631906133
 23
6.5815953066
 33
0.0
 40
0.0
 40
0.0
 40
0.0
 40
0.0
 40
0.1197746015
 40
0.2468130135
 40
0.3784628664
 40
0.5116661699
 40
0.6432352752
 40
0.7701190224
 40
0.8896792279
 40
1.0
 40
1.0
 40
1.0
 40
1.0
 10
31.5543827803
 20
22.2297293954
 30
0.0
 10
31.5543827803
 20
22.8172994536
 30
0.0
 10
31.4544483399
 20
24.0293015571
 30
0.0
 10
31.0480838976
 20
25.8458758567
 30
0.0
 10
30.3954738434
 20
27.6593793899
 30
0.0
 10
29.5210641694
 20
29.4015444137
 30
0.0
 10
28.4576092976
 20
31.0074014033
 30
0.0
 10
27.2443998529
 20
32.4170783057
 30
0.0
 10
25.926812069
 20
33.5777573859
 30
0.0
 10
24.9673727525
 20
34.1834884471
 30
0.0
 10
24.4833149685
 20
34.4255173391
 30
0.0
 11
31.5543827803
 21
22.2297293954
 31
0.0
 11
31.4185141951
 21
23.987195437
 31
0.0
 11
31.0161297928
 21
25.8129916295
 31
0.0
 11
30.3626929806
 21
27.6369536491
 31
0.0
 11
29.4833149685
 21
29.3889876583
 31
0.0
 11
28.4117897604
 21
31.0017639726
 31
0.0
 11
27.1892954692
 21
32.4133045028
 31
0.0
 11
25.8628118649
 21
33.569364538
 31
0.0
 11
24.4833149685
 21
34.4255173391
 31
0.0
  0
SPLINE
  5
410
100
AcDbEntity
  8
0
100
AcDbSpline
 62
7
  6
CONTINUOUS
 70
0
 71
3
 72
11
 73
7
 74
5
 42
0.0000001
 43
0.0000001
 44
0.0000000001
 12
-4.1453484568
 22
2.0726742284
 32
0.0
 13
-4.1639351286
 23
-2.08227768
 33
0.0
 40
0.0
 40
0.0
 40
0.0
 40
0.0
 40
0.3183488335
 40
0.6069120174
 40
0.8738205244
 40
1.0
 40
1.0
 40
1.0
 40
1.0
 10
-44.8131495878
 20
69.0737496173
 30
0.0
 10
-45.2530385364
 20
69.2936940915
 30
0.0
 10
-46.1334814015
 20
69.6386536605
 30
0.0
 10
-47.4846185777
 20
69.8292501274
 30
0.0
 10
-48.5432908329
 20
69.6757428097
 30
0.0
 10
-49.1099114947
 20
69.4449789235
 30
0.0
 10
-49.2850458783
 20
69.3573986883
 30
0.0
 11
-44.8131495878
 21
69.0737496173
 31
0.0
 11
-46.1926464842
 21
69.5970937125
 31
0.0
 11
-47.5191300885
 21
69.7675172817
 31
0.0
 11
-48.7416243798
 21
69.5784710427
 31
0.0
 11
-49.2850458783
 21
69.3573986883
 31
0.0
  0
SPLINE
  5
411
100
AcDbEntity
  8
RACCORDO
100
AcDbSpline
 62
7
  6
CONTINUOUS
 70
0
 71
3
 72
15
 73
11
 74
9
 42
0.0000001
 43
0.0000001
 44
0.0000000001
 12
-0.0
 22
-13.9859829713
 32
0.0
 13
12.5094434624
 23
-6.2547217312
 33
0.0
 40
0.0
 40
0.0
 40
0.0
 40
0.0
 40
0.1226191803
 40
0.2495466124
 40
0.3785470167
 40
0.5081454137
 40
0.6366703026
 40
0.7625626819
 40
0.8842840488
 40
1.0
 40
1.0
 40
1.0
 40
1.0
 10
-54.8034562152
 20
-22.7952930557
 30
0.0
 10
-54.8034562152
 20
-23.366942978
 30
0.0
 10
-54.7086075918
 20
-24.5316533683
 30
0.0
 10
-54.321603043
 20
-26.2583443165
 30
0.0
 10
-53.7090225317
 20
-27.9529378789
 30
0.0
 10
-52.8942108175
 20
-29.5681025724
 30
0.0
 10
-51.8994018117
 20
-31.0618962314
 30
0.0
 10
-50.7477291057
 20
-32.3911359634
 30
0.0
 10
-49.4676508837
 20
-33.5091014252
 30
0.0
 10
-48.5235432064
 20
-34.0995207678
 30
0.0
 10
-48.0410291567
 20
-34.3407777927
 30
0.0
 11
-54.8034562152
 21
-22.7952930557
 31
0.0
 11
-54.6715483056
 21
-24.5051623508
 31
0.0
 11
-54.2880547765
 21
-26.2384497384
 31
0.0
 11
-53.6767780231
 21
-27.9359388246
 31
0.0
 11
-52.8603436216
 21
-29.5542132597
 31
0.0
 11
-51.8619827114
 21
-31.049021067
 31
0.0
 11
-50.7054283912
 21
-32.3766307854
 31
0.0
 11
-49.4182221534
 21
-33.4907411513
 31
0.0
 11
-48.0410291567
 21
-34.3407777927
 31
0.0
  0
SPLINE
  5
412
100
AcDbEntity
  8
RACCORDO
100
AcDbSpline
 62
7
  6
CONTINUOUS
 70
0
 71
3
 72
12
 73
8
 74
6
 42
0.0000001
 43
0.0000001
 44
0.0000000001
 12
-6.4877358447
 22
-3.2438679223
 32
0.0
 13
0.0
 23
-7.2535091844
 33
0.0
 40
0.0
 40
0.0
 40
0.0
 40
0.0
 40
0.1728513508
 40
0.3544696933
 40
0.5518145037
 40
0.7678644427
 40
1.0
 40
1.0
 40
1.0
 40
1.0
 10
-51.6187379207
 20
68.1910413005
 30
0.0
 10
-51.9925425556
 20
68.0041389831
 30
0.0
 10
-52.7135344101
 20
67.5215180209
 30
0.0
 10
-53.6121375903
 20
66.5180069968
 30
0.0
 10
-54.2959914071
 20
65.2374299423
 30
0.0
 10
-54.7166731015
 20
63.7232697292
 30
0.0
 10
-54.8034562152
 20
62.6364623141
 30
0.0
 10
-54.8034562152
 20
62.0751965152
 30
0.0
 11
-51.6187379207
 21
68.1910413005
 31
0.0
 11
-52.6615192951
 21
67.4949317998
 31
0.0
 11
-53.5448228792
 21
66.5175683436
 31
0.0
 11
-54.2276133257
 21
65.2594647962
 31
0.0
 11
-54.6584852381
 21
63.752741474
 31
0.0
 11
-54.8034562152
 21
62.0751965152
 31
0.0
  0
SPLINE
  5
413
100
AcDbEntity
  8
RACCORDO
100
AcDbSpline
 62
7
  6
CONTINUOUS
 70
0
 71
3
 72
11
 73
7
 74
5
 42
0.0000001
 43
0.0000001
 44
0.0000000001
 12
4.9738161426
 22
-2.4869080713
 32
0.0
 13
4.9738161426
 23
2.4869080713
 33
0.0
 40
0.0
 40
0.0
 40
0.0
 40
0.0
 40
0.281233171
 40
0.5375775947
 40
0.7739321312
 40
1.0
 40
1.0
 40
1.0
 40
1.0
 10
21.2554353995
 20
-68.9890100708
 30
0.0
 10
21.7217027614
 20
-69.2221437518
 30
0.0
 10
22.6578324457
 20
-69.5870111482
 30
0.0
 10
24.0880918097
 20
-69.8067313614
 30
0.0
 10
25.4282566475
 20
-69.6906334995
 30
0.0
 10
26.2471918738
 20
-69.4036277044
 30
0.0
 10
26.6219985455
 20
-69.2162243685
 30
0.0
 11
21.2554353995
 21
-68.9890100708
 31
0.0
 11
22.7168654699
 21
-69.5458145635
 31
0.0
 11
24.1272334327
 21
-69.7529991175
 31
0.0
 11
25.4361331813
 21
-69.6335058095
 31
0.0
 11
26.6219985455
 21
-69.2162243685
 31
0.0
  0
SPLINE
  5
414
100
AcDbEntity
  8
0
100
AcDbSpline
 62
7
  6
CONTINUOUS
 70
0
 71
3
 72
11
 73
7
 74
5
 42
0.0000001
 43
0.0000001
 44
0.0000000001
 12
1.7019854425
 22
0.8479873023
 32
0.0
 13
0.0
 23
1.8865811492
 33
0.0
 40
0.0
 40
0.0
 40
0.0
 40
0.0
 40
0.0974679906
 40
0.3626002256
 40
0.6605590301
 40
1.0
 40
1.0
 40
1.0
 40
1.0
 10
15.0062807865
 20
-51.4659944113
 30
0.0
 10
15.0615771535
 20
-51.4384438718
 30
0.0
 10
15.2589305744
 20
-51.3195404091
 30
0.0
 10
15.5404403797
 20
-50.9987506492
 30
0.0
 10
15.7461223715
 20
-50.4605061629
 30
0.0
 10
15.7859015599
 20
-50.0573924461
 30
0.0
 10
15.7859015599
 20
-49.8439314677
 30
0.0
 11
15.0062807865
 21
-51.4659944113
 31
0.0
 11
15.1645812163
 21
-51.370388603
 31
0.0
 11
15.5016985234
 21
-51.0008680552
 31
0.0
 11
15.713619322
 21
-50.4802219529
 31
0.0
 11
15.7859015599
 21
-49.8439314677
 31
0.0
  0
SPLINE
  5
415
100
AcDbEntity
  8
0
100
AcDbSpline
 62
7
  6
CONTINUOUS
 70
0
 71
3
 72
12
 73
8
 74
6
 42
0.0000001
 43
0.0000001
 44
0.0000000001
 12
2.0574283357
 22
1.0250810968
 32
0.0
 13
1.6597060336
 23
-1.5685902917
 33
0.0
 40
0.0
 40
0.0
 40
0.0
 40
0.0
 40
0.1298213501
 40
0.3541663999
 40
0.6083505058
 40
0.8969680067
 40
1.0
 40
1.0
 40
1.0
 40
1.0
 10
-42.8314472864
 20
-18.5233837143
 30
0.0
 10
-42.7424145783
 20
-18.479024577
 30
0.0
 10
-42.4836308326
 20
-18.3892049274
 30
0.0
 10
-42.0098445028
 20
-18.3959985652
 30
0.0
 10
-41.4539799765
 20
-18.5969287113
 30
0.0
 10
-41.0447124172
 20
-18.8752556696
 30
0.0
 10
-40.8215720786
 20
-19.0732112343
 30
0.0
 10
-40.7645711383
 20
-19.1270828958
 30
0.0
 11
-42.8314472864
 21
-18.5233837143
 31
0.0
 11
-42.550407888
 21
-18.4257767438
 31
0.0
 11
-42.0387858219
 21
-18.4220388656
 31
0.0
 11
-41.4897477162
 21
-18.6080306183
 31
0.0
 11
-40.9407096106
 21
-18.9710769713
 31
0.0
 11
-40.7645711383
 21
-19.1270828958
 31
0.0
  0
SPLINE
  5
416
100
AcDbEntity
  8
0
100
AcDbSpline
 62
7
  6
CONTINUOUS
 70
0
 71
3
 72
8
 73
4
 74
2
 42
0.0000001
 43
0.0000001
 44
0.0000000001
 12
0.3574880884
 22
-0.3378624488
 32
0.0
 13
0.3137768097
 23
-0.3788014096
 33
0.0
 40
0.0
 40
0.0
 40
0.0
 40
0.0
 40
1.0
 40
1.0
 40
1.0
 40
1.0
 10
-40.7645711383
 20
-19.1270828958
 30
0.0
 10
-40.6454084422
 20
-19.2397037121
 30
0.0
 10
-40.5336798143
 20
-19.360169779
 30
0.0
 10
-40.4290875445
 20
-19.4864369156
 30
0.0
 11
-40.7645711383
 21
-19.1270828958
 31
0.0
 11
-40.4290875445
 21
-19.4864369156
 31
0.0
  0
SPLINE
  5
417
100
AcDbEntity
  8
0
100
AcDbSpline
 62
7
  6
CONTINUOUS
 70
0
 71
3
 72
11
 73
7
 74
5
 42
0.0000001
 43
0.0000001
 44
0.0000000001
 12
1.9341672895
 22
-2.334988671
 32
0.0
 13
0.0
 23
-3.027944847
 33
0.0
 40
0.0
 40
0.0
 40
0.0
 40
0.0
 40
0.2543498482
 40
0.5129191791
 40
0.7647744559
 40
1.0
 40
1.0
 40
1.0
 40
1.0
 10
-40.4290875445
 20
-19.4864369156
 30
0.0
 10
-40.2651024923
 20
-19.6844049202
 30
0.0
 10
-39.9697875614
 20
-20.1123815019
 30
0.0
 10
-39.635762971
 20
-20.8119195541
 30
0.0
 10
-39.4228044951
 20
-21.5370378247
 30
0.0
 10
-39.3684273727
 20
-22.0293503434
 30
0.0
 10
-39.3684273727
 20
-22.2667670015
 30
0.0
 11
-40.4290875445
 21
-19.4864369156
 31
0.0
 11
-39.9897477162
 21
-20.1189895226
 31
0.0
 11
-39.6526304092
 21
-20.8256273775
 31
0.0
 11
-39.4407096106
 21
-21.5581942784
 31
0.0
 11
-39.3684273727
 21
-22.2667670015
 31
0.0
  0
SPLINE
  5
418
100
AcDbEntity
  8
0
100
AcDbSpline
 62
7
  6
CONTINUOUS
 70
0
 71
3
 72
12
 73
8
 74
6
 42
0.0000001
 43
0.0000001
 44
0.0000000001
 12
2.0574283357
 22
1.0250810968
 32
0.0
 13
1.6597060336
 23
-1.5685902917
 33
0.0
 40
0.0
 40
0.0
 40
0.0
 40
0.0
 40
0.1298213501
 40
0.3541663999
 40
0.6083505058
 40
0.8969680067
 40
1.0
 40
1.0
 40
1.0
 40
1.0
 10
12.3228816461
 20
21.4494333146
 30
0.0
 10
12.4119143542
 20
21.4937924519
 30
0.0
 10
12.6706980999
 20
21.5836121015
 30
0.0
 10
13.1444844297
 20
21.5768184637
 30
0.0
 10
13.7003489561
 20
21.3758883177
 30
0.0
 10
14.1096165153
 20
21.0975613593
 30
0.0
 10
14.3327568539
 20
20.8996057946
 30
0.0
 10
14.3897577942
 20
20.8457341331
 30
0.0
 11
12.3228816461
 21
21.4494333146
 31
0.0
 11
12.6039210445
 21
21.5470402851
 31
0.0
 11
13.1155431106
 21
21.5507781633
 31
0.0
 11
13.6645812163
 21
21.3647864106
 31
0.0
 11
14.213619322
 21
21.0017400576
 31
0.0
 11
14.3897577942
 21
20.8457341331
 31
0.0
  0
SPLINE
  5
419
100
AcDbEntity
  8
0
100
AcDbSpline
 62
7
  6
CONTINUOUS
 70
0
 71
3
 72
8
 73
4
 74
2
 42
0.0000001
 43
0.0000001
 44
0.0000000001
 12
0.3574880884
 22
-0.3378624488
 32
0.0
 13
0.3137768097
 23
-0.3788014096
 33
0.0
 40
0.0
 40
0.0
 40
0.0
 40
0.0
 40
1.0
 40
1.0
 40
1.0
 40
1.0
 10
14.3897577942
 20
20.8457341331
 30
0.0
 10
14.5089204904
 20
20.7331133168
 30
0.0
 10
14.6206491182
 20
20.6126472499
 30
0.0
 10
14.7252413881
 20
20.4863801133
 30
0.0
 11
14.3897577942
 21
20.8457341331
 31
0.0
 11
14.7252413881
 21
20.4863801133
 31
0.0
  0
SPLINE
  5
41A
100
AcDbEntity
  8
0
100
AcDbSpline
 62
7
  6
CONTINUOUS
 70
0
 71
3
 72
11
 73
7
 74
5
 42
0.0000001
 43
0.0000001
 44
0.0000000001
 12
1.9341672895
 22
-2.334988671
 32
0.0
 13
0.0
 23
-3.027944847
 33
0.0
 40
0.0
 40
0.0
 40
0.0
 40
0.0
 40
0.2543498482
 40
0.5129191791
 40
0.7647744559
 40
1.0
 40
1.0
 40
1.0
 40
1.0
 10
14.7252413881
 20
20.4863801133
 30
0.0
 10
14.8892264402
 20
20.2884121087
 30
0.0
 10
15.1845413711
 20
19.860435527
 30
0.0
 10
15.5185659615
 20
19.1608974748
 30
0.0
 10
15.7315244375
 20
18.4357792042
 30
0.0
 10
15.7859015599
 20
17.9434666855
 30
0.0
 10
15.7859015599
 20
17.7060500275
 30
0.0
 11
14.7252413881
 21
20.4863801133
 31
0.0
 11
15.1645812163
 21
19.8538275063
 31
0.0
 11
15.5016985234
 21
19.1471896514
 31
0.0
 11
15.713619322
 21
18.4146227505
 31
0.0
 11
15.7859015599
 21
17.7060500275
 31
0.0
  0
SPLINE
  5
41B
100
AcDbEntity
  8
0
100
AcDbSpline
 62
7
  6
CONTINUOUS
 70
0
 71
3
 72
11
 73
7
 74
5
 42
0.0000001
 43
0.0000001
 44
0.0000000001
 12
1.7019854425
 22
0.8479873023
 32
0.0
 13
0.0
 23
1.8865811492
 33
0.0
 40
0.0
 40
0.0
 40
0.0
 40
0.0
 40
0.0974679906
 40
0.3626002256
 40
0.6605590301
 40
1.0
 40
1.0
 40
1.0
 40
1.0
 10
-40.148048146
 20
43.6611515501
 30
0.0
 10
-40.092751779
 20
43.6887020896
 30
0.0
 10
-39.8953983581
 20
43.8076055523
 30
0.0
 10
-39.6138885529
 20
44.1283953123
 30
0.0
 10
-39.408206561
 20
44.6666397985
 30
0.0
 10
-39.3684273727
 20
45.0697535154
 30
0.0
 10
-39.3684273727
 20
45.2832144937
 30
0.0
 11
-40.148048146
 21
43.6611515501
 31
0.0
 11
-39.9897477162
 21
43.7567573584
 31
0.0
 11
-39.6526304092
 21
44.1262779063
 31
0.0
 11
-39.4407096106
 21
44.6469240085
 31
0.0
 11
-39.3684273727
 21
45.2832144937
 31
0.0
  0
SPLINE
  5
41C
100
AcDbEntity
  8
0
100
AcDbSpline
 62
7
  6
CONTINUOUS
 70
0
 71
3
 72
12
 73
8
 74
6
 42
0.0000001
 43
0.0000001
 44
0.0000000001
 12
5.6615853469
 22
2.831214329
 32
0.0
 13
0.0
 23
6.3015901455
 33
0.0
 40
0.0
 40
0.0
 40
0.0
 40
0.0
 40
0.0977006842
 40
0.294299355
 40
0.5070334244
 40
0.7417668452
 40
1.0
 40
1.0
 40
1.0
 40
1.0
 10
28.9552112589
 20
-68.0491293784
 30
0.0
 10
29.1395915129
 20
-67.9569255194
 30
0.0
 10
29.6724612474
 20
-67.6340912732
 30
0.0
 10
30.4329737679
 20
-66.8648610901
 30
0.0
 10
31.0847227614
 20
-65.6623317654
 30
0.0
 10
31.475559542
 20
-64.2216601301
 30
0.0
 10
31.5543827803
 20
-63.1831866767
 30
0.0
 10
31.5543827803
 20
-62.6407601755
 30
0.0
 11
28.9552112589
 21
-68.0491293784
 31
0.0
 11
29.4833149685
 21
-67.7289506265
 31
0.0
 11
30.3626929806
 21
-66.8562946294
 31
0.0
 11
31.0161297928
 21
-65.6857694221
 31
0.0
 11
31.4185141951
 21
-64.2623576319
 31
0.0
 11
31.5543827803
 21
-62.6407601755
 31
0.0
  0
SPLINE
  5
41D
100
AcDbEntity
  8
0
100
AcDbSpline
 62
7
  6
CONTINUOUS
 70
0
 71
3
 72
16
 73
12
 74
10
 42
0.0000001
 43
0.0000001
 44
0.0000000001
 12
0.0
 22
-5.7997384459
 32
0.0
 13
5.2322532796
 23
2.6068873639
 33
0.0
 40
0.0
 40
0.0
 40
0.0
 40
0.0
 40
0.1228072578
 40
0.2542966162
 40
0.3892912682
 40
0.522083
 40
0.6472939488
 40
0.7607842163
 40
0.8607345731
 40
0.9489516065
 40
1.0
 40
1.0
 40
1.0
 40
1.0
 10
-43.6110680598
 20
47.4045348373
 30
0.0
 10
-43.6110680598
 20
47.1671181792
 30
0.0
 10
-43.5566909374
 20
46.6748056605
 30
0.0
 10
-43.3437324615
 20
45.9496873899
 30
0.0
 10
-43.0097078711
 20
45.2501493377
 30
0.0
 10
-42.5763102558
 20
44.6220604385
 30
0.0
 10
-42.0712781238
 20
44.1058485231
 30
0.0
 10
-41.525515456
 20
43.7346965471
 30
0.0
 10
-40.9696509297
 20
43.5337664011
 30
0.0
 10
-40.4958645999
 20
43.5269727632
 30
0.0
 10
-40.2370808541
 20
43.6167924128
 30
0.0
 10
-40.148048146
 20
43.6611515501
 30
0.0
 11
-43.6110680598
 21
47.4045348373
 31
0.0
 11
-43.5387858219
 21
46.6959621142
 31
0.0
 11
-43.3268650233
 21
45.9633952134
 31
0.0
 11
-42.9897477162
 21
45.2567573584
 31
0.0
 11
-42.550407888
 21
44.6242047514
 31
0.0
 11
-42.0387858219
 21
44.1088448071
 31
0.0
 11
-41.4897477162
 21
43.7457984542
 31
0.0
 11
-40.9407096106
 21
43.5598067015
 31
0.0
 11
-40.4290875445
 21
43.5635445796
 31
0.0
 11
-40.148048146
 21
43.6611515501
 31
0.0
  0
SPLINE
  5
41E
100
AcDbEntity
  8
0
100
AcDbSpline
 62
7
  6
CONTINUOUS
 70
0
 71
3
 72
11
 73
7
 74
5
 42
0.0000001
 43
0.0000001
 44
0.0000000001
 12
0.0
 22
1.8865811492
 32
0.0
 13
1.7019854425
 23
0.8479873023
 33
0.0
 40
0.0
 40
0.0
 40
0.0
 40
0.0
 40
0.3394409699
 40
0.6373997744
 40
0.9025320094
 40
1.0
 40
1.0
 40
1.0
 40
1.0
 10
11.5432608727
 20
19.827370371
 30
0.0
 10
11.5432608727
 20
20.0408313494
 30
0.0
 10
11.5830400611
 20
20.4439450662
 30
0.0
 10
11.788722053
 20
20.9821895524
 30
0.0
 10
12.0702318582
 20
21.3029793124
 30
0.0
 10
12.2675852791
 20
21.4218827751
 30
0.0
 10
12.3228816461
 20
21.4494333146
 30
0.0
 11
11.5432608727
 21
19.827370371
 31
0.0
 11
11.6155431106
 21
20.4636608562
 31
0.0
 11
11.8274639092
 21
20.9843069585
 31
0.0
 11
12.1645812163
 21
21.3538275063
 31
0.0
 11
12.3228816461
 21
21.4494333146
 31
0.0
  0
SPLINE
  5
41F
100
AcDbEntity
  8
0
100
AcDbSpline
 62
7
  6
CONTINUOUS
 70
0
 71
3
 72
11
 73
7
 74
5
 42
0.0000001
 43
0.0000001
 44
0.0000000001
 12
0.0
 22
1.8865811492
 32
0.0
 13
1.7019854425
 23
0.8479873023
 33
0.0
 40
0.0
 40
0.0
 40
0.0
 40
0.0
 40
0.3394409699
 40
0.6373997744
 40
0.9025320094
 40
1.0
 40
1.0
 40
1.0
 40
1.0
 10
-43.6110680598
 20
-20.1454466579
 30
0.0
 10
-43.6110680598
 20
-19.9319856796
 30
0.0
 10
-43.5712888714
 20
-19.5288719627
 30
0.0
 10
-43.3656068796
 20
-18.9906274765
 30
0.0
 10
-43.0840970744
 20
-18.6698377165
 30
0.0
 10
-42.8867436535
 20
-18.5509342538
 30
0.0
 10
-42.8314472864
 20
-18.5233837143
 30
0.0
 11
-43.6110680598
 21
-20.1454466579
 31
0.0
 11
-43.5387858219
 21
-19.5091561727
 31
0.0
 11
-43.3268650233
 21
-18.9885100705
 31
0.0
 11
-42.9897477162
 21
-18.6189895226
 31
0.0
 11
-42.8314472864
 21
-18.5233837143
 31
0.0
  0
SPLINE
  5
420
100
AcDbEntity
  8
0
100
AcDbSpline
 62
7
  6
CONTINUOUS
 70
0
 71
3
 72
16
 73
12
 74
10
 42
0.0000001
 43
0.0000001
 44
0.0000000001
 12
0.0
 22
-5.7997384459
 32
0.0
 13
5.2322532796
 23
2.6068873639
 33
0.0
 40
0.0
 40
0.0
 40
0.0
 40
0.0
 40
0.1228072578
 40
0.2542966162
 40
0.3892912682
 40
0.522083
 40
0.6472939488
 40
0.7607842163
 40
0.8607345731
 40
0.9489516065
 40
1.0
 40
1.0
 40
1.0
 40
1.0
 10
11.5432608727
 20
-47.7226111242
 30
0.0
 10
11.5432608727
 20
-47.9600277822
 30
0.0
 10
11.5976379951
 20
-48.4523403009
 30
0.0
 10
11.8105964711
 20
-49.1774585716
 30
0.0
 10
12.1446210615
 20
-49.8769966237
 30
0.0
 10
12.5780186767
 20
-50.505085523
 30
0.0
 10
13.0830508087
 20
-51.0212974383
 30
0.0
 10
13.6288134766
 20
-51.3924494144
 30
0.0
 10
14.1846780029
 20
-51.5933795604
 30
0.0
 10
14.6584643327
 20
-51.6001731982
 30
0.0
 10
14.9172480784
 20
-51.5103535486
 30
0.0
 10
15.0062807865
 20
-51.4659944113
 30
0.0
 11
11.5432608727
 21
-47.7226111242
 31
0.0
 11
11.6155431106
 21
-48.4311838472
 31
0.0
 11
11.8274639092
 21
-49.1637507481
 31
0.0
 11
12.1645812163
 21
-49.870388603
 31
0.0
 11
12.6039210445
 21
-50.5029412101
 31
0.0
 11
13.1155431106
 21
-51.0183011543
 31
0.0
 11
13.6645812163
 21
-51.3813475073
 31
0.0
 11
14.213619322
 21
-51.56733926
 31
0.0
 11
14.7252413881
 21
-51.5636013818
 31
0.0
 11
15.0062807865
 21
-51.4659944113
 31
0.0
  0
SPLINE
  5
421
100
AcDbEntity
  8
RACCORDO
100
AcDbSpline
 62
253
  6
CONTINUOUS
 70
0
 71
3
 72
16
 73
12
 74
10
 42
0.0000001
 43
0.0000001
 44
0.0000000001
 12
0.0
 22
-11.7754793717
 32
0.0
 13
10.5323089371
 23
-5.2661544686
 33
0.0
 40
0.0
 40
0.0
 40
0.0
 40
0.0
 40
0.1060006853
 40
0.2180216831
 40
0.3342210224
 40
0.4524713613
 40
0.5705564902
 40
0.6862359887
 40
0.7974706355
 40
0.902489812
 40
1.0
 40
1.0
 40
1.0
 40
1.0
 10
-54.2176697776
 20
-23.5023998368
 30
0.0
 10
-54.2176697776
 20
-23.9184694646
 30
0.0
 10
-54.1550674719
 20
-24.7749795982
 30
0.0
 10
-53.8972432465
 20
-26.0641568847
 30
0.0
 10
-53.4802276118
 20
-27.3615567683
 30
0.0
 10
-52.9164568912
 20
-28.6281050622
 30
0.0
 10
-52.2227634376
 20
-29.8261148973
 30
0.0
 10
-51.41977292
 20
-30.919963361
 30
0.0
 10
-50.5311285315
 20
-31.8771648079
 30
0.0
 10
-49.5834758419
 20
-32.6690656771
 30
0.0
 10
-48.9031513362
 20
-33.0878622878
 30
0.0
 10
-48.5608155281
 20
-33.2590301919
 30
0.0
 11
-54.2176697776
 21
-23.5023998368
 31
0.0
 11
-54.1318378603
 21
-24.7476541474
 31
0.0
 11
-53.8767024104
 21
-26.0418462566
 31
0.0
 11
-53.4599141234
 21
-27.3451268906
 31
0.0
 11
-52.8942156115
 21
-28.6174926104
 31
0.0
 11
-52.1967350213
 21
-29.8204207477
 31
0.0
 11
-51.3888068408
 21
-30.9171388639
 31
0.0
 11
-50.4948581597
 21
-31.8744997971
 31
0.0
 11
-49.5423431108
 21
-32.6631829659
 31
0.0
 11
-48.5608155281
 21
-33.2590301919
 31
0.0
  0
SPLINE
  5
422
100
AcDbEntity
  8
RACCORDO
100
AcDbSpline
 62
253
  6
CONTINUOUS
 70
0
 71
3
 72
13
 73
9
 74
7
 42
0.0000001
 43
0.0000001
 44
0.0000000001
 12
5.6575715184
 22
2.8260140073
 32
0.0
 13
-0.0000000005
 23
6.3048999784
 33
0.0
 40
0.0
 40
0.0
 40
0.0
 40
0.0
 40
0.0129805634
 40
0.1837293274
 40
0.3631640368
 40
0.5573455771
 40
0.769440415
 40
1.0
 40
1.0
 40
1.0
 40
1.0
 10
26.6219902444
 20
-69.21620775
 30
0.0
 10
26.6464697331
 20
-69.2039799987
 30
0.0
 10
26.9910296327
 20
-69.0270713539
 30
0.0
 10
27.6155083234
 20
-68.5704097815
 30
0.0
 10
28.3301178966
 20
-67.6610822058
 30
0.0
 10
28.8471422901
 20
-66.5334230146
 30
0.0
 10
29.1575605526
 20
-65.2243628956
 30
0.0
 10
29.2209304025
 20
-64.292038072
 30
0.0
 10
29.2209304024
 20
-63.8074863645
 30
0.0
 11
26.6219902444
 21
-69.21620775
 31
0.0
 11
26.6950134741
 21
-69.1787124899
 31
0.0
 11
27.5667027081
 21
-68.5469481892
 31
0.0
 11
28.2737025063
 21
-67.6637542888
 31
0.0
 11
28.7946427717
 21
-66.5558192951
 31
0.0
 11
29.1135731296
 21
-65.2571717203
 31
0.0
 11
29.2209304024
 21
-63.8074863645
 31
0.0
  0
SPLINE
  5
423
100
AcDbEntity
  8
RACCORDO
100
AcDbSpline
 62
253
  6
CONTINUOUS
 70
0
 71
3
 72
16
 73
12
 74
10
 42
0.0000001
 43
0.0000001
 44
0.0000000001
 12
-7.8297636599
 22
3.91488183
 32
0.0
 13
0.0
 23
-8.7539418957
 33
0.0
 40
0.0
 40
0.0
 40
0.0
 40
0.0
 40
0.1204904921
 40
0.2309007744
 40
0.3332799811
 40
0.4312958033
 40
0.5296945409
 40
0.6330970398
 40
0.7449962195
 40
0.8672150569
 40
1.0
 40
1.0
 40
1.0
 40
1.0
 10
-48.5608155281
 20
65.4678658396
 30
0.0
 10
-48.8752862201
 20
65.6251011856
 30
0.0
 10
-49.5044302941
 20
65.8784239144
 30
0.0
 10
-50.4688473937
 20
66.0538443973
 30
0.0
 10
-51.3843881504
 20
65.9967432695
 30
0.0
 10
-52.217675487
 20
65.7017898786
 30
0.0
 10
-52.9334652379
 20
65.1783122925
 30
0.0
 10
-53.505186347
 20
64.4507096761
 30
0.0
 10
-53.9187697518
 20
63.5484350972
 30
0.0
 10
-54.1670162601
 20
62.5012704975
 30
0.0
 10
-54.2176697776
 20
61.7555536263
 30
0.0
 10
-54.2176697776
 20
61.368089734
 30
0.0
 11
-48.5608155281
 21
65.4678658396
 31
0.0
 11
-49.5425206816
 21
65.8535962158
 31
0.0
 11
-50.4950655025
 21
66.0173927925
 31
0.0
 11
-51.3890365785
 21
65.9539190135
 31
0.0
 11
-52.196973388
 21
65.665051067
 31
0.0
 11
-52.8944148407
 21
65.1595360176
 31
0.0
 11
-53.4600461342
 21
64.4528457689
 31
0.0
 11
-53.8767750421
 21
63.5663511604
 31
0.0
 11
-54.1318695125
 21
62.5273104744
 31
0.0
 11
-54.2176697776
 21
61.368089734
 31
0.0
  0
SPLINE
  5
424
100
AcDbEntity
  8
RACCORDO
100
AcDbSpline
 62
253
  6
CONTINUOUS
 70
0
 71
3
 72
16
 73
12
 74
10
 42
0.0000001
 43
0.0000001
 44
0.0000000001
 12
0.0
 22
11.7754793717
 32
0.0
 13
-10.5323089371
 23
5.2661544686
 33
0.0
 40
0.0
 40
0.0
 40
0.0
 40
0.0
 40
0.1060006853
 40
0.2180216831
 40
0.3342210224
 40
0.4524713613
 40
0.5705564902
 40
0.6862359887
 40
0.7974706355
 40
0.902489812
 40
1.0
 40
1.0
 40
1.0
 40
1.0
 10
26.3925032777
 20
21.0630032064
 30
0.0
 10
26.3925032777
 20
21.4790728341
 30
0.0
 10
26.329900972
 20
22.3355829677
 30
0.0
 10
26.0720767465
 20
23.6247602543
 30
0.0
 10
25.6550611119
 20
24.9221601378
 30
0.0
 10
25.0912903913
 20
26.1887084318
 30
0.0
 10
24.3975969377
 20
27.3867182668
 30
0.0
 10
23.5946064201
 20
28.4805667305
 30
0.0
 10
22.7059620315
 20
29.4377681774
 30
0.0
 10
21.7583093419
 20
30.2296690467
 30
0.0
 10
21.0779848363
 20
30.6484656574
 30
0.0
 10
20.7356490282
 20
30.8196335614
 30
0.0
 11
26.3925032777
 21
21.0630032064
 31
0.0
 11
26.3066713604
 21
22.308257517
 31
0.0
 11
26.0515359105
 21
23.6024496262
 31
0.0
 11
25.6347476234
 21
24.9057302601
 31
0.0
 11
25.0690491115
 21
26.1780959799
 31
0.0
 11
24.3715685214
 21
27.3810241173
 31
0.0
 11
23.5636403409
 21
28.4777422334
 31
0.0
 11
22.6696916598
 21
29.4351031666
 31
0.0
 11
21.7171766108
 21
30.2237863354
 31
0.0
 11
20.7356490282
 21
30.8196335614
 31
0.0
  0
SPLINE
  5
425
100
AcDbEntity
  8
0
100
AcDbSpline
 62
7
  6
CONTINUOUS
 70
0
 71
3
 72
11
 73
7
 74
5
 42
0.0000001
 43
0.0000001
 44
0.0000000001
 12
-1.7019854425
 22
-0.8479873023
 32
0.0
 13
-0.0
 23
-1.8865811492
 33
0.0
 40
0.0
 40
0.0
 40
0.0
 40
0.0
 40
0.0974679906
 40
0.3626002256
 40
0.6605590301
 40
1.0
 40
1.0
 40
1.0
 40
1.0
 10
12.3228816461
 20
-46.1005481806
 30
0.0
 10
12.2675852791
 20
-46.1280987201
 30
0.0
 10
12.0702318582
 20
-46.2470021828
 30
0.0
 10
11.788722053
 20
-46.5677919427
 30
0.0
 10
11.5830400611
 20
-47.106036429
 30
0.0
 10
11.5432608727
 20
-47.5091501458
 30
0.0
 10
11.5432608727
 20
-47.7226111242
 30
0.0
 11
12.3228816461
 21
-46.1005481806
 31
0.0
 11
12.1645812163
 21
-46.1961539889
 31
0.0
 11
11.8274639092
 21
-46.5656745367
 31
0.0
 11
11.6155431106
 21
-47.086320639
 31
0.0
 11
11.5432608727
 21
-47.7226111242
 31
0.0
  0
SPLINE
  5
426
100
AcDbEntity
  8
RACCORDO
100
AcDbSpline
 62
253
  6
CONTINUOUS
 70
0
 71
3
 72
16
 73
12
 74
10
 42
0.0000001
 43
0.0000001
 44
0.0000000001
 12
7.8297636599
 22
-3.91488183
 32
0.0
 13
0.0
 23
8.7539418957
 33
0.0
 40
0.0
 40
0.0
 40
0.0
 40
0.0
 40
0.1204904921
 40
0.2309007744
 40
0.3332799811
 40
0.4312958033
 40
0.5296945409
 40
0.6330970398
 40
0.7449962195
 40
0.8672150569
 40
1.0
 40
1.0
 40
1.0
 40
1.0
 10
20.7356490282
 20
-67.90726247
 30
0.0
 10
21.0501197202
 20
-68.064497816
 30
0.0
 10
21.6792637941
 20
-68.3178205448
 30
0.0
 10
22.6436808938
 20
-68.4932410278
 30
0.0
 10
23.5592216505
 20
-68.4361398999
 30
0.0
 10
24.3925089871
 20
-68.141186509
 30
0.0
 10
25.108298738
 20
-67.6177089229
 30
0.0
 10
25.6800198471
 20
-66.8901063065
 30
0.0
 10
26.0936032519
 20
-65.9878317276
 30
0.0
 10
26.3418497602
 20
-64.9406671279
 30
0.0
 10
26.3925032777
 20
-64.1949502568
 30
0.0
 10
26.3925032777
 20
-63.8074863645
 30
0.0
 11
20.7356490282
 21
-67.90726247
 31
0.0
 11
21.7173541817
 21
-68.2929928463
 31
0.0
 11
22.6698990026
 21
-68.4567894229
 31
0.0
 11
23.5638700786
 21
-68.3933156439
 31
0.0
 11
24.3718068881
 21
-68.1044476975
 31
0.0
 11
25.0692483407
 21
-67.5989326481
 31
0.0
 11
25.6348796343
 21
-66.8922423993
 31
0.0
 11
26.0516085422
 21
-66.0057477909
 31
0.0
 11
26.3067030125
 21
-64.9667071049
 31
0.0
 11
26.3925032777
 21
-63.8074863645
 31
0.0
  0
SPLINE
  5
427
100
AcDbEntity
  8
0
100
AcDbSpline
 62
7
  6
CONTINUOUS
 70
0
 71
3
 72
16
 73
12
 74
10
 42
0.0000001
 43
0.0000001
 44
0.0000000001
 12
-5.2322532796
 22
-2.6068873639
 32
0.0
 13
-0.0
 23
5.7997384459
 33
0.0
 40
0.0
 40
0.0
 40
0.0
 40
0.0
 40
0.0510483935
 40
0.1392654269
 40
0.2392157837
 40
0.3527060512
 40
0.477917
 40
0.6107087318
 40
0.7457033838
 40
0.8771927422
 40
1.0
 40
1.0
 40
1.0
 40
1.0
 10
-40.148048146
 20
-23.888829945
 30
0.0
 10
-40.2370808541
 20
-23.9331890824
 30
0.0
 10
-40.4958645999
 20
-24.0230087319
 30
0.0
 10
-40.9696509297
 20
-24.0162150941
 30
0.0
 10
-41.525515456
 20
-23.8152849481
 30
0.0
 10
-42.0712781238
 20
-23.444132972
 30
0.0
 10
-42.5763102558
 20
-22.9279210567
 30
0.0
 10
-43.0097078711
 20
-22.2998321574
 30
0.0
 10
-43.3437324615
 20
-21.6002941053
 30
0.0
 10
-43.5566909374
 20
-20.8751758347
 30
0.0
 10
-43.6110680598
 20
-20.382863316
 30
0.0
 10
-43.6110680598
 20
-20.1454466579
 30
0.0
 11
-40.148048146
 21
-23.888829945
 31
0.0
 11
-40.4290875445
 21
-23.9864369156
 31
0.0
 11
-40.9407096106
 21
-23.9901747937
 31
0.0
 11
-41.4897477162
 21
-23.804183041
 31
0.0
 11
-42.0387858219
 21
-23.441136688
 31
0.0
 11
-42.550407888
 21
-22.9257767438
 31
0.0
 11
-42.9897477162
 21
-22.2932241368
 31
0.0
 11
-43.3268650233
 21
-21.5865862818
 31
0.0
 11
-43.5387858219
 21
-20.854019381
 31
0.0
 11
-43.6110680598
 21
-20.1454466579
 31
0.0
  0
SPLINE
  5
428
100
AcDbEntity
  8
RACCORDO
100
AcDbSpline
 62
253
  6
CONTINUOUS
 70
0
 71
3
 72
16
 73
12
 74
10
 42
0.0000001
 43
0.0000001
 44
0.0000000001
 12
0.0000000007
 22
14.7193485024
 32
0.0
 13
-13.165385535
 23
6.5826927659
 33
0.0
 40
0.0
 40
0.0
 40
0.0
 40
0.0
 40
0.1060406671
 40
0.2180509972
 40
0.3342349644
 40
0.452465543
 40
0.5705329459
 40
0.6861994011
 40
0.7974260184
 40
0.902441125
 40
1.0
 40
1.0
 40
1.0
 40
1.0
 10
29.2209304024
 20
21.0630032064
 30
0.0
 10
29.2209304024
 20
21.5832863844
 30
0.0
 10
29.1426300788
 20
22.6540678526
 30
0.0
 10
28.8202919649
 20
24.2655957171
 30
0.0
 10
28.2990512576
 20
25.8871179681
 30
0.0
 10
27.5944401724
 20
27.4700625149
 30
0.0
 10
26.7274692546
 20
28.9673716263
 30
0.0
 10
25.7238805642
 20
30.334552934
 30
0.0
 10
24.6132219543
 20
31.5310226257
 30
0.0
 10
23.4285643519
 20
32.5210655248
 30
0.0
 10
22.5779959909
 20
33.0447244501
 30
0.0
 10
22.1498625905
 20
33.2587911502
 30
0.0
 11
29.2209304024
 21
21.0630032064
 31
0.0
 11
29.113558437
 21
22.6201552634
 31
0.0
 11
28.7946151481
 21
24.2377305479
 31
0.0
 11
28.2736624127
 21
25.8666041303
 31
0.0
 11
27.5666516252
 21
27.4567928293
 31
0.0
 11
26.6949525941
 21
28.9602392637
 31
0.0
 11
25.6851963351
 21
30.3310117701
 31
0.0
 11
24.5678982282
 21
31.5276797419
 31
0.0
 11
23.3773541501
 21
32.513560101
 31
0.0
 11
22.1498625905
 21
33.2587911502
 31
0.0
  0
SPLINE
  5
429
100
AcDbEntity
  8
RACCORDO
100
AcDbSpline
 62
253
  6
CONTINUOUS
 70
0
 71
3
 72
11
 73
7
 74
5
 42
0.0000001
 43
0.0000001
 44
0.0000000001
 12
-4.1479311397
 22
2.0739655702
 32
0.0
 13
-4.1613912318
 23
-2.0786532495
 33
0.0
 40
0.0
 40
0.0
 40
0.0
 40
0.0
 40
0.2844005555
 40
0.544883508
 40
0.7864148883
 40
1.0
 40
1.0
 40
1.0
 40
1.0
 10
-47.1466019657
 20
67.9070234283
 30
0.0
 10
-47.5398266059
 20
68.1036357484
 30
0.0
 10
-48.3263660888
 20
68.4202968709
 30
0.0
 10
-49.5319410986
 20
68.6395121973
 30
0.0
 10
-50.6486496359
 20
68.569796513
 30
0.0
 10
-51.322456908
 20
68.3390156303
 30
0.0
 10
-51.6187273116
 20
68.1910258348
 30
0.0
 11
-47.1466019657
 21
67.9070234283
 31
0.0
 11
-48.374176875
 21
68.389307619
 31
0.0
 11
-49.5647135117
 21
68.59395178
 31
0.0
 11
-50.6820051588
 21
68.5145634127
 31
0.0
 11
-51.6187273116
 21
68.1910258348
 31
0.0
  0
SPLINE
  5
42A
100
AcDbEntity
  8
0
100
AcDbSpline
 62
7
  6
CONTINUOUS
 70
0
 71
3
 72
16
 73
12
 74
10
 42
0.0000001
 43
0.0000001
 44
0.0000000001
 12
-5.2322532796
 22
-2.6068873639
 32
0.0
 13
0.0
 23
5.7997384459
 33
0.0
 40
0.0
 40
0.0
 40
0.0
 40
0.0
 40
0.0510483935
 40
0.1392654269
 40
0.2392157837
 40
0.3527060512
 40
0.477917
 40
0.6107087318
 40
0.7457033838
 40
0.8771927422
 40
1.0
 40
1.0
 40
1.0
 40
1.0
 10
15.0062807865
 20
16.0839870839
 30
0.0
 10
14.9172480784
 20
16.0396279466
 30
0.0
 10
14.6584643327
 20
15.949808297
 30
0.0
 10
14.1846780029
 20
15.9566019348
 30
0.0
 10
13.6288134766
 20
16.1575320808
 30
0.0
 10
13.0830508087
 20
16.5286840569
 30
0.0
 10
12.5780186767
 20
17.0448959722
 30
0.0
 10
12.1446210615
 20
17.6729848715
 30
0.0
 10
11.8105964711
 20
18.3725229236
 30
0.0
 10
11.5976379951
 20
19.0976411942
 30
0.0
 10
11.5432608727
 20
19.5899537129
 30
0.0
 10
11.5432608727
 20
19.827370371
 30
0.0
 11
15.0062807865
 21
16.0839870839
 31
0.0
 11
14.7252413881
 21
15.9863801133
 31
0.0
 11
14.213619322
 21
15.9826422352
 31
0.0
 11
13.6645812163
 21
16.1686339879
 31
0.0
 11
13.1155431106
 21
16.5316803409
 31
0.0
 11
12.6039210445
 21
17.0470402851
 31
0.0
 11
12.1645812163
 21
17.6795928921
 31
0.0
 11
11.8274639092
 21
18.3862307471
 31
0.0
 11
11.6155431106
 21
19.1187976479
 31
0.0
 11
11.5432608727
 21
19.827370371
 31
0.0
  0
SPLINE
  5
42B
100
AcDbEntity
  8
0
100
AcDbSpline
 62
7
  6
CONTINUOUS
 70
0
 71
3
 72
11
 73
7
 74
5
 42
0.0000001
 43
0.0000001
 44
0.0000000001
 12
-1.7019854425
 22
-0.8479873023
 32
0.0
 13
-0.0
 23
-1.8865811492
 33
0.0
 40
0.0
 40
0.0
 40
0.0
 40
0.0
 40
0.0974679906
 40
0.3626002256
 40
0.6605590301
 40
1.0
 40
1.0
 40
1.0
 40
1.0
 10
-42.8314472864
 20
49.0265977809
 30
0.0
 10
-42.8867436535
 20
48.9990472414
 30
0.0
 10
-43.0840970744
 20
48.8801437787
 30
0.0
 10
-43.3656068796
 20
48.5593540187
 30
0.0
 10
-43.5712888714
 20
48.0211095325
 30
0.0
 10
-43.6110680598
 20
47.6179958156
 30
0.0
 10
-43.6110680598
 20
47.4045348373
 30
0.0
 11
-42.8314472864
 21
49.0265977809
 31
0.0
 11
-42.9897477162
 21
48.9309919726
 31
0.0
 11
-43.3268650233
 21
48.5614714247
 31
0.0
 11
-43.5387858219
 21
48.0408253225
 31
0.0
 11
-43.6110680598
 21
47.4045348373
 31
0.0
  0
SPLINE
  5
42C
100
AcDbEntity
  8
RACCORDO
100
AcDbSpline
 62
253
  6
CONTINUOUS
 70
0
 71
3
 72
11
 73
7
 74
5
 42
0.0000001
 43
0.0000001
 44
0.0000000001
 12
0.0
 22
-1.2579152593
 32
0.0
 13
1.135046876
 23
-0.5650889087
 33
0.0
 40
0.0
 40
0.0
 40
0.0
 40
0.0
 40
0.339388487
 40
0.6373012225
 40
0.902392464
 40
1.0
 40
1.0
 40
1.0
 40
1.0
 10
-48.5608155281
 20
-33.2590301919
 30
0.0
 10
-48.5608155281
 20
-33.4013375108
 30
0.0
 10
-48.5342970629
 20
-33.6700805152
 30
0.0
 10
-48.3971718578
 20
-34.0289081183
 30
0.0
 10
-48.2094645557
 20
-34.2428232356
 30
0.0
 10
-48.0778150334
 20
-34.3221032421
 30
0.0
 10
-48.0408853238
 20
-34.3404888874
 30
0.0
 11
-48.5608155281
 21
-33.2590301919
 31
0.0
 11
-48.5126273695
 21
-33.6832238486
 31
0.0
 11
-48.3713468371
 21
-34.0303212502
 31
0.0
 11
-48.1466019657
 21
-34.2766682821
 31
0.0
 11
-48.0408853238
 21
-34.3404888874
 31
0.0
  0
SPLINE
  5
42D
100
AcDbEntity
  8
RACCORDO
100
AcDbSpline
 62
253
  6
CONTINUOUS
 70
0
 71
3
 72
11
 73
7
 74
5
 42
0.0000001
 43
0.0000001
 44
0.0000000001
 12
0.0
 22
-1.2579152592
 32
0.0
 13
1.1350468769
 23
-0.5650889085
 33
0.0
 40
0.0
 40
0.0
 40
0.0
 40
0.0
 40
0.3393884718
 40
0.6373012063
 40
0.9023924599
 40
1.0
 40
1.0
 40
1.0
 40
1.0
 10
20.7356490282
 20
-67.90726247
 30
0.0
 10
20.7356490282
 20
-68.0495697825
 30
0.0
 10
20.7621674916
 20
-68.3183127798
 30
0.0
 10
20.8992926901
 20
-68.677140383
 30
0.0
 10
21.0869999933
 20
-68.8910555089
 30
0.0
 10
21.2186495213
 20
-68.9703355194
 30
0.0
 10
21.2555792325
 20
-68.9887211655
 30
0.0
 11
20.7356490282
 21
-67.90726247
 31
0.0
 11
20.7838371821
 21
-68.331456108
 31
0.0
 11
20.9251177083
 21
-68.6785535106
 31
0.0
 11
21.1498625863
 21
-68.9249005571
 31
0.0
 11
21.2555792325
 21
-68.9887211655
 31
0.0
  0
SPLINE
  5
42E
100
AcDbEntity
  8
RACCORDO
100
AcDbSpline
 62
253
  6
CONTINUOUS
 70
0
 71
3
 72
13
 73
9
 74
7
 42
0.0000001
 43
0.0000001
 44
0.0000000001
 12
2.6028004938
 22
-1.3014002469
 32
0.0
 13
2.6028004938
 23
1.3014002469
 33
0.0
 40
0.0
 40
0.0
 40
0.0
 40
0.0
 40
0.1524570658
 40
0.32173371
 40
0.5
 40
0.67826629
 40
0.8475429342
 40
1.0
 40
1.0
 40
1.0
 40
1.0
 10
26.3925032777
 20
-63.8074863645
 30
0.0
 10
26.5247750531
 20
-63.8736222522
 30
0.0
 10
26.819361116
 20
-63.9827464752
 30
0.0
 10
27.2962464322
 20
-64.0787172475
 30
0.0
 10
27.80671684
 20
-64.1114909133
 30
0.0
 10
28.3171872479
 20
-64.0787172475
 30
0.0
 10
28.7940725641
 20
-63.9827464752
 30
0.0
 10
29.088658627
 20
-63.8736222522
 30
0.0
 10
29.2209304024
 20
-63.8074863645
 30
0.0
 11
26.3925032777
 21
-63.8074863645
 31
0.0
 11
26.80671684
 21
-63.9664049871
 31
0.0
 11
27.2890787498
 21
-64.0663054096
 31
0.0
 11
27.80671684
 21
-64.1003795833
 31
0.0
 11
28.3243549303
 21
-64.0663054096
 31
0.0
 11
28.80671684
 21
-63.9664049871
 31
0.0
 11
29.2209304024
 21
-63.8074863645
 31
0.0
  0
SPLINE
  5
42F
100
AcDbEntity
  8
RACCORDO
100
AcDbSpline
 62
253
  6
CONTINUOUS
 70
0
 71
3
 72
13
 73
9
 74
7
 42
0.0000001
 43
0.0000001
 44
0.0000000001
 12
2.6028004935
 22
-1.3014002467
 32
0.0
 13
2.6028004935
 23
1.3014002467
 33
0.0
 40
0.0
 40
0.0
 40
0.0
 40
0.0
 40
0.152457058
 40
0.3217336998
 40
0.4999999971
 40
0.6782662958
 40
0.8475429401
 40
1.0
 40
1.0
 40
1.0
 40
1.0
 10
26.3925032777
 20
21.0630032064
 30
0.0
 10
26.5247750463
 20
20.9968673221
 30
0.0
 10
26.8193610991
 20
20.8877431011
 30
0.0
 10
27.2962464118
 20
20.7917723256
 30
0.0
 10
27.8067168327
 20
20.7589986566
 30
0.0
 10
28.3171872564
 20
20.7917723237
 30
0.0
 10
28.7940725746
 20
20.8877430995
 30
0.0
 10
29.0886586322
 20
20.9968673203
 30
0.0
 10
29.2209304024
 20
21.0630032054
 30
0.0
 11
26.3925032777
 21
21.0630032064
 31
0.0
 11
26.8067168181
 21
20.9040845901
 31
0.0
 11
27.2890787201
 21
20.8041841653
 31
0.0
 11
27.8067168315
 21
20.7701099876
 31
0.0
 11
28.3243549467
 21
20.8041841635
 31
0.0
 11
28.8067168564
 21
20.9040845885
 31
0.0
 11
29.2209304024
 21
21.0630032054
 31
0.0
  0
SPLINE
  5
430
100
AcDbEntity
  8
RACCORDO
100
AcDbSpline
 62
253
  6
CONTINUOUS
 70
0
 71
3
 72
13
 73
9
 74
7
 42
0.0000001
 43
0.0000001
 44
0.0000000001
 12
-0.0
 22
2.9415663124
 32
0.0
 13
2.6310168939
 23
1.315508447
 33
0.0
 40
0.0
 40
0.0
 40
0.0
 40
0.0
 40
0.1614219316
 40
0.3342559043
 40
0.511697351
 40
0.6862432064
 40
0.8508246292
 40
1.0
 40
1.0
 40
1.0
 40
1.0
 10
20.7356490282
 20
30.8196335614
 30
0.0
 10
20.7356490282
 20
30.9779113335
 30
0.0
 10
20.7718992505
 20
31.3061190474
 30
0.0
 10
20.913877303
 20
31.7895342666
 30
0.0
 10
21.1365386077
 20
32.2558814406
 30
0.0
 10
21.425549034
 20
32.6746490645
 30
0.0
 10
21.7619691357
 20
33.0186483455
 30
0.0
 10
22.0190349503
 20
33.1933773301
 30
0.0
 10
22.1498625905
 20
33.2587911502
 30
0.0
 11
20.7356490282
 21
30.8196335614
 31
0.0
 11
20.7838371868
 21
31.2920153768
 31
0.0
 11
20.9251177192
 21
31.7803933107
 31
0.0
 11
21.1498625905
 21
32.251485214
 31
0.0
 11
21.4427558094
 21
32.673186952
 31
0.0
 11
21.7838371868
 21
33.0167602482
 31
0.0
 11
22.1498625905
 21
33.2587911502
 31
0.0
  0
SPLINE
  5
431
100
AcDbEntity
  8
RACCORDO
100
AcDbSpline
 62
253
  6
CONTINUOUS
 70
0
 71
3
 72
13
 73
9
 74
7
 42
0.0000001
 43
0.0000001
 44
0.0000000001
 12
-0.0
 22
2.9415663129
 32
0.0
 13
2.6310168943
 23
1.3155084472
 33
0.0
 40
0.0
 40
0.0
 40
0.0
 40
0.0
 40
0.1614219235
 40
0.3342558939
 40
0.5116973481
 40
0.6862432118
 40
0.8508246348
 40
1.0
 40
1.0
 40
1.0
 40
1.0
 10
-48.5608155281
 20
65.4678658396
 30
0.0
 10
-48.5608155281
 20
65.6261436037
 30
0.0
 10
-48.5245653087
 20
65.9543513074
 30
0.0
 10
-48.3825872612
 20
66.4377665252
 30
0.0
 10
-48.1599259534
 20
66.9041137128
 30
0.0
 10
-47.8709155176
 20
67.3228813495
 30
0.0
 10
-47.5344954119
 20
67.666880631
 30
0.0
 10
-47.2774296003
 20
67.8416096102
 30
0.0
 10
-47.1466019649
 20
67.9070234279
 30
0.0
 11
-48.5608155281
 21
65.4678658396
 31
0.0
 11
-48.5126273741
 21
65.9402476315
 31
0.0
 11
-48.371346848
 21
66.4286255603
 31
0.0
 11
-48.14660197
 21
66.8997174848
 31
0.0
 11
-47.8537087365
 21
67.3214192427
 31
0.0
 11
-47.5126273566
 21
67.664992537
 31
0.0
 11
-47.1466019649
 21
67.9070234279
 31
0.0
  0
SPLINE
  5
432
100
AcDbEntity
  8
RACCORDO
100
AcDbSpline
 62
253
  6
CONTINUOUS
 70
0
 71
3
 72
10
 73
6
 74
4
 42
0.0000001
 43
0.0000001
 44
0.0000000001
 12
-0.8588211978
 22
0.4294105989
 32
0.0
 13
0.0
 23
0.9645276564
 33
0.0
 40
0.0
 40
0.0
 40
0.0
 40
0.0
 40
0.3950875622
 40
0.7212632404
 40
1.0
 40
1.0
 40
1.0
 40
1.0
 10
-54.2176697776
 20
61.368089734
 30
0.0
 10
-54.3307729687
 20
61.4246413296
 30
0.0
 10
-54.5288255881
 20
61.5476797366
 30
0.0
 10
-54.7468542158
 20
61.7910951521
 30
0.0
 10
-54.8034562152
 20
61.9855800774
 30
0.0
 10
-54.8034562152
 20
62.0751965152
 30
0.0
 11
-54.2176697776
 21
61.368089734
 31
0.0
 11
-54.5355070228
 21
61.5751965152
 31
0.0
 11
-54.7353078678
 21
61.8163774701
 31
0.0
 11
-54.8034562152
 21
62.0751965152
 31
0.0
  0
SPLINE
  5
433
100
AcDbEntity
  8
RACCORDO
100
AcDbSpline
 62
253
  6
CONTINUOUS
 70
0
 71
3
 72
10
 73
6
 74
4
 42
0.0000001
 43
0.0000001
 44
0.0000000001
 12
-0.8588211977
 22
0.4294105988
 32
0.0
 13
0.0000000009
 23
0.9645276562
 33
0.0
 40
0.0
 40
0.0
 40
0.0
 40
0.0
 40
0.395087545
 40
0.7212632232
 40
1.0
 40
1.0
 40
1.0
 40
1.0
 10
-54.2176697776
 20
-23.5023998368
 30
0.0
 10
-54.3307729638
 20
-23.4458482437
 30
0.0
 10
-54.5288255786
 20
-23.3228098405
 30
0.0
 10
-54.7468542104
 20
-23.0793944296
 30
0.0
 10
-54.8034562153
 20
-22.884909499
 30
0.0
 10
-54.8034562152
 20
-22.7952930557
 30
0.0
 11
-54.2176697776
 21
-23.5023998368
 31
0.0
 11
-54.5355070102
 21
-23.2952930666
 31
0.0
 11
-54.7353078598
 21
-23.0541121156
 31
0.0
 11
-54.8034562152
 21
-22.7952930557
 31
0.0
  0
ELLIPSE
  5
434
100
AcDbEntity
  8
RACCORDO
100
AcDbEllipse
 62
7
  6
CONTINUOUS
 10
46.6379738902
 20
40.7158893743
 30
0.0
 11
1.3048917676
 21
2.7015425106
 31
0.0
 40
0.6016116119
 41
6.3161740916
 42
6.9422219079
  0
ELLIPSE
  5
435
100
AcDbEntity
  8
RACCORDO
100
AcDbEllipse
 62
7
  6
CONTINUOUS
 10
51.8336077342
 20
31.7547465481
 30
0.0
 11
2.999929097
 21
-0.0421585494
 31
0.0
 40
0.4892375088
 41
-0.7610696355
 42
-0.1350218192
  0
ELLIPSE
  5
436
100
AcDbEntity
  8
RACCORDO
100
AcDbEllipse
 62
7
  6
CONTINUOUS
 10
0.6649239318
 20
63.7024143535
 30
0.0
 11
1.3230894696
 21
2.6925277327
 31
0.0
 40
0.607010042
 41
0.0370240855
 42
0.6630719018
  0
ELLIPSE
  5
437
100
AcDbEntity
  8
RACCORDO
100
AcDbEllipse
 62
7
  6
CONTINUOUS
 10
51.8336077342
 20
3.5953150123
 30
0.0
 11
2.9999816286
 21
-0.0212255469
 31
0.0
 40
0.4946372042
 41
-0.7644452153
 42
-0.1383973991
  0
ELLIPSE
  5
438
100
AcDbEntity
  8
RACCORDO
100
AcDbEllipse
 62
7
  6
CONTINUOUS
 10
23.6458943203
 20
52.2119291592
 30
0.0
 11
1.3230894696
 21
2.6925277327
 31
0.0
 40
0.607010042
 41
6.3202093927
 42
6.946257209
  0
ELLIPSE
  5
439
100
AcDbEntity
  8
RACCORDO
100
AcDbEllipse
 62
7
  6
CONTINUOUS
 10
51.8336077342
 20
-24.5505106107
 30
0.0
 11
2.9999816286
 21
-0.0212255469
 31
0.0
 40
0.4946372042
 41
-0.7644452153
 42
-0.1383973991
  0
ELLIPSE
  5
43A
100
AcDbEntity
  8
RACCORDO
100
AcDbEllipse
 62
7
  6
CONTINUOUS
 10
22.4923084918
 20
52.7887220735
 30
0.0
 11
1.3605599508
 21
2.6737901374
 31
0.0
 40
0.6176975122
 41
0.0455762757
 42
0.671624092
  0
ELLIPSE
  5
43B
100
AcDbEntity
  8
RACCORDO
100
AcDbEllipse
 62
7
  6
CONTINUOUS
 10
51.8336077342
 20
30.3282923081
 30
0.0
 11
2.9999802718
 21
0.0215301837
 31
0.0
 40
0.5053247124
 41
-0.7715714568
 42
-0.1455236405
  0
ELLIPSE
  5
43C
100
AcDbEntity
  8
RACCORDO
100
AcDbEllipse
 62
7
  6
CONTINUOUS
 10
-11.5481666729
 20
54.8642297876
 30
0.0
 11
-0.4474018214
 21
0.8946702271
 31
0.0
 40
0.6121897086
 41
-0.684633879
 42
0.0199943986
  0
ELLIPSE
  5
43D
100
AcDbEntity
  8
RACCORDO
100
AcDbEllipse
 62
7
  6
CONTINUOUS
 10
45.4732788804
 20
41.2982368792
 30
0.0
 11
1.3605599508
 21
2.6737901374
 31
0.0
 40
0.6176975122
 41
0.0455762757
 42
0.671624092
  0
ELLIPSE
  5
43E
100
AcDbEntity
  8
RACCORDO
100
AcDbEllipse
 62
7
  6
CONTINUOUS
 10
51.8336077342
 20
2.1824666851
 30
0.0
 11
2.9999802718
 21
0.0215301837
 31
0.0
 40
0.5053247124
 41
-0.7715714568
 42
-0.1455236405
  0
ELLIPSE
  5
43F
100
AcDbEntity
  8
RACCORDO
100
AcDbEllipse
 62
7
  6
CONTINUOUS
 10
-0.499771078
 20
64.2847618584
 30
0.0
 11
1.3798615415
 21
2.6640387682
 31
0.0
 40
0.6229838795
 41
0.0501043133
 42
0.6761521296
  0
ELLIPSE
  5
440
100
AcDbEntity
  8
RACCORDO
100
AcDbEllipse
 62
7
  6
CONTINUOUS
 10
51.8336077342
 20
-25.9769648507
 30
0.0
 11
2.9999182366
 21
0.043377328
 31
0.0
 40
0.5106100819
 41
-0.775327905
 42
-0.1492800887
  0
ELLIPSE
  5
441
100
AcDbEntity
  8
RACCORDO
100
AcDbEllipse
 62
7
  6
CONTINUOUS
 10
8.188894802
 20
44.9956990501
 30
0.0
 11
-0.4471615512
 21
0.8944566536
 31
0.0
 40
0.6125552124
 41
-2.255296188
 42
-0.6848044481
  0
ELLIPSE
  5
442
100
AcDbEntity
  8
RACCORDO
100
AcDbEllipse
 62
7
  6
CONTINUOUS
 10
-14.0601220475
 20
53.3752482445
 30
0.0
 11
0.4999863728
 21
0.0072295547
 31
0.0
 40
0.5106100819
 41
0.7780151293
 42
1.2412305144
  0
ELLIPSE
  5
443
100
AcDbEntity
  8
RACCORDO
100
AcDbEllipse
 62
7
  6
CONTINUOUS
 10
3.6297823648
 20
44.5302960383
 30
0.0
 11
0.4999863728
 21
0.0072295547
 31
0.0
 40
0.5106100819
 41
0.3147997442
 42
0.7780151293
  0
ENDSEC
  0
SECTION
  2
OBJECTS
  0
DICTIONARY
  5
C
100
AcDbDictionary
280
0
281
1
  3
ACAD_GROUP
350
D
  3
ACAD_MLINESTYLE
350
17
  3
ACAD_LAYOUT
350
1A
  3
ACAD_PLOTSETTINGS
350
19
  3
ACAD_PLOTSTYLENAME
350
E
  0
DICTIONARY
  5
D
102
{ACAD_REACTORS
330
C
102
}
100
AcDbDictionary
280
0
281
1
  0
ACDBDICTIONARYWDFLT
  5
E
102
{ACAD_REACTORS
330
C
102
}
100
AcDbDictionary
281
1
  3
Normal
350
F
100
AcDbDictionaryWithDefault
340
F
  0
DICTIONARY
  5
17
102
{ACAD_REACTORS
330
C
102
}
100
AcDbDictionary
280
0
281
1
  3
Standard
350
18
  0
DICTIONARY
  5
19
102
{ACAD_REACTORS
330
C
102
}
100
AcDbDictionary
281
1
  0
DICTIONARY
  5
1A
102
{ACAD_REACTORS
330
C
102
}
100
AcDbDictionary
281
1
  3
Model
350
444
  3
Layout1
350
445
  0
ACDBPLACEHOLDER
  5
F
102
{ACAD_REACTORS
330
E
102
}
  0
MLINESTYLE
  5
18
102
{ACAD_REACTORS
330
17
102
}
100
AcDbMlineStyle
  2
STANDARD
 70
0
  3

 62
256
 51
90.0
 52
90.0
 71
2
 49
0.5
 62
256
  6
BYLAYER
 49
-0.5
 62
256
  6
BYLAYER
  0
LAYOUT
  5
444
102
{ACAD_REACTORS
330
1A
102
}
100
AcDbPlotSettings
  1

  2
none_device
  4
ISO_A4_(297.00_x_210.00_MM)
  6

 40
0.0
 41
0.0
 42
0.0
 43
0.0
 44
297.0
 45
210.0
 46
0.0
 47
0.0
 48
0.0
 49
0.0
140
0.0
141
0.0
142
1.0
143
1.0
 70
1024
 72
1
 73
0
 74
0
  7

 75
0
147
1.0
148
0.0
149
0.0
100
AcDbLayout
  1
Model
 70
0
 71
0
 10
0.0
 20
0.0
 11
297.0
 21
210.0
 12
0.0
 22
0.0
 32
0.0
 14
0.0
 24
0.0
 34
0.0
 15
0.0
 25
0.0
 35
0.0
146
0.0
 13
0.0
 23
0.0
 33
0.0
 16
1.0
 26
0.0
 36
0.0
 17
0.0
 27
1.0
 37
0.0
 76
0
330
213
345
0
346
0
  0
LAYOUT
  5
445
102
{ACAD_REACTORS
330
1A
102
}
100
AcDbPlotSettings
  1

  2
none_device
  4
ISO_A4_(297.00_x_210.00_MM)
  6

 40
0.0
 41
0.0
 42
0.0
 43
0.0
 44
297.0
 45
210.0
 46
0.0
 47
0.0
 48
0.0
 49
0.0
140
0.0
141
0.0
142
1.0
143
1.0
 70
0
 72
1
 73
0
 74
0
  7

 75
0
147
1.0
148
0.0
149
0.0
100
AcDbLayout
  1
Layout1
 70
0
 71
1
 10
0.0
 20
0.0
 11
297.0
 21
210.0
 12
0.0
 22
0.0
 32
0.0
 14
0.0
 24
0.0
 34
0.0
 15
0.0
 25
0.0
 35
0.0
146
0.0
 13
0.0
 23
0.0
 33
0.0
 16
1.0
 26
0.0
 36
0.0
 17
0.0
 27
1.0
 37
0.0
 76
0
330
214
345
0
346
0
  0
ENDSEC
  0
EOF
