0
SECTION
2
HEADER
9
$ACADVER
1
AC1015
9
$DWGCODEPAGE
3
ANSI_1252
9
$EXTMAX
10
297.0000000000
20
210.0000000000
30
0.0000000000
9
$EXTMIN
10
0.0000000000
20
0.0000000000
30
0.0000000000
9
$LIMMIN
10
0.0000000000
20
0.0000000000
9
$LIMMAX
10
297.0000000000
20
210.0000000000
9
$VIEWCTR
10
148.5000000000
20
105.0000000000
9
$VIEWSIZE
40
210.0000000000
9
$CLAYER
8
0
9
$LTSCALE
40
16.3350000000
9
$CELTYPE
6
BYLAYER
9
$DIMSCALE
40
1
9
$DIMASZ
40
3.0000000000
9
$DIMEXO
40
1.8562500000
9
$DIMDLI
40
11.2860000000
9
$DIMEXE
40
5.3460000000
9
$DIMCEN
40
2.6730000000
9
$DIMLFAC
40
1.0000000000
9
$DIMBLK
1
_FILLED
9
$DIMTXT
40
3.0000000000
9
$DIMTOL
70
1
9
$DIMLIM
70
0
9
$DIMTFAC
40
1.0000000000
9
$DIMTP
40
0.0100000000
9
$DIMTM
40
0.0100000000
9
$PDMODE
70
3
9
$PDSIZE
40
3.0000000000
9
$HANDSEED
5
52F
9
$MEASUREMENT
70
1
9
$INSUNITS
70
4
0
ENDSEC
0
SECTION
2
CLASSES
0
CLASS
1
ACDBDICTIONARYWDFLT
2
AcDbDictionaryWithDefault
3
AutoCAD 2000
90
0
280
0
281
0
0
CLASS
1
ACDBPLACEHOLDER
2
AcDbPlaceHolder
3
AutoCAD 2000
90
0
280
0
281
0
0
CLASS
1
LAYOUT
2
AcDbLayout
3
AutoCAD 2000
90
0
280
0
281
0
0
ENDSEC
0
SECTION
2
TABLES
0
TABLE
2
VPORT
5
8
100
AcDbSymbolTable
70
2
0
VPORT
5
1F4
100
AcDbSymbolTableRecord
100
AcDbViewportTableRecord
2
*ACTIVE
70
0
10
0.0
20
0.0
11
1.0
21
1.0
12
148.5000000000
22
105.0000000000
13
0.0
23
0.0
14
1.0
24
1.0
15
0.0
25
0.0
16
0.0
26
0.0
36
1.0
17
0.0
27
0.0
37
0.0
40
210.0000000000
41
1.4142857143
42
50.0
43
0.0
44
0.0
50
0.0
51
0.0
71
0
72
100
73
1
74
1
75
0
76
0
77
0
78
0
0
ENDTAB
0
TABLE
2
LTYPE
5
5
100
AcDbSymbolTable
70
6
0
LTYPE
5
14
100
AcDbSymbolTableRecord
100
AcDbLinetypeTableRecord
2
BYBLOCK
70
0
3

72
65
73
0
40
0.0
0
LTYPE
5
15
100
AcDbSymbolTableRecord
100
AcDbLinetypeTableRecord
2
BYLAYER
70
0
3

72
65
73
0
40
0.0
0
LTYPE
5
16
100
AcDbSymbolTableRecord
100
AcDbLinetypeTableRecord
2
CONTINUOUS
70
64
3
Solid line
72
65
73
0
40
0
0
LTYPE
5
1F5
100
AcDbSymbolTableRecord
100
AcDbLinetypeTableRecord
2
CENTER
70
64
3
____ _ ____ _ ____ _ ____ _ ____ _ ____ _ ____
72
65
73
4
40
0.6
49
0.375
74
0
49
-0.075
74
0
49
0.075
74
0
49
-0.075
74
0
0
LTYPE
5
1F6
100
AcDbSymbolTableRecord
100
AcDbLinetypeTableRecord
2
HIDDEN
70
64
3
- - - - - - - - - - - - - - - - - - - -
72
65
73
2
40
0.2
49
0.1
74
0
49
-0.1
74
0
0
LTYPE
5
1F7
100
AcDbSymbolTableRecord
100
AcDbLinetypeTableRecord
2
PHANTOM
70
64
3
_____ _ _ _____ _ _ _____ _ _ _____
72
65
73
6
40
0.8
49
0.45
74
0
49
-0.05
74
0
49
0.1
74
0
49
-0.05
74
0
49
0.1
74
0
49
-0.05
74
0
0
LTYPE
5
1F8
100
AcDbSymbolTableRecord
100
AcDbLinetypeTableRecord
2
DOT
70
64
3
. . . . . . . . . . . . . . . . . . . .
72
65
73
2
40
0.2
49
0.1
74
0
49
-0.1
74
0
0
LTYPE
5
1F9
100
AcDbSymbolTableRecord
100
AcDbLinetypeTableRecord
2
DASHED
70
64
3
- - - - - - - - - - - - - - - - - - - -
72
65
73
2
40
0.2
49
0.1
74
0
49
-0.1
74
0
0
ENDTAB
0
TABLE
2
LAYER
5
2
100
AcDbSymbolTable
70
36
0
LAYER
5
10
100
AcDbSymbolTableRecord
100
AcDbLayerTableRecord
2
0
70
0
62
7
6
CONTINUOUS
370
-3
390
F
0
LAYER
5
1FA
100
AcDbSymbolTableRecord
100
AcDbLayerTableRecord
2
DEFAULT_1
70
0
62
7
6
CENTER
370
-3
390
F
0
LAYER
5
1FB
100
AcDbSymbolTableRecord
100
AcDbLayerTableRecord
2
DEFAULT_2
70
0
62
0
6
HIDDEN
370
-3
390
F
0
LAYER
5
1FC
100
AcDbSymbolTableRecord
100
AcDbLayerTableRecord
2
DEFAULT_3
70
0
62
7
6
PHANTOM
370
-3
390
F
0
LAYER
5
1FD
100
AcDbSymbolTableRecord
100
AcDbLayerTableRecord
2
ASSI
70
0
62
7
6
CONTINUOUS
370
-3
390
F
0
LAYER
5
1FE
100
AcDbSymbolTableRecord
100
AcDbLayerTableRecord
2
COORDINATE
70
0
62
7
6
CONTINUOUS
370
-3
390
F
0
LAYER
5
1FF
100
AcDbSymbolTableRecord
100
AcDbLayerTableRecord
2
COORD_ORIGINE
70
0
62
7
6
CONTINUOUS
370
-3
390
F
0
LAYER
5
200
100
AcDbSymbolTableRecord
100
AcDbLayerTableRecord
2
CURVE
70
0
62
7
6
CONTINUOUS
370
-3
390
F
0
LAYER
5
201
100
AcDbSymbolTableRecord
100
AcDbLayerTableRecord
2
IGES
70
0
62
7
6
CONTINUOUS
370
-3
390
F
0
LAYER
5
202
100
AcDbSymbolTableRecord
100
AcDbLayerTableRecord
2
NOTE
70
0
62
7
6
CONTINUOUS
370
-3
390
F
0
LAYER
5
203
100
AcDbSymbolTableRecord
100
AcDbLayerTableRecord
2
PIANI
70
0
62
7
6
CONTINUOUS
370
-3
390
F
0
LAYER
5
204
100
AcDbSymbolTableRecord
100
AcDbLayerTableRecord
2
PIANI_ORIGINE
70
0
62
7
6
CONTINUOUS
370
-3
390
F
0
LAYER
5
205
100
AcDbSymbolTableRecord
100
AcDbLayerTableRecord
2
PUNTI
70
0
62
7
6
CONTINUOUS
370
-3
390
F
0
LAYER
5
206
100
AcDbSymbolTableRecord
100
AcDbLayerTableRecord
2
RACCORDO
70
0
62
7
6
CONTINUOUS
370
-3
390
F
0
LAYER
5
207
100
AcDbSymbolTableRecord
100
AcDbLayerTableRecord
2
SNAPLINE
70
0
62
7
6
CONTINUOUS
370
-3
390
F
0
LAYER
5
208
100
AcDbSymbolTableRecord
100
AcDbLayerTableRecord
2
TRASH
70
0
62
7
6
CONTINUOUS
370
-3
390
F
0
LAYER
5
209
100
AcDbSymbolTableRecord
100
AcDbLayerTableRecord
2
XSEC_DATUMS
70
0
62
7
6
CONTINUOUS
370
-3
390
F
0
ENDTAB
0
TABLE
2
STYLE
5
3
100
AcDbSymbolTable
70
1
0
STYLE
5
11
100
AcDbSymbolTableRecord
100
AcDbTextStyleTableRecord
2
STANDARD
70
0
40
0.0
41
0.8000000000
50
0.0
71
0
42
0.2
3
txt
4

0
ENDTAB
0
TABLE
2
VIEW
5
6
100
AcDbSymbolTable
70
0
0
ENDTAB
0
TABLE
2
UCS
5
7
100
AcDbSymbolTable
70
0
0
ENDTAB
0
TABLE
2
APPID
5
9
100
AcDbSymbolTable
70
1
0
APPID
5
20A
100
AcDbSymbolTableRecord
100
AcDbRegAppTableRecord
2
ACAD
70
0
0
ENDTAB
0
TABLE
2
BLOCK_RECORD
5
1
100
AcDbSymbolTable
70
0
0
BLOCK_RECORD
5
1F
100
AcDbSymbolTableRecord
100
AcDbBlockTableRecord
2
*MODEL_SPACE
0
BLOCK_RECORD
5
1B
100
AcDbSymbolTableRecord
100
AcDbBlockTableRecord
2
*PAPER_SPACE
0
ENDTAB
0
TABLE
2
DIMSTYLE
5
A
100
AcDbSymbolTable
70
1
100
AcDbDimStyleTable
71
0
0
DIMSTYLE
105
20B
100
AcDbSymbolTableRecord
100
AcDbDimStyleTableRecord
2
STANDARD
70
0
3

4

40
1.0
41
3.0000000000
42
0.0625
43
0.38
44
0.18
45
0.0
46
0.0
47
0.0100000000
48
0.0100000000
140
3.0000000000
141
0.09
142
0.0
143
25.4
144
1.0000000000
145
0.0
146
1.0000000000
147
0.09
71
1
72
0
73
0
74
0
75
0
76
0
77
1
78
8
170
0
171
2
172
0
173
0
174
0
175
0
176
0
177
0
178
0
270
2
271
2
272
2
273
2
274
2
275
0
280
0
281
0
282
0
283
1
284
8
285
0
286
0
287
3
288
0
340
11
0
ENDTAB
0
ENDSEC
0
SECTION
2
BLOCKS
0
BLOCK
5
20
100
AcDbEntity
8
0
100
AcDbBlockBegin
2
*MODEL_SPACE
70
0
10
0.0
20
0.0
30
0.0
3
*MODEL_SPACE
1

0
ENDBLK
5
21
100
AcDbEntity
8
0
100
AcDbBlockEnd
0
BLOCK
5
1C
100
AcDbEntity
8
0
100
AcDbBlockBegin
2
*PAPER_SPACE
70
0
10
0.0
20
0.0
30
0.0
3
*PAPER_SPACE
1

0
ENDBLK
5
1D
100
AcDbEntity
8
0
100
AcDbBlockEnd
0
ENDSEC
0
SECTION
2
ENTITIES
0
LINE
5
20C
100
AcDbEntity
8
0
100
AcDbLine
62
0
6
CONTINUOUS
10
-74.1403458294
20
-50.4764986743
11
-73.9403458294
21
-50.7214476486
0
LINE
5
20D
100
AcDbEntity
8
0
100
AcDbLine
62
0
6
CONTINUOUS
10
-74.2317745639
20
-50.1975965328
11
-74.0317745639
21
-50.4425455071
0
LINE
5
20E
100
AcDbEntity
8
0
100
AcDbLine
62
0
6
CONTINUOUS
10
-74.1407908643
20
-50.4759525738
11
-74.1407084531
21
-50.4760538584
0
LINE
5
20F
100
AcDbEntity
8
0
100
AcDbLine
62
0
6
CONTINUOUS
10
-73.9407084531
20
-50.7210028327
11
-73.9407908643
21
-50.7209015481
0
LINE
5
210
100
AcDbEntity
8
0
100
AcDbLine
62
0
6
CONTINUOUS
10
-74.3817745639
20
-26.7147163620
11
-74.3317745639
21
-26.8466642837
0
LINE
5
211
100
AcDbEntity
8
0
100
AcDbLine
62
0
6
CONTINUOUS
10
-74.0317745639
20
-27.2494430842
11
-73.9317745639
21
-27.5133389276
0
LINE
5
212
100
AcDbEntity
8
0
100
AcDbLine
62
0
6
CONTINUOUS
10
-74.4487618621
20
-26.3630626357
11
-74.4487618621
21
-10.2391283625
0
LINE
5
213
100
AcDbEntity
8
0
100
AcDbLine
62
0
6
CONTINUOUS
10
-74.3817745639
20
-26.7147163620
11
-74.3817745639
21
-10.4159050557
0
LINE
5
214
100
AcDbEntity
8
0
100
AcDbLine
62
0
6
CONTINUOUS
10
-74.3317745639
20
-27.0234409790
11
-74.3317745639
21
-26.8466642837
0
LINE
5
215
100
AcDbEntity
8
0
100
AcDbLine
62
0
6
CONTINUOUS
10
-74.2987618621
20
-27.0234409790
11
-74.2987618621
21
-50.0208198571
0
LINE
5
216
100
AcDbEntity
8
0
100
AcDbLine
62
0
6
CONTINUOUS
10
-74.2317745639
20
-27.0044941099
11
-74.2317745639
21
-50.1975965328
0
LINE
5
217
100
AcDbEntity
8
0
100
AcDbLine
62
0
6
CONTINUOUS
10
-74.0317745639
20
-50.4425455071
11
-74.0317745639
21
-27.2494430842
0
LINE
5
218
100
AcDbEntity
8
0
100
AcDbLine
62
0
6
CONTINUOUS
10
-73.9317745639
20
-27.5133389276
11
-73.9317745639
21
-27.3365622323
0
LINE
5
219
100
AcDbEntity
8
0
100
AcDbLine
62
0
6
CONTINUOUS
10
-73.8817745639
20
-11.0282774914
11
-73.8817745639
21
-27.3270887977
0
LINE
5
21A
100
AcDbEntity
8
0
100
AcDbLine
62
0
6
CONTINUOUS
10
-73.3487618621
20
-50.5719550297
11
-73.3487618621
21
-27.7324059973
0
LINE
5
21B
100
AcDbEntity
8
0
100
AcDbLine
62
0
6
CONTINUOUS
10
-73.1987618621
20
-11.1576870139
11
-73.1987618621
21
-27.1029449297
0
LINE
5
21C
100
AcDbEntity
8
0
100
AcDbLine
62
0
6
CONTINUOUS
10
-74.3817745639
20
-10.4159050557
11
-73.8817745639
21
-11.0282774914
0
LINE
5
21D
100
AcDbEntity
8
0
100
AcDbLine
62
0
6
CONTINUOUS
10
-73.5157491602
20
-9.3552448839
11
-73.0157491602
21
-9.9676173196
0
LINE
5
21E
100
AcDbEntity
8
0
100
AcDbLine
62
0
6
CONTINUOUS
10
-67.4928995960
20
-6.8964268456
11
-66.9928995960
21
-7.5087992813
0
LINE
5
21F
100
AcDbEntity
8
0
100
AcDbLine
62
0
6
CONTINUOUS
10
-66.1660716997
20
-5.8495770182
11
-65.6660716997
21
-6.4619494539
0
LINE
5
220
100
AcDbEntity
8
0
100
AcDbLine
62
0
6
CONTINUOUS
10
-66.2393719563
20
-5.6482130012
11
-61.2046581928
21
1.3062926236
0
LINE
5
221
100
AcDbEntity
8
0
100
AcDbLine
62
0
6
CONTINUOUS
10
-66.1660716997
20
-5.8495770182
11
-61.1313579351
21
1.1049286081
0
LINE
5
222
100
AcDbEntity
8
0
100
AcDbLine
62
0
6
CONTINUOUS
10
-60.6313579351
20
0.4925561724
11
-65.6660716997
21
-6.4619494539
0
LINE
5
223
100
AcDbEntity
8
0
100
AcDbLine
62
0
6
CONTINUOUS
10
-60.0496509611
20
0.0945290209
11
-65.0843647256
21
-6.8599766055
0
LINE
5
224
100
AcDbEntity
8
0
100
AcDbLine
62
0
6
CONTINUOUS
10
-36.1328745801
20
-33.9972360463
11
-37.1328745801
21
-32.7724911749
0
LINE
5
225
100
AcDbEntity
8
0
100
AcDbLine
62
0
6
CONTINUOUS
10
-45.2663336987
20
-15.8107216989
11
-45.1163336987
21
-16.2065654640
0
LINE
5
226
100
AcDbEntity
8
0
100
AcDbLine
62
0
6
CONTINUOUS
10
-43.9905006738
20
-16.6661848718
11
-43.9905006738
21
-38.9400484791
0
LINE
5
227
100
AcDbEntity
8
0
100
AcDbLine
62
0
6
CONTINUOUS
10
-43.8806930526
20
-16.3764071239
11
-43.8806930526
21
-38.9743077662
0
LINE
5
228
100
AcDbEntity
8
0
100
AcDbLine
62
0
6
CONTINUOUS
10
-43.6641867017
20
-16.2880187762
11
-43.6641867017
21
-38.9154357742
0
LINE
5
229
100
AcDbEntity
8
0
100
AcDbLine
62
0
6
CONTINUOUS
10
-42.8445714594
20
-38.7171738107
11
-42.8445714594
21
-16.4433102033
0
LINE
5
22A
100
AcDbEntity
8
0
100
AcDbLine
62
0
6
CONTINUOUS
10
-41.6754371643
20
-34.2800787587
11
-41.6754371643
21
-36.2599777461
0
LINE
5
22B
100
AcDbEntity
8
0
100
AcDbLine
62
0
6
CONTINUOUS
10
-43.5275841613
20
-38.9413176787
11
-43.6641867017
21
-38.9154357742
0
LINE
5
22C
100
AcDbEntity
8
0
100
AcDbLine
62
0
6
CONTINUOUS
10
-61.1313579351
20
1.1049286081
11
-60.6313579351
21
0.4925561724
0
LINE
5
22D
100
AcDbEntity
8
0
100
AcDbLine
62
0
6
CONTINUOUS
10
-60.4679439870
20
1.6283535219
11
-59.9679439870
21
1.0159810862
0
LINE
5
22E
100
AcDbEntity
8
0
100
AcDbLine
62
0
6
CONTINUOUS
10
-37.1328745801
20
-32.7724911749
11
-37.1328745801
21
-32.4255853494
0
LINE
5
22F
100
AcDbEntity
8
0
100
AcDbLine
62
0
6
CONTINUOUS
10
-36.1328745801
20
-33.9972360463
11
-36.1328745801
21
-32.0173370589
0
LINE
5
230
100
AcDbEntity
8
0
100
AcDbLine
62
0
6
CONTINUOUS
10
-35.8730669589
20
-16.4963432119
11
-35.8730669589
21
-18.5469528773
0
LINE
5
231
100
AcDbEntity
8
0
100
AcDbLine
62
0
6
CONTINUOUS
10
-35.7730669589
20
-16.6188176990
11
-35.7730669589
21
-18.6694273645
0
LINE
5
232
100
AcDbEntity
8
0
100
AcDbLine
62
0
6
CONTINUOUS
10
-35.4442804144
20
-18.5352008197
11
-35.4442804144
21
-16.8157731005
0
LINE
5
233
100
AcDbEntity
8
0
100
AcDbLine
62
0
6
CONTINUOUS
10
-35.8730669589
20
-18.5469528773
11
-35.7730669589
21
-18.6694273645
0
LINE
5
234
100
AcDbEntity
8
0
100
AcDbLine
62
0
6
CONTINUOUS
10
-35.8730669589
20
-16.4963432119
11
-35.7730669589
21
-16.6188176990
0
LINE
5
235
100
AcDbEntity
8
0
100
AcDbLine
62
0
6
CONTINUOUS
10
-35.3868413261
20
-16.2978424285
11
-35.2868413261
21
-16.4203169156
0
LINE
5
236
100
AcDbEntity
8
0
100
AcDbLine
62
0
6
CONTINUOUS
10
-33.7953447095
20
-17.6987263209
11
-33.6953447095
21
-17.8212008081
0
LINE
5
237
100
AcDbEntity
8
0
100
AcDbLine
62
0
6
CONTINUOUS
10
-33.1655970167
20
-17.4416329019
11
-33.0655970167
21
-17.5641073890
0
LINE
5
238
100
AcDbEntity
8
0
100
AcDbLine
62
0
6
CONTINUOUS
10
-33.9492019167
20
-15.7109285973
11
-33.8492019167
21
-15.8334030845
0
LINE
5
239
100
AcDbEntity
8
0
100
AcDbLine
62
0
6
CONTINUOUS
10
-33.4664256631
20
-15.5138360171
11
-33.3664256631
21
-15.6363105042
0
LINE
5
23A
100
AcDbEntity
8
0
100
AcDbLine
62
0
6
CONTINUOUS
10
-31.4769733660
20
-16.3215653414
11
-31.2977837367
21
-16.6791013234
0
LINE
5
23B
100
AcDbEntity
8
0
100
AcDbLine
62
0
6
CONTINUOUS
10
-31.4461078610
20
-16.3060961895
11
-31.1977837367
21
-16.8015758106
0
LINE
5
23C
100
AcDbEntity
8
0
100
AcDbLine
62
0
6
CONTINUOUS
10
-34.5662934677
20
-17.8681848717
11
-35.2868413261
21
-16.4203169156
0
LINE
5
23D
100
AcDbEntity
8
0
100
AcDbLine
62
0
6
CONTINUOUS
10
-35.4442804144
20
-16.8958013673
11
-34.8376495843
21
-18.1242455042
0
LINE
5
23E
100
AcDbEntity
8
0
100
AcDbLine
62
0
6
CONTINUOUS
10
-35.4442804144
20
-16.8157731005
11
-34.7376495843
21
-18.2467199913
0
LINE
5
23F
100
AcDbEntity
8
0
100
AcDbLine
62
0
6
CONTINUOUS
10
-31.9597356143
20
-15.3978888495
11
-31.6684426095
21
-15.9879560636
0
LINE
5
240
100
AcDbEntity
8
0
100
AcDbLine
62
0
6
CONTINUOUS
10
-31.9426132153
20
-15.3524796100
11
-31.5684426095
21
-16.1104305508
0
LINE
5
241
100
AcDbEntity
8
0
100
AcDbLine
62
0
6
CONTINUOUS
10
-33.7953447095
20
-16.3835521402
11
-33.7953447095
21
-17.6987263209
0
LINE
5
242
100
AcDbEntity
8
0
100
AcDbLine
62
0
6
CONTINUOUS
10
-33.6953447095
20
-16.0989538542
11
-33.6953447095
21
-17.8212008081
0
LINE
5
243
100
AcDbEntity
8
0
100
AcDbLine
62
0
6
CONTINUOUS
10
-33.3664256631
20
-17.6869201697
11
-33.3664256631
21
-15.6363105042
0
LINE
5
244
100
AcDbEntity
8
0
100
AcDbLine
62
0
6
CONTINUOUS
10
-30.5981867649
20
-14.3428823902
11
-30.5981867649
21
-16.3934920557
0
LINE
5
245
100
AcDbEntity
8
0
100
AcDbLine
62
0
6
CONTINUOUS
10
-30.4981867649
20
-14.4653568774
11
-30.4981867649
21
-16.5159665428
0
LINE
5
246
100
AcDbEntity
8
0
100
AcDbLine
62
0
6
CONTINUOUS
10
-30.1587870790
20
-16.1404217778
11
-30.1587870790
21
-14.5637829593
0
LINE
5
247
100
AcDbEntity
8
0
100
AcDbLine
62
0
6
CONTINUOUS
10
-43.8806930526
20
-16.3764071239
11
-43.9905006738
21
-16.6661848718
0
LINE
5
248
100
AcDbEntity
8
0
100
AcDbLine
62
0
6
CONTINUOUS
10
-32.2212101702
20
-15.0054789209
11
-32.1212101702
21
-15.1279534080
0
LINE
5
249
100
AcDbEntity
8
0
100
AcDbLine
62
0
6
CONTINUOUS
10
-30.5981867649
20
-16.3934920557
11
-30.4981867649
21
-16.5159665428
0
LINE
5
24A
100
AcDbEntity
8
0
100
AcDbLine
62
0
6
CONTINUOUS
10
-31.8363744616
20
-14.8483704007
11
-31.7363744616
21
-14.9708448878
0
LINE
5
24B
100
AcDbEntity
8
0
100
AcDbLine
62
0
6
CONTINUOUS
10
-20.1114046101
20
-27.4564983203
11
-21.1114046101
21
-26.2317534489
0
LINE
5
24C
100
AcDbEntity
8
0
100
AcDbLine
62
0
6
CONTINUOUS
10
-29.5888869843
20
-15.7444617222
11
-29.4888869843
21
-15.8669362093
0
LINE
5
24D
100
AcDbEntity
8
0
100
AcDbLine
62
0
6
CONTINUOUS
10
-30.5981867649
20
-14.3428823902
11
-30.4981867649
21
-14.4653568774
0
LINE
5
24E
100
AcDbEntity
8
0
100
AcDbLine
62
0
6
CONTINUOUS
10
-29.5695746178
20
-13.9229532397
11
-29.4695746178
21
-14.0454277268
0
LINE
5
24F
100
AcDbEntity
8
0
100
AcDbLine
62
0
6
CONTINUOUS
10
-28.8741659976
20
-14.6643586920
11
-28.7741659976
21
-14.7868331791
0
LINE
5
250
100
AcDbEntity
8
0
100
AcDbLine
62
0
6
CONTINUOUS
10
-28.0551291474
20
-15.3552931308
11
-27.9551291474
21
-15.4777676180
0
LINE
5
251
100
AcDbEntity
8
0
100
AcDbLine
62
0
6
CONTINUOUS
10
-28.0551291474
20
-13.3046834654
11
-27.9551291474
21
-13.4271579525
0
LINE
5
252
100
AcDbEntity
8
0
100
AcDbLine
62
0
6
CONTINUOUS
10
-26.2011272406
20
-14.3527914311
11
-26.1011272406
21
-14.4752659183
0
LINE
5
253
100
AcDbEntity
8
0
100
AcDbLine
62
0
6
CONTINUOUS
10
-30.8269637831
20
-16.6501891985
11
-31.7363744616
21
-14.9708448878
0
LINE
5
254
100
AcDbEntity
8
0
100
AcDbLine
62
0
6
CONTINUOUS
10
-28.0551291474
20
-13.3046834654
11
-28.0551291474
21
-15.3552931308
0
LINE
5
255
100
AcDbEntity
8
0
100
AcDbLine
62
0
6
CONTINUOUS
10
-27.9551291474
20
-13.4271579525
11
-27.9551291474
21
-15.4777676180
0
LINE
5
256
100
AcDbEntity
8
0
100
AcDbLine
62
0
6
CONTINUOUS
10
-27.6157502461
20
-15.0936081710
11
-27.6157502461
21
-14.4081918903
0
LINE
5
257
100
AcDbEntity
8
0
100
AcDbLine
62
0
6
CONTINUOUS
10
-27.6157502461
20
-14.1625832996
11
-27.6157502461
21
-13.5342156870
0
LINE
5
258
100
AcDbEntity
8
0
100
AcDbLine
62
0
6
CONTINUOUS
10
-26.2410717497
20
-13.8469817442
11
-26.2410717497
21
-13.6013731535
0
LINE
5
259
100
AcDbEntity
8
0
100
AcDbLine
62
0
6
CONTINUOUS
10
-26.1256426877
20
-12.9258818236
11
-26.1256426877
21
-12.6802732329
0
LINE
5
25A
100
AcDbEntity
8
0
100
AcDbLine
62
0
6
CONTINUOUS
10
-26.1011272406
20
-14.7208745090
11
-26.1011272406
21
-14.4752659183
0
LINE
5
25B
100
AcDbEntity
8
0
100
AcDbLine
62
0
6
CONTINUOUS
10
-25.6539671943
20
-27.7393410328
11
-25.6539671943
21
-29.7192400201
0
LINE
5
25C
100
AcDbEntity
8
0
100
AcDbLine
62
0
6
CONTINUOUS
10
-24.7319411238
20
-11.9479976358
11
-24.7319411238
21
-13.9986073013
0
LINE
5
25D
100
AcDbEntity
8
0
100
AcDbLine
62
0
6
CONTINUOUS
10
-24.6319411238
20
-12.0704721230
11
-24.6319411238
21
-14.1210817884
0
LINE
5
25E
100
AcDbEntity
8
0
100
AcDbLine
62
0
6
CONTINUOUS
10
-24.2926635475
20
-13.9825722979
11
-24.2926635475
21
-11.9319626325
0
LINE
5
25F
100
AcDbEntity
8
0
100
AcDbLine
62
0
6
CONTINUOUS
10
-23.8120896431
20
-11.5724698414
11
-23.8120896431
21
-13.6230795068
0
LINE
5
260
100
AcDbEntity
8
0
100
AcDbLine
62
0
6
CONTINUOUS
10
-23.7120896431
20
-11.6949443285
11
-23.7120896431
21
-13.7455539939
0
LINE
5
261
100
AcDbEntity
8
0
100
AcDbLine
62
0
6
CONTINUOUS
10
-23.3831506781
20
-13.6112652238
11
-23.3831506781
21
-11.9459248094
0
LINE
5
262
100
AcDbEntity
8
0
100
AcDbLine
62
0
6
CONTINUOUS
10
-34.4018395737
20
-18.1096261286
11
-33.6953447095
21
-16.0989538542
0
LINE
5
263
100
AcDbEntity
8
0
100
AcDbLine
62
0
6
CONTINUOUS
10
-33.9492019167
20
-15.7109285973
11
-34.6501048466
21
-17.6997743930
0
LINE
5
264
100
AcDbEntity
8
0
100
AcDbLine
62
0
6
CONTINUOUS
10
-33.8492019167
20
-15.8334030845
11
-34.5662934677
21
-17.8681848717
0
LINE
5
265
100
AcDbEntity
8
0
100
AcDbLine
62
0
6
CONTINUOUS
10
-32.7158396670
20
-17.4213195490
11
-32.4534599504
21
-16.7173459579
0
LINE
5
266
100
AcDbEntity
8
0
100
AcDbLine
62
0
6
CONTINUOUS
10
-32.3484916093
20
-16.4288842214
11
-31.9426132153
21
-15.3524796100
0
LINE
5
267
100
AcDbEntity
8
0
100
AcDbLine
62
0
6
CONTINUOUS
10
-32.2212101702
20
-15.0054789209
11
-33.1655970167
21
-17.4416329019
0
LINE
5
268
100
AcDbEntity
8
0
100
AcDbLine
62
0
6
CONTINUOUS
10
-32.1212101702
20
-15.1279534080
11
-33.0655970167
21
-17.5641073890
0
LINE
5
269
100
AcDbEntity
8
0
100
AcDbLine
62
0
6
CONTINUOUS
10
-60.6569262235
20
1.7377101811
11
59.7789617488
21
50.9054555563
0
LINE
5
26A
100
AcDbEntity
8
0
100
AcDbLine
62
0
6
CONTINUOUS
10
-60.4679439870
20
1.6283535219
11
59.9679439870
21
50.7960988977
0
LINE
5
26B
100
AcDbEntity
8
0
100
AcDbLine
62
0
6
CONTINUOUS
10
60.4679439870
20
50.1837264620
11
-59.9679439870
21
1.0159810862
0
LINE
5
26C
100
AcDbEntity
8
0
100
AcDbLine
62
0
6
CONTINUOUS
10
-42.8445714594
20
-16.4433102033
11
-43.6641867017
21
-16.2880187762
0
LINE
5
26D
100
AcDbEntity
8
0
100
AcDbLine
62
0
6
CONTINUOUS
10
-23.3831506781
20
-11.9459248094
11
-22.0993840644
21
-13.0871696984
0
LINE
5
26E
100
AcDbEntity
8
0
100
AcDbLine
62
0
6
CONTINUOUS
10
-22.0469003268
20
-12.6808113412
11
-23.3097454988
21
-11.5306880194
0
LINE
5
26F
100
AcDbEntity
8
0
100
AcDbLine
62
0
6
CONTINUOUS
10
-22.1469003268
20
-12.5583368540
11
-23.1787845766
21
-11.6185588295
0
LINE
5
270
100
AcDbEntity
8
0
100
AcDbLine
62
0
6
CONTINUOUS
10
-26.3410717497
20
-13.4788986664
11
-26.2410717497
21
-13.6013731535
0
LINE
5
271
100
AcDbEntity
8
0
100
AcDbLine
62
0
6
CONTINUOUS
10
-26.2256426877
20
-12.5577987458
11
-26.1256426877
21
-12.6802732329
0
LINE
5
272
100
AcDbEntity
8
0
100
AcDbLine
62
0
6
CONTINUOUS
10
-24.7319411238
20
-13.9986073013
11
-24.6319411238
21
-14.1210817884
0
LINE
5
273
100
AcDbEntity
8
0
100
AcDbLine
62
0
6
CONTINUOUS
10
-23.8120896431
20
-13.6230795068
11
-23.7120896431
21
-13.7455539939
0
LINE
5
274
100
AcDbEntity
8
0
100
AcDbLine
62
0
6
CONTINUOUS
10
-24.7319411238
20
-11.9479976358
11
-24.6319411238
21
-12.0704721230
0
LINE
5
275
100
AcDbEntity
8
0
100
AcDbLine
62
0
6
CONTINUOUS
10
-24.3926635475
20
-11.8094881453
11
-24.2926635475
21
-11.9319626325
0
LINE
5
276
100
AcDbEntity
8
0
100
AcDbLine
62
0
6
CONTINUOUS
10
-23.8120896431
20
-11.5724698414
11
-23.7120896431
21
-11.6949443285
0
LINE
5
277
100
AcDbEntity
8
0
100
AcDbLine
62
0
6
CONTINUOUS
10
-23.4097454988
20
-11.4082135323
11
-23.3097454988
21
-11.5306880194
0
LINE
5
278
100
AcDbEntity
8
0
100
AcDbLine
62
0
6
CONTINUOUS
10
-22.1469003268
20
-10.8926591497
11
-22.0469003268
21
-11.0151336368
0
LINE
5
279
100
AcDbEntity
8
0
100
AcDbLine
62
0
6
CONTINUOUS
10
-21.8181233086
20
-10.7584364940
11
-21.7181233086
21
-10.8809109812
0
LINE
5
27A
100
AcDbEntity
8
0
100
AcDbLine
62
0
6
CONTINUOUS
10
-20.2615985298
20
-12.1735975795
11
-20.1615985298
21
-12.2960720666
0
LINE
5
27B
100
AcDbEntity
8
0
100
AcDbLine
62
0
6
CONTINUOUS
10
-22.1469003268
20
-10.8926591497
11
-22.1469003268
21
-12.5583368540
0
LINE
5
27C
100
AcDbEntity
8
0
100
AcDbLine
62
0
6
CONTINUOUS
10
-22.0469003268
20
-11.0151336368
11
-22.0469003268
21
-12.6808113412
0
LINE
5
27D
100
AcDbEntity
8
0
100
AcDbLine
62
0
6
CONTINUOUS
10
-21.7181233086
20
-12.9315206466
11
-21.7181233086
21
-10.8809109812
0
LINE
5
27E
100
AcDbEntity
8
0
100
AcDbLine
62
0
6
CONTINUOUS
10
-21.1114046101
20
-26.2317534489
11
-21.1114046101
21
-25.8848476234
0
LINE
5
27F
100
AcDbEntity
8
0
100
AcDbLine
62
0
6
CONTINUOUS
10
-20.2615985298
20
-10.1229879141
11
-20.2615985298
21
-12.1735975795
0
LINE
5
280
100
AcDbEntity
8
0
100
AcDbLine
62
0
6
CONTINUOUS
10
-20.1615985298
20
-10.2454624012
11
-20.1615985298
21
-12.2960720666
0
LINE
5
281
100
AcDbEntity
8
0
100
AcDbLine
62
0
6
CONTINUOUS
10
-20.1114046101
20
-27.4564983203
11
-20.1114046101
21
-25.4765993330
0
LINE
5
282
100
AcDbEntity
8
0
100
AcDbLine
62
0
6
CONTINUOUS
10
-19.8222196286
20
-12.1575212104
11
-19.8222196286
21
-10.1069115449
0
LINE
5
283
100
AcDbEntity
8
0
100
AcDbLine
62
0
6
CONTINUOUS
10
-19.5584266051
20
-9.8359191779
11
-19.5584266051
21
-10.0815277686
0
LINE
5
284
100
AcDbEntity
8
0
100
AcDbLine
62
0
6
CONTINUOUS
10
-19.4584266051
20
-9.9583936651
11
-19.4584266051
21
-10.2040022558
0
LINE
5
285
100
AcDbEntity
8
0
100
AcDbLine
62
0
6
CONTINUOUS
10
-18.7084053508
20
-9.8978073609
11
-18.7084053508
21
-11.5395091194
0
LINE
5
286
100
AcDbEntity
8
0
100
AcDbLine
62
0
6
CONTINUOUS
10
-18.6084053508
20
-9.8569825318
11
-18.6084053508
21
-11.6619836066
0
LINE
5
287
100
AcDbEntity
8
0
100
AcDbLine
62
0
6
CONTINUOUS
10
-18.2691485591
20
-11.5234826013
11
-18.2691485591
21
-9.7184815266
0
LINE
5
288
100
AcDbEntity
8
0
100
AcDbLine
62
0
6
CONTINUOUS
10
-17.4191264388
20
-9.3714614491
11
-17.4191264388
21
-9.1258528584
0
LINE
5
289
100
AcDbEntity
8
0
100
AcDbLine
62
0
6
CONTINUOUS
10
60.7179439870
20
49.5239868536
11
-59.7179439870
21
0.3562414777
0
LINE
5
28A
100
AcDbEntity
8
0
100
AcDbLine
62
0
6
CONTINUOUS
10
-73.7047313967
20
-9.2458882246
11
-67.6818818325
21
-6.7870701863
0
LINE
5
28B
100
AcDbEntity
8
0
100
AcDbLine
62
0
6
CONTINUOUS
10
66.8039173595
20
48.1165274255
11
72.8267669211
21
50.5753454627
0
LINE
5
28C
100
AcDbEntity
8
0
100
AcDbLine
62
0
6
CONTINUOUS
10
-73.5157491602
20
-9.3552448839
11
-67.4928995960
21
-6.8964268456
0
LINE
5
28D
100
AcDbEntity
8
0
100
AcDbLine
62
0
6
CONTINUOUS
10
66.9928995960
20
48.0071707662
11
73.0157491602
21
50.4659888045
0
LINE
5
28E
100
AcDbEntity
8
0
100
AcDbLine
62
0
6
CONTINUOUS
10
73.5157491602
20
49.8536163688
11
67.4928995960
21
47.3947983305
0
LINE
5
28F
100
AcDbEntity
8
0
100
AcDbLine
62
0
6
CONTINUOUS
10
-66.9928995960
20
-7.5087992813
11
-73.0157491602
21
-9.9676173196
0
LINE
5
290
100
AcDbEntity
8
0
100
AcDbLine
62
0
6
CONTINUOUS
10
73.7657491602
20
49.1938767603
11
67.7428995960
21
46.7350587221
0
LINE
5
291
100
AcDbEntity
8
0
100
AcDbLine
62
0
6
CONTINUOUS
10
-66.7428995960
20
-8.1685388898
11
-72.7657491602
21
-10.6273569280
0
LINE
5
292
100
AcDbEntity
8
0
100
AcDbLine
62
0
6
CONTINUOUS
10
-20.2615985298
20
-10.1229879141
11
-20.1615985298
21
-10.2454624012
0
LINE
5
293
100
AcDbEntity
8
0
100
AcDbLine
62
0
6
CONTINUOUS
10
-18.7084053508
20
-11.5395091194
11
-18.6084053508
21
-11.6619836066
0
LINE
5
294
100
AcDbEntity
8
0
100
AcDbLine
62
0
6
CONTINUOUS
10
-19.9222196286
20
-9.9844370578
11
-19.8222196286
21
-10.1069115449
0
LINE
5
295
100
AcDbEntity
8
0
100
AcDbLine
62
0
6
CONTINUOUS
10
-19.5584266051
20
-10.0815277686
11
-19.4584266051
21
-10.2040022558
0
LINE
5
296
100
AcDbEntity
8
0
100
AcDbLine
62
0
6
CONTINUOUS
10
-19.5584266051
20
-9.8359191779
11
-19.4584266051
21
-9.9583936651
0
LINE
5
297
100
AcDbEntity
8
0
100
AcDbLine
62
0
6
CONTINUOUS
10
-17.4211858938
20
-11.0140039767
11
-17.3211858938
21
-11.1364784638
0
LINE
5
298
100
AcDbEntity
8
0
100
AcDbLine
62
0
6
CONTINUOUS
10
-17.5191264388
20
-9.0033783713
11
-17.4191264388
21
-9.1258528584
0
LINE
5
299
100
AcDbEntity
8
0
100
AcDbLine
62
0
6
CONTINUOUS
10
-16.4766769378
20
-8.5778001446
11
-16.3766769378
21
-8.7002746317
0
LINE
5
29A
100
AcDbEntity
8
0
100
AcDbLine
62
0
6
CONTINUOUS
10
-14.8712026712
20
-9.9729776853
11
-14.7712026712
21
-10.0954521725
0
LINE
5
29B
100
AcDbEntity
8
0
100
AcDbLine
62
0
6
CONTINUOUS
10
-16.0919633387
20
-8.4207414754
11
-15.9919633387
21
-8.5432159626
0
LINE
5
29C
100
AcDbEntity
8
0
100
AcDbLine
62
0
6
CONTINUOUS
10
-15.0823690629
20
-10.2224853199
11
-15.9919633387
21
-8.5432159626
0
LINE
5
29D
100
AcDbEntity
8
0
100
AcDbLine
62
0
6
CONTINUOUS
10
-15.7324549806
20
-9.8938935690
11
-15.5532513703
21
-10.2514229007
0
LINE
5
29E
100
AcDbEntity
8
0
100
AcDbLine
62
0
6
CONTINUOUS
10
-15.7015954131
20
-9.8784258985
11
-15.4532513703
21
-10.3738973879
0
LINE
5
29F
100
AcDbEntity
8
0
100
AcDbLine
62
0
6
CONTINUOUS
10
-16.2153623962
20
-8.9702710050
11
-15.9240514052
21
-9.5603352701
0
LINE
5
2A0
100
AcDbEntity
8
0
100
AcDbLine
62
0
6
CONTINUOUS
10
-16.1982427957
20
-8.9248673018
11
-15.8240514052
21
-9.6828097572
0
LINE
5
2A1
100
AcDbEntity
8
0
100
AcDbLine
62
0
6
CONTINUOUS
10
-14.8712026712
20
-7.9223680199
11
-14.8712026712
21
-9.9729776853
0
LINE
5
2A2
100
AcDbEntity
8
0
100
AcDbLine
62
0
6
CONTINUOUS
10
-14.7712026712
20
-8.0448425070
11
-14.7712026712
21
-10.0954521725
0
LINE
5
2A3
100
AcDbEntity
8
0
100
AcDbLine
62
0
6
CONTINUOUS
10
-14.4318029854
20
-9.7112842402
11
-14.4318029854
21
-7.9062831655
0
LINE
5
2A4
100
AcDbEntity
8
0
100
AcDbLine
62
0
6
CONTINUOUS
10
-13.1584970925
20
-9.4370678769
11
-13.1584970925
21
-9.1914592862
0
LINE
5
2A5
100
AcDbEntity
8
0
100
AcDbLine
62
0
6
CONTINUOUS
10
-12.1952084222
20
-8.0891679616
11
-12.1952084222
21
-8.8805076079
0
LINE
5
2A6
100
AcDbEntity
8
0
100
AcDbLine
62
0
6
CONTINUOUS
10
-12.0952084222
20
-8.1775968554
11
-12.0952084222
21
-9.0029820950
0
LINE
5
2A7
100
AcDbEntity
8
0
100
AcDbLine
62
0
6
CONTINUOUS
10
-11.7560122523
20
-8.8645058385
11
-11.7560122523
21
-8.0391205989
0
LINE
5
2A8
100
AcDbEntity
8
0
100
AcDbLine
62
0
6
CONTINUOUS
10
-16.9714484627
20
-10.9936987554
11
-16.7090488275
21
-10.2897170327
0
LINE
5
2A9
100
AcDbEntity
8
0
100
AcDbLine
62
0
6
CONTINUOUS
10
-16.6041012710
20
-10.0012637814
11
-16.1982427957
21
-8.9248673018
0
LINE
5
2AA
100
AcDbEntity
8
0
100
AcDbLine
62
0
6
CONTINUOUS
10
-12.6242079158
20
0.6805497027
11
-9.8933413053
21
7.8765396461
0
LINE
5
2AB
100
AcDbEntity
8
0
100
AcDbLine
62
0
6
CONTINUOUS
10
-11.0174163453
20
7.5809372489
11
-13.3937031445
21
1.3353692499
0
LINE
5
2AC
100
AcDbEntity
8
0
100
AcDbLine
62
0
6
CONTINUOUS
10
-10.9174163453
20
7.4584627617
11
-13.3069246905
21
1.1781447214
0
LINE
5
2AD
100
AcDbEntity
8
0
100
AcDbLine
62
0
6
CONTINUOUS
10
-16.4766769378
20
-8.5778001446
11
-17.4211858938
21
-11.0140039767
0
LINE
5
2AE
100
AcDbEntity
8
0
100
AcDbLine
62
0
6
CONTINUOUS
10
-16.3766769378
20
-8.7002746317
11
-17.3211858938
21
-11.1364784638
0
LINE
5
2AF
100
AcDbEntity
8
0
100
AcDbLine
62
0
6
CONTINUOUS
10
-73.8817745639
20
-27.3270887977
11
-73.9317745639
21
-27.3365622323
0
LINE
5
2B0
100
AcDbEntity
8
0
100
AcDbLine
62
0
6
CONTINUOUS
10
-74.2317745639
20
-27.0044941099
11
-74.3317745639
21
-27.0234409790
0
LINE
5
2B1
100
AcDbEntity
8
0
100
AcDbLine
62
0
6
CONTINUOUS
10
7.3575629641
20
-16.9398381267
11
9.0175311282
21
-17.6175172919
0
LINE
5
2B2
100
AcDbEntity
8
0
100
AcDbLine
62
0
6
CONTINUOUS
10
7.6075629641
20
-16.7059626197
11
9.3396137716
21
-17.4130694008
0
LINE
5
2B3
100
AcDbEntity
8
0
100
AcDbLine
62
0
6
CONTINUOUS
10
-13.0431303844
20
-7.3393599501
11
-12.0952084222
21
-8.1775968554
0
LINE
5
2B4
100
AcDbEntity
8
0
100
AcDbLine
62
0
6
CONTINUOUS
10
-11.9272350010
20
-7.8692180422
11
-12.6478746580
21
-7.1779974755
0
LINE
5
2B5
100
AcDbEntity
8
0
100
AcDbLine
62
0
6
CONTINUOUS
10
-12.0272350010
20
-7.7467435551
11
-12.7478746580
21
-7.0555229884
0
LINE
5
2B6
100
AcDbEntity
8
0
100
AcDbLine
62
0
6
CONTINUOUS
10
-14.8712026712
20
-7.9223680199
11
-14.7712026712
21
-8.0448425070
0
LINE
5
2B7
100
AcDbEntity
8
0
100
AcDbLine
62
0
6
CONTINUOUS
10
-14.5318029854
20
-7.7838086783
11
-14.4318029854
21
-7.9062831655
0
LINE
5
2B8
100
AcDbEntity
8
0
100
AcDbLine
62
0
6
CONTINUOUS
10
-13.2584970925
20
-9.0689847991
11
-13.1584970925
21
-9.1914592862
0
LINE
5
2B9
100
AcDbEntity
8
0
100
AcDbLine
62
0
6
CONTINUOUS
10
-12.1952084222
20
-8.8805076079
11
-12.0952084222
21
-9.0029820950
0
LINE
5
2BA
100
AcDbEntity
8
0
100
AcDbLine
62
0
6
CONTINUOUS
10
-13.1431303844
20
-7.2168854630
11
-13.0431303844
21
-7.3393599501
0
LINE
5
2BB
100
AcDbEntity
8
0
100
AcDbLine
62
0
6
CONTINUOUS
10
-12.7478746580
20
-7.0555229884
11
-12.6478746580
21
-7.1779974755
0
LINE
5
2BC
100
AcDbEntity
8
0
100
AcDbLine
62
0
6
CONTINUOUS
10
-11.3067988598
20
-6.4672062574
11
-11.2067988598
21
-6.5896807445
0
LINE
5
2BD
100
AcDbEntity
8
0
100
AcDbLine
62
0
6
CONTINUOUS
10
-10.9078876403
20
-6.3043514339
11
-10.8078876403
21
-6.4268259211
0
LINE
5
2BE
100
AcDbEntity
8
0
100
AcDbLine
62
0
6
CONTINUOUS
10
-16.8205080757
20
5.2118349705
11
-14.0896412210
21
0.2455883772
0
LINE
5
2BF
100
AcDbEntity
8
0
100
AcDbLine
62
0
6
CONTINUOUS
10
-16.7205080757
20
5.0893604834
11
-13.9896412210
21
0.1231138901
0
LINE
5
2C0
100
AcDbEntity
8
0
100
AcDbLine
62
0
6
CONTINUOUS
10
-8.6279077559
20
8.5564500456
11
-8.6279077559
21
2.4753317273
0
LINE
5
2C1
100
AcDbEntity
8
0
100
AcDbLine
62
0
6
CONTINUOUS
10
-8.5279077559
20
8.4339755584
11
-8.5279077559
21
2.3528572402
0
LINE
5
2C2
100
AcDbEntity
8
0
100
AcDbLine
62
0
6
CONTINUOUS
10
-7.5038327159
20
2.7709341246
11
-7.5038327159
21
8.8520524428
0
LINE
5
2C3
100
AcDbEntity
8
0
100
AcDbLine
62
0
6
CONTINUOUS
10
-6.2383996548
20
9.5319626429
11
-6.2383996548
21
3.4508443247
0
LINE
5
2C4
100
AcDbEntity
8
0
100
AcDbLine
62
0
6
CONTINUOUS
10
-6.1383996548
20
9.4094881557
11
-6.1383996548
21
3.3283698375
0
LINE
5
2C5
100
AcDbEntity
8
0
100
AcDbLine
62
0
6
CONTINUOUS
10
-11.3067988598
20
-6.4672062574
11
-12.0272350010
21
-7.7467435551
0
LINE
5
2C6
100
AcDbEntity
8
0
100
AcDbLine
62
0
6
CONTINUOUS
10
-11.2067988598
20
-6.5896807445
11
-11.9272350010
21
-7.8692180422
0
LINE
5
2C7
100
AcDbEntity
8
0
100
AcDbLine
62
0
6
CONTINUOUS
10
-11.7560122523
20
-8.0391205989
11
-10.8078876403
21
-6.4268259211
0
LINE
5
2C8
100
AcDbEntity
8
0
100
AcDbLine
62
0
6
CONTINUOUS
10
15.6085342058
20
18.4509360433
11
11.5122340459
21
16.7786285058
0
LINE
5
2C9
100
AcDbEntity
8
0
100
AcDbLine
62
0
6
CONTINUOUS
10
7.4159338860
20
15.1063209683
11
6.0505018015
21
14.5488856541
0
LINE
5
2CA
100
AcDbEntity
8
0
100
AcDbLine
62
0
6
CONTINUOUS
10
1.9542016416
20
12.8765781166
11
0.4180890816
21
12.2494627900
0
LINE
5
2CB
100
AcDbEntity
8
0
100
AcDbLine
62
0
6
CONTINUOUS
10
-4.7022870949
20
10.1590779694
11
-6.2383996548
21
9.5319626429
0
LINE
5
2CC
100
AcDbEntity
8
0
100
AcDbLine
62
0
6
CONTINUOUS
10
-7.6038327159
20
8.9745269299
11
-8.6279077559
21
8.5564500456
0
LINE
5
2CD
100
AcDbEntity
8
0
100
AcDbLine
62
0
6
CONTINUOUS
10
-9.9933413053
20
7.9990141333
11
-11.0174163453
21
7.5809372489
0
LINE
5
2CE
100
AcDbEntity
8
0
100
AcDbLine
62
0
6
CONTINUOUS
10
-15.7964330357
20
5.6299118549
11
-16.8205080757
21
5.2118349705
0
LINE
5
2CF
100
AcDbEntity
8
0
100
AcDbLine
62
0
6
CONTINUOUS
10
15.7085342058
20
18.3284615562
11
11.6122340459
21
16.6561540187
0
LINE
5
2D0
100
AcDbEntity
8
0
100
AcDbLine
62
0
6
CONTINUOUS
10
7.5159338860
20
14.9838464812
11
6.1505018015
21
14.4264111669
0
LINE
5
2D1
100
AcDbEntity
8
0
100
AcDbLine
62
0
6
CONTINUOUS
10
2.0542016416
20
12.7541036294
11
0.5180890816
21
12.1269883029
0
LINE
5
2D2
100
AcDbEntity
8
0
100
AcDbLine
62
0
6
CONTINUOUS
10
-4.6022870949
20
10.0366034823
11
-6.1383996548
21
9.4094881557
0
LINE
5
2D3
100
AcDbEntity
8
0
100
AcDbLine
62
0
6
CONTINUOUS
10
-7.5038327159
20
8.8520524428
11
-8.5279077559
21
8.4339755584
0
LINE
5
2D4
100
AcDbEntity
8
0
100
AcDbLine
62
0
6
CONTINUOUS
10
-9.8933413053
20
7.8765396461
11
-10.9174163453
21
7.4584627617
0
LINE
5
2D5
100
AcDbEntity
8
0
100
AcDbLine
62
0
6
CONTINUOUS
10
-15.6964330357
20
5.5074373678
11
-16.7205080757
21
5.0893604834
0
LINE
5
2D6
100
AcDbEntity
8
0
100
AcDbLine
62
0
6
CONTINUOUS
10
12.6363090858
20
16.4273034995
11
15.8792146813
21
17.7512141650
0
LINE
5
2D7
100
AcDbEntity
8
0
100
AcDbLine
62
0
6
CONTINUOUS
10
15.7792146813
20
15.9329060790
11
12.6363090858
21
14.6498202426
0
LINE
5
2D8
100
AcDbEntity
8
0
100
AcDbLine
62
0
6
CONTINUOUS
10
15.8792146813
20
15.8104315919
11
12.6363090858
21
14.4865209264
0
LINE
5
2D9
100
AcDbEntity
8
0
100
AcDbLine
62
0
6
CONTINUOUS
10
12.6363090858
20
13.7102080422
11
15.5378556835
21
14.8947594804
0
LINE
5
2DA
100
AcDbEntity
8
0
100
AcDbLine
62
0
6
CONTINUOUS
10
8.2693304037
20
11.4437681921
11
5.3689108367
21
10.2596768623
0
LINE
5
2DB
100
AcDbEntity
8
0
100
AcDbLine
62
0
6
CONTINUOUS
10
8.3693304037
20
11.3212937050
11
5.2971052838
21
10.0670630519
0
LINE
5
2DC
100
AcDbEntity
8
0
100
AcDbLine
62
0
6
CONTINUOUS
10
5.1264267615
20
9.4798419141
11
8.5400089259
21
10.8734309971
0
LINE
5
2DD
100
AcDbEntity
8
0
100
AcDbLine
62
0
6
CONTINUOUS
10
-13.9896412210
20
0.1231138901
11
-12.6242079158
21
0.6805497027
0
LINE
5
2DE
100
AcDbEntity
8
0
100
AcDbLine
62
0
6
CONTINUOUS
10
-8.5279077559
20
2.3528572402
11
-7.5038327159
21
2.7709341246
0
LINE
5
2DF
100
AcDbEntity
8
0
100
AcDbLine
62
0
6
CONTINUOUS
10
-6.1383996548
20
3.3283698375
11
-5.1143246148
21
3.7464467219
0
LINE
5
2E0
100
AcDbEntity
8
0
100
AcDbLine
62
0
6
CONTINUOUS
10
-2.7248155372
20
4.7219597179
11
-1.3593824761
21
5.2793954308
0
LINE
5
2E1
100
AcDbEntity
8
0
100
AcDbLine
62
0
6
CONTINUOUS
10
1.0301266016
20
6.2549084269
11
2.0542016416
21
6.6729853112
0
LINE
5
2E2
100
AcDbEntity
8
0
100
AcDbLine
62
0
6
CONTINUOUS
10
3.4196337261
20
7.2304206255
11
4.4437087660
21
7.6484975098
0
LINE
5
2E3
100
AcDbEntity
8
0
100
AcDbLine
62
0
6
CONTINUOUS
10
9.2227269214
20
9.5995235019
11
10.2468019614
21
10.0176003863
0
LINE
5
2E4
100
AcDbEntity
8
0
100
AcDbLine
62
0
6
CONTINUOUS
10
11.6122340459
20
10.5750357005
11
12.6363090858
21
10.9931125849
0
LINE
5
2E5
100
AcDbEntity
8
0
100
AcDbLine
62
0
6
CONTINUOUS
10
16.9032877680
20
12.7350993373
11
18.0980432835
21
13.2228562340
0
LINE
5
2E6
100
AcDbEntity
8
0
100
AcDbLine
62
0
6
CONTINUOUS
10
-16.8205080757
20
5.2118349705
11
-16.7205080757
21
5.0893604834
0
LINE
5
2E7
100
AcDbEntity
8
0
100
AcDbLine
62
0
6
CONTINUOUS
10
-15.7964330357
20
5.6299118549
11
-15.6964330357
21
5.5074373678
0
LINE
5
2E8
100
AcDbEntity
8
0
100
AcDbLine
62
0
6
CONTINUOUS
10
-13.3069246905
20
1.1781447214
11
-15.6964330357
21
5.5074373678
0
LINE
5
2E9
100
AcDbEntity
8
0
100
AcDbLine
62
0
6
CONTINUOUS
10
-5.1143246148
20
3.7464467219
11
-5.1143246148
21
8.5337102330
0
LINE
5
2EA
100
AcDbEntity
8
0
100
AcDbLine
62
0
6
CONTINUOUS
10
6.0505018015
20
14.5488856541
11
3.3196337261
21
7.3528951126
0
LINE
5
2EB
100
AcDbEntity
8
0
100
AcDbLine
62
0
6
CONTINUOUS
10
6.1505018015
20
14.4264111669
11
3.4196337261
21
7.2304206255
0
LINE
5
2EC
100
AcDbEntity
8
0
100
AcDbLine
62
0
6
CONTINUOUS
10
0.4180890816
20
12.2494627900
11
-2.1305667547
21
5.7992666773
0
LINE
5
2ED
100
AcDbEntity
8
0
100
AcDbLine
62
0
6
CONTINUOUS
10
0.5180890816
20
12.1269883029
11
-2.0420994949
21
5.6476048692
0
LINE
5
2EE
100
AcDbEntity
8
0
100
AcDbLine
62
0
6
CONTINUOUS
10
-1.3593824761
20
5.2793954308
11
1.0301266016
21
11.0421719380
0
LINE
5
2EF
100
AcDbEntity
8
0
100
AcDbLine
62
0
6
CONTINUOUS
10
16.5619307235
20
15.5716073262
11
17.2446487190
21
16.1090967421
0
LINE
5
2F0
100
AcDbEntity
8
0
100
AcDbLine
62
0
6
CONTINUOUS
10
16.2912502480
20
16.2713292045
11
15.7792146813
21
15.9329060790
0
LINE
5
2F1
100
AcDbEntity
8
0
100
AcDbLine
62
0
6
CONTINUOUS
10
16.3912502480
20
16.1488547174
11
15.8792146813
21
15.8104315919
0
LINE
5
2F2
100
AcDbEntity
8
0
100
AcDbLine
62
0
6
CONTINUOUS
10
74.1987618621
20
33.0718421493
11
45.9663336987
21
21.5460016159
0
LINE
5
2F3
100
AcDbEntity
8
0
100
AcDbLine
62
0
6
CONTINUOUS
10
-73.1987618621
20
-27.1029449297
11
-44.9663336987
21
-15.5771043963
0
LINE
5
2F4
100
AcDbEntity
8
0
100
AcDbLine
62
0
6
CONTINUOUS
10
74.3317745639
20
33.0150015420
11
45.6663336987
21
21.3123843134
0
LINE
5
2F5
100
AcDbEntity
8
0
100
AcDbLine
62
0
6
CONTINUOUS
10
-73.9317745639
20
-27.5133389276
11
-45.2663336987
21
-15.8107216989
0
LINE
5
2F6
100
AcDbEntity
8
0
100
AcDbLine
62
0
6
CONTINUOUS
10
74.0487618621
20
32.4423810816
11
45.8163336987
21
20.9165405483
0
LINE
5
2F7
100
AcDbEntity
8
0
100
AcDbLine
62
0
6
CONTINUOUS
10
-73.3487618621
20
-27.7324059973
11
-45.1163336987
21
-16.2065654640
0
LINE
5
2F8
100
AcDbEntity
8
0
100
AcDbLine
62
0
6
CONTINUOUS
10
26.9163471846
20
6.9685532638
11
27.2140429629
21
7.0449525824
0
LINE
5
2F9
100
AcDbEntity
8
0
100
AcDbLine
62
0
6
CONTINUOUS
10
29.5360735768
20
8.0380520849
11
29.8337700365
21
8.1144516817
0
LINE
5
2FA
100
AcDbEntity
8
0
100
AcDbLine
62
0
6
CONTINUOUS
10
-8.6279077559
20
2.4753317273
11
-8.5279077559
21
2.3528572402
0
LINE
5
2FB
100
AcDbEntity
8
0
100
AcDbLine
62
0
6
CONTINUOUS
10
-11.0174163453
20
7.5809372489
11
-10.9174163453
21
7.4584627617
0
LINE
5
2FC
100
AcDbEntity
8
0
100
AcDbLine
62
0
6
CONTINUOUS
10
-9.9933413053
20
7.9990141333
11
-9.8933413053
21
7.8765396461
0
LINE
5
2FD
100
AcDbEntity
8
0
100
AcDbLine
62
0
6
CONTINUOUS
10
-6.2383996548
20
3.4508443247
11
-6.1383996548
21
3.3283698375
0
LINE
5
2FE
100
AcDbEntity
8
0
100
AcDbLine
62
0
6
CONTINUOUS
10
-8.6279077559
20
8.5564500456
11
-8.5279077559
21
8.4339755584
0
LINE
5
2FF
100
AcDbEntity
8
0
100
AcDbLine
62
0
6
CONTINUOUS
10
-7.6038327159
20
8.9745269299
11
-7.5038327159
21
8.8520524428
0
LINE
5
300
100
AcDbEntity
8
0
100
AcDbLine
62
0
6
CONTINUOUS
10
-4.8080818771
20
8.0081453470
11
-2.8248155372
21
4.8444342051
0
LINE
5
301
100
AcDbEntity
8
0
100
AcDbLine
62
0
6
CONTINUOUS
10
-5.1143246148
20
8.5337102330
11
-2.7248155372
21
4.7219597179
0
LINE
5
302
100
AcDbEntity
8
0
100
AcDbLine
62
0
6
CONTINUOUS
10
0.9301266016
20
10.8010020441
11
0.9301266016
21
6.3773829140
0
LINE
5
303
100
AcDbEntity
8
0
100
AcDbLine
62
0
6
CONTINUOUS
10
1.0301266016
20
11.0421719380
11
1.0301266016
21
6.2549084269
0
LINE
5
304
100
AcDbEntity
8
0
100
AcDbLine
62
0
6
CONTINUOUS
10
2.0542016416
20
6.6729853112
11
2.0542016416
21
12.7541036294
0
LINE
5
305
100
AcDbEntity
8
0
100
AcDbLine
62
0
6
CONTINUOUS
10
5.2971052838
20
10.0670630519
11
6.8332178437
21
14.1875869012
0
LINE
5
306
100
AcDbEntity
8
0
100
AcDbLine
62
0
6
CONTINUOUS
10
4.4437087660
20
7.6484975098
11
5.1264267615
21
9.4798419141
0
LINE
5
307
100
AcDbEntity
8
0
100
AcDbLine
62
0
6
CONTINUOUS
10
17.2446487190
20
16.1090967421
11
17.7566862390
21
16.8356771071
0
LINE
5
308
100
AcDbEntity
8
0
100
AcDbLine
62
0
6
CONTINUOUS
10
16.6326111990
20
16.6694601906
11
16.2912502480
21
16.2713292045
0
LINE
5
309
100
AcDbEntity
8
0
100
AcDbLine
62
0
6
CONTINUOUS
10
16.7326111990
20
16.5469857035
11
16.3912502480
21
16.1488547174
0
LINE
5
30A
100
AcDbEntity
8
0
100
AcDbLine
62
0
6
CONTINUOUS
10
27.1140429629
20
8.5214612964
11
26.8163471846
21
8.3547930338
0
LINE
5
30B
100
AcDbEntity
8
0
100
AcDbLine
62
0
6
CONTINUOUS
10
27.2140429629
20
8.3989868093
11
26.9163471846
21
8.2323185467
0
LINE
5
30C
100
AcDbEntity
8
0
100
AcDbLine
62
0
6
CONTINUOUS
10
29.7337700365
20
9.5909603957
11
29.4360735768
21
9.4242918549
0
LINE
5
30D
100
AcDbEntity
8
0
100
AcDbLine
62
0
6
CONTINUOUS
10
29.8337700365
20
9.4684859085
11
29.5360735768
21
9.3018173678
0
LINE
5
30E
100
AcDbEntity
8
0
100
AcDbLine
62
0
6
CONTINUOUS
10
32.1748786892
20
11.3548249467
11
31.8176432101
21
11.2089841730
0
LINE
5
30F
100
AcDbEntity
8
0
100
AcDbLine
62
0
6
CONTINUOUS
10
30.8650154931
20
10.8200755361
11
28.8406813388
21
9.9936445783
0
LINE
5
310
100
AcDbEntity
8
0
100
AcDbLine
62
0
6
CONTINUOUS
10
28.2452891009
20
9.7505767150
11
26.2209542653
21
8.9241454790
0
LINE
5
311
100
AcDbEntity
8
0
100
AcDbLine
62
0
6
CONTINUOUS
10
25.7446407474
20
8.7296912997
11
25.3874052684
21
8.5838505260
0
LINE
5
312
100
AcDbEntity
8
0
100
AcDbLine
62
0
6
CONTINUOUS
10
24.5538555901
20
8.2435552949
11
22.4104427157
21
7.3685106532
0
LINE
5
313
100
AcDbEntity
8
0
100
AcDbLine
62
0
6
CONTINUOUS
10
21.9341286869
20
7.1740562652
11
21.5768932078
21
7.0282154915
0
LINE
5
314
100
AcDbEntity
8
0
100
AcDbLine
62
0
6
CONTINUOUS
10
19.9097943623
20
6.3476252378
11
19.5525588833
21
6.2017844642
0
LINE
5
315
100
AcDbEntity
8
0
100
AcDbLine
62
0
6
CONTINUOUS
10
-10.9078876403
20
-6.3043514339
11
-11.3067988598
21
-6.4672062574
0
LINE
5
316
100
AcDbEntity
8
0
100
AcDbLine
62
0
6
CONTINUOUS
10
-12.7478746580
20
-7.0555229884
11
-13.1431303844
21
-7.2168854630
0
LINE
5
317
100
AcDbEntity
8
0
100
AcDbLine
62
0
6
CONTINUOUS
10
-14.5318029854
20
-7.7838086783
11
-14.8712026712
21
-7.9223680199
0
LINE
5
318
100
AcDbEntity
8
0
100
AcDbLine
62
0
6
CONTINUOUS
10
-16.0919633387
20
-8.4207414754
11
-16.4766769378
21
-8.5778001446
0
LINE
5
319
100
AcDbEntity
8
0
100
AcDbLine
62
0
6
CONTINUOUS
10
-17.5191264388
20
-9.0033783713
11
-19.5584266051
21
-9.8359191779
0
LINE
5
31A
100
AcDbEntity
8
0
100
AcDbLine
62
0
6
CONTINUOUS
10
-19.9222196286
20
-9.9844370578
11
-20.2615985298
21
-10.1229879141
0
LINE
5
31B
100
AcDbEntity
8
0
100
AcDbLine
62
0
6
CONTINUOUS
10
-21.8181233086
20
-10.7584364940
11
-22.1469003268
21
-10.8926591497
0
LINE
5
31C
100
AcDbEntity
8
0
100
AcDbLine
62
0
6
CONTINUOUS
10
-23.4097454988
20
-11.4082135323
11
-23.8120896431
21
-11.5724698414
0
LINE
5
31D
100
AcDbEntity
8
0
100
AcDbLine
62
0
6
CONTINUOUS
10
-24.3926635475
20
-11.8094881453
11
-24.7319411238
21
-11.9479976358
0
LINE
5
31E
100
AcDbEntity
8
0
100
AcDbLine
62
0
6
CONTINUOUS
10
-26.2256426877
20
-12.5577987458
11
-28.0551291474
21
-13.3046834654
0
LINE
5
31F
100
AcDbEntity
8
0
100
AcDbLine
62
0
6
CONTINUOUS
10
-29.5695747063
20
-13.9229532758
11
-30.5981867649
21
-14.3428823902
0
LINE
5
320
100
AcDbEntity
8
0
100
AcDbLine
62
0
6
CONTINUOUS
10
-31.8363744616
20
-14.8483704007
11
-32.2212101702
21
-15.0054789209
0
LINE
5
321
100
AcDbEntity
8
0
100
AcDbLine
62
0
6
CONTINUOUS
10
-33.4664256631
20
-15.5138360171
11
-33.9492019167
21
-15.7109285973
0
LINE
5
322
100
AcDbEntity
8
0
100
AcDbLine
62
0
6
CONTINUOUS
10
-35.3868413261
20
-16.2978424285
11
-35.8730669589
21
-16.4963432119
0
LINE
5
323
100
AcDbEntity
8
0
100
AcDbLine
62
0
6
CONTINUOUS
10
32.2748786892
20
11.2323504595
11
31.9176432101
21
11.0865096859
0
LINE
5
324
100
AcDbEntity
8
0
100
AcDbLine
62
0
6
CONTINUOUS
10
30.9650154931
20
10.6976010490
11
28.9406813388
21
9.8711700912
0
LINE
5
325
100
AcDbEntity
8
0
100
AcDbLine
62
0
6
CONTINUOUS
10
28.3452891009
20
9.6281022279
11
26.3209542653
21
8.8016709919
0
LINE
5
326
100
AcDbEntity
8
0
100
AcDbLine
62
0
6
CONTINUOUS
10
25.8446407474
20
8.6072168125
11
25.4874052684
21
8.4613760389
0
LINE
5
327
100
AcDbEntity
8
0
100
AcDbLine
62
0
6
CONTINUOUS
10
24.6538555901
20
8.1210808077
11
22.5104427157
21
7.2460361660
0
LINE
5
328
100
AcDbEntity
8
0
100
AcDbLine
62
0
6
CONTINUOUS
10
22.0341286869
20
7.0515817780
11
21.6768932078
21
6.9057410044
0
LINE
5
329
100
AcDbEntity
8
0
100
AcDbLine
62
0
6
CONTINUOUS
10
20.0097943623
20
6.2251507507
11
19.6525588833
21
6.0793099771
0
LINE
5
32A
100
AcDbEntity
8
0
100
AcDbLine
62
0
6
CONTINUOUS
10
-10.8078876403
20
-6.4268259211
11
-11.2067988598
21
-6.5896807445
0
LINE
5
32B
100
AcDbEntity
8
0
100
AcDbLine
62
0
6
CONTINUOUS
10
-12.6478746580
20
-7.1779974755
11
-13.0431303844
21
-7.3393599501
0
LINE
5
32C
100
AcDbEntity
8
0
100
AcDbLine
62
0
6
CONTINUOUS
10
-14.4318029854
20
-7.9062831655
11
-14.7712026712
21
-8.0448425070
0
LINE
5
32D
100
AcDbEntity
8
0
100
AcDbLine
62
0
6
CONTINUOUS
10
-15.9919633387
20
-8.5432159626
11
-16.3766769378
21
-8.7002746317
0
LINE
5
32E
100
AcDbEntity
8
0
100
AcDbLine
62
0
6
CONTINUOUS
10
-17.4191264388
20
-9.1258528584
11
-19.4584266051
21
-9.9583936651
0
LINE
5
32F
100
AcDbEntity
8
0
100
AcDbLine
62
0
6
CONTINUOUS
10
-19.8222196286
20
-10.1069115449
11
-20.1615985298
21
-10.2454624012
0
LINE
5
330
100
AcDbEntity
8
0
100
AcDbLine
62
0
6
CONTINUOUS
10
-21.7181233086
20
-10.8809109812
11
-22.0469003268
21
-11.0151336368
0
LINE
5
331
100
AcDbEntity
8
0
100
AcDbLine
62
0
6
CONTINUOUS
10
-23.3097454988
20
-11.5306880194
11
-23.7120896431
21
-11.6949443285
0
LINE
5
332
100
AcDbEntity
8
0
100
AcDbLine
62
0
6
CONTINUOUS
10
-24.2926635475
20
-11.9319626325
11
-24.6319411238
21
-12.0704721230
0
LINE
5
333
100
AcDbEntity
8
0
100
AcDbLine
62
0
6
CONTINUOUS
10
-26.1256426877
20
-12.6802732329
11
-27.9551291474
21
-13.4271579525
0
LINE
5
334
100
AcDbEntity
8
0
100
AcDbLine
62
0
6
CONTINUOUS
10
-29.4695747063
20
-14.0454277629
11
-30.4981867649
21
-14.4653568774
0
LINE
5
335
100
AcDbEntity
8
0
100
AcDbLine
62
0
6
CONTINUOUS
10
-31.7363744616
20
-14.9708448878
11
-32.1212101702
21
-15.1279534080
0
LINE
5
336
100
AcDbEntity
8
0
100
AcDbLine
62
0
6
CONTINUOUS
10
-33.3664256631
20
-15.6363105042
11
-33.8492019167
21
-15.8334030845
0
LINE
5
337
100
AcDbEntity
8
0
100
AcDbLine
62
0
6
CONTINUOUS
10
-35.2868413261
20
-16.4203169156
11
-35.7730669589
21
-16.6188176990
0
LINE
5
338
100
AcDbEntity
8
0
100
AcDbLine
62
0
6
CONTINUOUS
10
22.5104427157
20
7.0203638159
11
24.2966201111
21
7.7495676840
0
LINE
5
339
100
AcDbEntity
8
0
100
AcDbLine
62
0
6
CONTINUOUS
10
26.6186507249
20
8.6975327126
11
28.3452891009
21
9.4024298778
0
LINE
5
33A
100
AcDbEntity
8
0
100
AcDbLine
62
0
6
CONTINUOUS
10
29.2383777985
20
9.7670318118
11
30.9650154931
21
10.4719286989
0
LINE
5
33B
100
AcDbEntity
8
0
100
AcDbLine
62
0
6
CONTINUOUS
10
-30.1587870790
20
-14.5637829593
11
-29.4888856625
21
-14.2902968513
0
LINE
5
33C
100
AcDbEntity
8
0
100
AcDbLine
62
0
6
CONTINUOUS
10
-27.6157502461
20
-13.5342156870
11
-26.1256426877
21
-12.9258818236
0
LINE
5
33D
100
AcDbEntity
8
0
100
AcDbLine
62
0
6
CONTINUOUS
10
-19.4584266051
20
-10.2040022558
11
-18.6084053508
21
-9.8569825318
0
LINE
5
33E
100
AcDbEntity
8
0
100
AcDbLine
62
0
6
CONTINUOUS
10
-18.2691485591
20
-9.7184815266
11
-17.4191264388
21
-9.3714614491
0
LINE
5
33F
100
AcDbEntity
8
0
100
AcDbLine
62
0
6
CONTINUOUS
10
30.0910055156
20
9.7368011693
11
29.7337700365
21
9.5909603957
0
LINE
5
340
100
AcDbEntity
8
0
100
AcDbLine
62
0
6
CONTINUOUS
10
27.4712784420
20
8.6673020700
11
27.1140429629
21
8.5214612964
0
LINE
5
341
100
AcDbEntity
8
0
100
AcDbLine
62
0
6
CONTINUOUS
10
30.1910055156
20
9.6143266822
11
29.8337700365
21
9.4684859085
0
LINE
5
342
100
AcDbEntity
8
0
100
AcDbLine
62
0
6
CONTINUOUS
10
27.5712784420
20
8.5448275829
11
27.2140429629
21
8.3989868093
0
LINE
5
343
100
AcDbEntity
8
0
100
AcDbLine
62
0
6
CONTINUOUS
10
-26.3410717497
20
-13.4788986664
11
-27.6157502461
21
-13.9992839834
0
LINE
5
344
100
AcDbEntity
8
0
100
AcDbLine
62
0
6
CONTINUOUS
10
-26.2410717497
20
-13.6013731535
11
-27.6157502461
21
-14.1625832996
0
LINE
5
345
100
AcDbEntity
8
0
100
AcDbLine
62
0
6
CONTINUOUS
10
27.2140429629
20
8.1733144592
11
27.5712784420
21
8.3191552328
0
LINE
5
346
100
AcDbEntity
8
0
100
AcDbLine
62
0
6
CONTINUOUS
10
29.8337700365
20
9.2428135585
11
30.1910055156
21
9.3886543321
0
LINE
5
347
100
AcDbEntity
8
0
100
AcDbLine
62
0
6
CONTINUOUS
10
-15.9240514052
20
-9.5603352701
11
-16.5313264662
21
-9.8082542756
0
LINE
5
348
100
AcDbEntity
8
0
100
AcDbLine
62
0
6
CONTINUOUS
10
-31.6684426095
20
-15.9879560636
11
-32.2757132328
21
-16.2358732574
0
LINE
5
349
100
AcDbEntity
8
0
100
AcDbLine
62
0
6
CONTINUOUS
10
26.3209542653
20
7.6281746451
11
26.7377294451
21
7.7983223998
0
LINE
5
34A
100
AcDbEntity
8
0
100
AcDbLine
62
0
6
CONTINUOUS
10
28.9406813388
20
8.6976737444
11
29.3574558373
21
8.8678212209
0
LINE
5
34B
100
AcDbEntity
8
0
100
AcDbLine
62
0
6
CONTINUOUS
10
-27.6157502461
20
-14.4081918903
11
-26.2410717497
21
-13.8469817442
0
LINE
5
34C
100
AcDbEntity
8
0
100
AcDbLine
62
0
6
CONTINUOUS
10
-15.8240514052
20
-9.6828097572
11
-16.6041012710
21
-10.0012637814
0
LINE
5
34D
100
AcDbEntity
8
0
100
AcDbLine
62
0
6
CONTINUOUS
10
-31.5684426095
20
-16.1104305508
11
-32.3484916093
21
-16.4288842214
0
LINE
5
34E
100
AcDbEntity
8
0
100
AcDbLine
62
0
6
CONTINUOUS
10
29.1979168179
20
8.5597787118
11
28.8406813388
21
8.4139379381
0
LINE
5
34F
100
AcDbEntity
8
0
100
AcDbLine
62
0
6
CONTINUOUS
10
26.5781897443
20
7.4902796125
11
26.2209542653
21
7.3444388389
0
LINE
5
350
100
AcDbEntity
8
0
100
AcDbLine
62
0
6
CONTINUOUS
10
-32.4534599504
20
-16.7173459579
11
-31.4461078610
21
-16.3060961895
0
LINE
5
351
100
AcDbEntity
8
0
100
AcDbLine
62
0
6
CONTINUOUS
10
-16.7090488275
20
-10.2897170327
11
-15.7015954131
21
-9.8784258985
0
LINE
5
352
100
AcDbEntity
8
0
100
AcDbLine
62
0
6
CONTINUOUS
10
29.2979168179
20
8.4373042246
11
28.9406813388
21
8.2914634510
0
LINE
5
353
100
AcDbEntity
8
0
100
AcDbLine
62
0
6
CONTINUOUS
10
26.6781897443
20
7.3678051254
11
26.3209542653
21
7.2219643517
0
LINE
5
354
100
AcDbEntity
8
0
100
AcDbLine
62
0
6
CONTINUOUS
10
-13.2584970925
20
-9.0689847991
11
-14.4318029854
21
-9.5479849240
0
LINE
5
355
100
AcDbEntity
8
0
100
AcDbLine
62
0
6
CONTINUOUS
10
-26.2011272406
20
-14.3527914311
11
-27.6157502461
21
-14.9303088548
0
LINE
5
356
100
AcDbEntity
8
0
100
AcDbLine
62
0
6
CONTINUOUS
10
-29.5888856660
20
-15.7444611840
11
-30.1587870790
21
-15.9771224616
0
LINE
5
357
100
AcDbEntity
8
0
100
AcDbLine
62
0
6
CONTINUOUS
10
30.0910055156
20
8.6084393241
11
29.7337700365
21
8.4625985505
0
LINE
5
358
100
AcDbEntity
8
0
100
AcDbLine
62
0
6
CONTINUOUS
10
27.4712784420
20
7.5389402248
11
27.1140429629
21
7.3930994512
0
LINE
5
359
100
AcDbEntity
8
0
100
AcDbLine
62
0
6
CONTINUOUS
10
-13.1584970925
20
-9.1914592862
11
-14.4318029854
21
-9.7112842402
0
LINE
5
35A
100
AcDbEntity
8
0
100
AcDbLine
62
0
6
CONTINUOUS
10
-26.1011272406
20
-14.4752659183
11
-27.6157502461
21
-15.0936081710
0
LINE
5
35B
100
AcDbEntity
8
0
100
AcDbLine
62
0
6
CONTINUOUS
10
-29.4888856626
20
-15.8669356698
11
-30.1587870790
21
-16.1404217778
0
LINE
5
35C
100
AcDbEntity
8
0
100
AcDbLine
62
0
6
CONTINUOUS
10
30.1910055156
20
8.4859648370
11
29.8337700365
21
8.3401240633
0
LINE
5
35D
100
AcDbEntity
8
0
100
AcDbLine
62
0
6
CONTINUOUS
10
27.5712784420
20
7.4164657377
11
27.2140429629
21
7.2706249641
0
LINE
5
35E
100
AcDbEntity
8
0
100
AcDbLine
62
0
6
CONTINUOUS
10
-35.7730669589
20
-18.6694273645
11
-35.4442804144
21
-18.5352008197
0
LINE
5
35F
100
AcDbEntity
8
0
100
AcDbLine
62
0
6
CONTINUOUS
10
-34.7376495843
20
-18.2467199913
11
-34.4018395737
21
-18.1096261286
0
LINE
5
360
100
AcDbEntity
8
0
100
AcDbLine
62
0
6
CONTINUOUS
10
-33.6953447095
20
-17.8212008081
11
-33.3664256631
21
-17.6869201697
0
LINE
5
361
100
AcDbEntity
8
0
100
AcDbLine
62
0
6
CONTINUOUS
10
-33.0655970167
20
-17.5641073890
11
-32.7158396670
21
-17.4213195490
0
LINE
5
362
100
AcDbEntity
8
0
100
AcDbLine
62
0
6
CONTINUOUS
10
-31.1977837367
20
-16.8015758106
11
-30.8269637831
21
-16.6501891985
0
LINE
5
363
100
AcDbEntity
8
0
100
AcDbLine
62
0
6
CONTINUOUS
10
-30.4981867649
20
-16.5159665428
11
-29.4802529239
21
-16.1003967925
0
LINE
5
364
100
AcDbEntity
8
0
100
AcDbLine
62
0
6
CONTINUOUS
10
-27.9551291474
20
-15.4777676180
11
-26.1011272406
21
-14.7208745090
0
LINE
5
365
100
AcDbEntity
8
0
100
AcDbLine
62
0
6
CONTINUOUS
10
-24.6319411238
20
-14.1210817884
11
-24.2926635475
21
-13.9825722979
0
LINE
5
366
100
AcDbEntity
8
0
100
AcDbLine
62
0
6
CONTINUOUS
10
-23.7120896431
20
-13.7455539939
11
-23.3831506781
21
-13.6112652238
0
LINE
5
367
100
AcDbEntity
8
0
100
AcDbLine
62
0
6
CONTINUOUS
10
-22.0993840644
20
-13.0871696984
11
-21.7181233086
21
-12.9315206466
0
LINE
5
368
100
AcDbEntity
8
0
100
AcDbLine
62
0
6
CONTINUOUS
10
-20.1615985298
20
-12.2960720666
11
-19.8222196286
21
-12.1575212104
0
LINE
5
369
100
AcDbEntity
8
0
100
AcDbLine
62
0
6
CONTINUOUS
10
-18.6084053508
20
-11.6619836066
11
-18.2691485591
21
-11.5234826013
0
LINE
5
36A
100
AcDbEntity
8
0
100
AcDbLine
62
0
6
CONTINUOUS
10
-17.3211858938
20
-11.1364784638
11
-16.9714484627
21
-10.9936987554
0
LINE
5
36B
100
AcDbEntity
8
0
100
AcDbLine
62
0
6
CONTINUOUS
10
-15.4532513703
20
-10.3738973879
11
-15.0823690629
21
-10.2224853199
0
LINE
5
36C
100
AcDbEntity
8
0
100
AcDbLine
62
0
6
CONTINUOUS
10
-14.7712026712
20
-10.0954521725
11
-13.1584970925
21
-9.4370678769
0
LINE
5
36D
100
AcDbEntity
8
0
100
AcDbLine
62
0
6
CONTINUOUS
10
-12.0952084222
20
-9.0029820950
11
-11.7560122523
21
-8.8645058385
0
LINE
5
36E
100
AcDbEntity
8
0
100
AcDbLine
62
0
6
CONTINUOUS
10
20.6051868558
20
4.3468983747
11
21.0815007995
21
4.5413527280
0
LINE
5
36F
100
AcDbEntity
8
0
100
AcDbLine
62
0
6
CONTINUOUS
10
23.1058352944
20
5.3677838249
11
23.4630707735
21
5.5136245985
0
LINE
5
370
100
AcDbEntity
8
0
100
AcDbLine
62
0
6
CONTINUOUS
10
25.4874052684
20
6.3400556953
11
25.8446407474
21
6.4858964690
0
LINE
5
371
100
AcDbEntity
8
0
100
AcDbLine
62
0
6
CONTINUOUS
10
27.2140429629
20
7.0449525824
11
27.5712784420
21
7.1907933560
0
LINE
5
372
100
AcDbEntity
8
0
100
AcDbLine
62
0
6
CONTINUOUS
10
29.8337700365
20
8.1144516817
11
30.1910055156
21
8.2602924553
0
LINE
5
373
100
AcDbEntity
8
0
100
AcDbLine
62
0
6
CONTINUOUS
10
31.9176432101
20
8.9651893423
11
32.2748786892
21
9.1110301160
0
LINE
5
374
100
AcDbEntity
8
0
100
AcDbLine
62
0
6
CONTINUOUS
10
27.8689749017
20
8.6212271836
11
27.5712784420
21
8.5448275829
0
LINE
5
375
100
AcDbEntity
8
0
100
AcDbLine
62
0
6
CONTINUOUS
10
27.7689749017
20
8.7437016708
11
27.4712784420
21
8.6673020700
0
LINE
5
376
100
AcDbEntity
8
0
100
AcDbLine
62
0
6
CONTINUOUS
10
30.4887019752
20
9.6907262829
11
30.1910055156
21
9.6143266822
0
LINE
5
377
100
AcDbEntity
8
0
100
AcDbLine
62
0
6
CONTINUOUS
10
30.3887019752
20
9.8132007700
11
30.0910055156
21
9.7368011693
0
LINE
5
378
100
AcDbEntity
8
0
100
AcDbLine
62
0
6
CONTINUOUS
10
27.2140429629
20
7.2706249641
11
26.9758862040
21
7.2185323444
0
LINE
5
379
100
AcDbEntity
8
0
100
AcDbLine
62
0
6
CONTINUOUS
10
27.1140429629
20
7.3930994512
11
26.8758862040
21
7.3410068315
0
LINE
5
37A
100
AcDbEntity
8
0
100
AcDbLine
62
0
6
CONTINUOUS
10
29.8337700365
20
8.3401240633
11
29.5956132776
21
8.2880314437
0
LINE
5
37B
100
AcDbEntity
8
0
100
AcDbLine
62
0
6
CONTINUOUS
10
29.7337700365
20
8.4625985505
11
29.4956132776
21
8.4105059308
0
LINE
5
37C
100
AcDbEntity
8
0
100
AcDbLine
62
0
6
CONTINUOUS
10
27.5712784420
20
8.3191552328
11
27.8094358823
21
8.3712481307
0
LINE
5
37D
100
AcDbEntity
8
0
100
AcDbLine
62
0
6
CONTINUOUS
10
30.1910055156
20
9.3886543321
11
30.4291622745
21
9.4407469518
0
LINE
5
37E
100
AcDbEntity
8
0
100
AcDbLine
62
0
6
CONTINUOUS
10
-6.2383996548
20
9.5319626429
11
-6.1383996548
21
9.4094881557
0
LINE
5
37F
100
AcDbEntity
8
0
100
AcDbLine
62
0
6
CONTINUOUS
10
-4.7022870949
20
10.1590779694
11
-4.6022870949
21
10.0366034823
0
LINE
5
380
100
AcDbEntity
8
0
100
AcDbLine
62
0
6
CONTINUOUS
10
0.9301266016
20
6.3773829140
11
1.0301266016
21
6.2549084269
0
LINE
5
381
100
AcDbEntity
8
0
100
AcDbLine
62
0
6
CONTINUOUS
10
-2.0420994949
20
5.6476048692
11
-4.6022870949
21
10.0366034823
0
LINE
5
382
100
AcDbEntity
8
0
100
AcDbLine
62
0
6
CONTINUOUS
10
11.5122340459
20
16.7786285058
11
11.5122340459
21
10.6975101876
0
LINE
5
383
100
AcDbEntity
8
0
100
AcDbLine
62
0
6
CONTINUOUS
10
11.6122340459
20
16.6561540187
11
11.6122340459
21
10.5750357005
0
LINE
5
384
100
AcDbEntity
8
0
100
AcDbLine
62
0
6
CONTINUOUS
10
12.6363090858
20
10.9931125849
11
12.6363090858
21
13.7102080422
0
LINE
5
385
100
AcDbEntity
8
0
100
AcDbLine
62
0
6
CONTINUOUS
10
12.6363090858
20
14.4865209264
11
12.6363090858
21
16.4273034995
0
LINE
5
386
100
AcDbEntity
8
0
100
AcDbLine
62
0
6
CONTINUOUS
10
16.8032877680
20
17.1272950502
11
16.6326111990
21
16.6694601906
0
LINE
5
387
100
AcDbEntity
8
0
100
AcDbLine
62
0
6
CONTINUOUS
10
16.9032877680
20
17.0048205631
11
16.7326111990
21
16.5469857035
0
LINE
5
388
100
AcDbEntity
8
0
100
AcDbLine
62
0
6
CONTINUOUS
10
17.7566862390
20
16.8356771071
11
17.9273628080
21
17.2935119668
0
LINE
5
389
100
AcDbEntity
8
0
100
AcDbLine
62
0
6
CONTINUOUS
10
-8.3396137716
20
-24.6305838221
11
-6.6075629641
21
-22.5092634786
0
LINE
5
38A
100
AcDbEntity
8
0
100
AcDbLine
62
0
6
CONTINUOUS
10
-8.2816512137
20
-24.7377914559
11
-6.5496004062
21
-22.6164711124
0
LINE
5
38B
100
AcDbEntity
8
0
100
AcDbLine
62
0
6
CONTINUOUS
10
26.8163471846
20
8.3547930338
11
26.6186507249
21
8.1841640973
0
LINE
5
38C
100
AcDbEntity
8
0
100
AcDbLine
62
0
6
CONTINUOUS
10
26.9163471846
20
8.2323185467
11
26.6186507249
21
7.9753810659
0
LINE
5
38D
100
AcDbEntity
8
0
100
AcDbLine
62
0
6
CONTINUOUS
10
29.4360735768
20
9.4242918549
11
29.2383777985
21
9.2536633007
0
LINE
5
38E
100
AcDbEntity
8
0
100
AcDbLine
62
0
6
CONTINUOUS
10
29.5360735768
20
9.3018173678
11
29.2383777985
21
9.0448801652
0
LINE
5
38F
100
AcDbEntity
8
0
100
AcDbLine
62
0
6
CONTINUOUS
10
27.8689749017
20
7.3574619007
11
28.1666713613
21
7.6143993934
0
LINE
5
390
100
AcDbEntity
8
0
100
AcDbLine
62
0
6
CONTINUOUS
10
26.9758862040
20
8.0309528995
11
27.2140429629
21
8.1733144592
0
LINE
5
391
100
AcDbEntity
8
0
100
AcDbLine
62
0
6
CONTINUOUS
10
29.5956132776
20
9.1004519988
11
29.8337700365
21
9.2428135585
0
LINE
5
392
100
AcDbEntity
8
0
100
AcDbLine
62
0
6
CONTINUOUS
10
27.7094358823
20
7.6813020627
11
27.4712784420
21
7.5389402248
0
LINE
5
393
100
AcDbEntity
8
0
100
AcDbLine
62
0
6
CONTINUOUS
10
27.8094358823
20
7.5588275756
11
27.5712784420
21
7.4164657377
0
LINE
5
394
100
AcDbEntity
8
0
100
AcDbLine
62
0
6
CONTINUOUS
10
30.3291622745
20
8.7508008838
11
30.0910055156
21
8.6084393241
0
LINE
5
395
100
AcDbEntity
8
0
100
AcDbLine
62
0
6
CONTINUOUS
10
30.4291622745
20
8.6283263967
11
30.1910055156
21
8.4859648370
0
LINE
5
396
100
AcDbEntity
8
0
100
AcDbLine
62
0
6
CONTINUOUS
10
27.5712784420
20
7.1907933560
11
27.8689749017
21
7.3574619007
0
LINE
5
397
100
AcDbEntity
8
0
100
AcDbLine
62
0
6
CONTINUOUS
10
30.1910055156
20
8.2602924553
11
30.4887019752
21
8.4269610000
0
LINE
5
398
100
AcDbEntity
8
0
100
AcDbLine
62
0
6
CONTINUOUS
10
26.6186507249
20
6.9824226149
11
26.9163471846
21
6.9685532638
0
LINE
5
399
100
AcDbEntity
8
0
100
AcDbLine
62
0
6
CONTINUOUS
10
29.2383777985
20
8.0519217142
11
29.5360735768
21
8.0380520849
0
LINE
5
39A
100
AcDbEntity
8
0
100
AcDbLine
62
0
6
CONTINUOUS
10
28.1666713613
20
8.6073578443
11
27.8689749017
21
8.6212271836
0
LINE
5
39B
100
AcDbEntity
8
0
100
AcDbLine
62
0
6
CONTINUOUS
10
28.0666713613
20
8.7298323314
11
27.7689749017
21
8.7437016708
0
LINE
5
39C
100
AcDbEntity
8
0
100
AcDbLine
62
0
6
CONTINUOUS
10
30.7863977535
20
9.6768566654
11
30.4887019752
21
9.6907262829
0
LINE
5
39D
100
AcDbEntity
8
0
100
AcDbLine
62
0
6
CONTINUOUS
10
30.6863977535
20
9.7993311525
11
30.3887019752
21
9.8132007700
0
LINE
5
39E
100
AcDbEntity
8
0
100
AcDbLine
62
0
6
CONTINUOUS
10
26.9758862040
20
7.2185323444
11
26.7972684645
21
7.2358808976
0
LINE
5
39F
100
AcDbEntity
8
0
100
AcDbLine
62
0
6
CONTINUOUS
10
26.8758862040
20
7.3410068315
11
26.6972684645
21
7.3583553848
0
LINE
5
3A0
100
AcDbEntity
8
0
100
AcDbLine
62
0
6
CONTINUOUS
10
27.8094358823
20
8.3712481307
11
27.9880536218
21
8.3538995774
0
LINE
5
3A1
100
AcDbEntity
8
0
100
AcDbLine
62
0
6
CONTINUOUS
10
29.5956132776
20
8.2880314437
11
29.4169955381
21
8.3053799969
0
LINE
5
3A2
100
AcDbEntity
8
0
100
AcDbLine
62
0
6
CONTINUOUS
10
29.4956132776
20
8.4105059308
11
29.3169955381
21
8.4278544840
0
LINE
5
3A3
100
AcDbEntity
8
0
100
AcDbLine
62
0
6
CONTINUOUS
10
30.4291622745
20
9.4407469518
11
30.6077800140
21
9.4233983985
0
LINE
5
3A4
100
AcDbEntity
8
0
100
AcDbLine
62
0
6
CONTINUOUS
10
3.3196337261
20
7.3528951126
11
3.4196337261
21
7.2304206255
0
LINE
5
3A5
100
AcDbEntity
8
0
100
AcDbLine
62
0
6
CONTINUOUS
10
0.4180890816
20
12.2494627900
11
0.5180890816
21
12.1269883029
0
LINE
5
3A6
100
AcDbEntity
8
0
100
AcDbLine
62
0
6
CONTINUOUS
10
1.9542016416
20
12.8765781166
11
2.0542016416
21
12.7541036294
0
LINE
5
3A7
100
AcDbEntity
8
0
100
AcDbLine
62
0
6
CONTINUOUS
10
8.5133133479
20
10.8591241878
11
9.1227269214
21
9.7219979890
0
LINE
5
3A8
100
AcDbEntity
8
0
100
AcDbLine
62
0
6
CONTINUOUS
10
8.5400089259
20
10.8734309971
11
9.2227269214
21
9.5995235019
0
LINE
5
3A9
100
AcDbEntity
8
0
100
AcDbLine
62
0
6
CONTINUOUS
10
6.8191206202
20
14.1497719993
11
8.2693304037
21
11.4437681921
0
LINE
5
3AA
100
AcDbEntity
8
0
100
AcDbLine
62
0
6
CONTINUOUS
10
6.8332178437
20
14.1875869012
11
8.3693304037
21
11.3212937050
0
LINE
5
3AB
100
AcDbEntity
8
0
100
AcDbLine
62
0
6
CONTINUOUS
10
16.8032877680
20
17.5154518548
11
16.8032877680
21
17.1272950502
0
LINE
5
3AC
100
AcDbEntity
8
0
100
AcDbLine
62
0
6
CONTINUOUS
10
16.9032877680
20
17.3929773677
11
16.9032877680
21
17.0048205631
0
LINE
5
3AD
100
AcDbEntity
8
0
100
AcDbLine
62
0
6
CONTINUOUS
10
17.9273628080
20
17.2935119668
11
17.9273628080
21
17.8110542521
0
LINE
5
3AE
100
AcDbEntity
8
0
100
AcDbLine
62
0
6
CONTINUOUS
10
21.0815007995
20
4.5413527280
11
22.0341286869
21
7.0515817780
0
LINE
5
3AF
100
AcDbEntity
8
0
100
AcDbLine
62
0
6
CONTINUOUS
10
21.5768932078
20
7.0282154915
11
20.7565653311
21
4.8721569141
0
LINE
5
3B0
100
AcDbEntity
8
0
100
AcDbLine
62
0
6
CONTINUOUS
10
21.6768932078
20
6.9057410044
11
20.8433437851
21
4.7149323857
0
LINE
5
3B1
100
AcDbEntity
8
0
100
AcDbLine
62
0
6
CONTINUOUS
10
24.0940407572
20
7.6668650092
11
23.0058352944
21
5.4902583120
0
LINE
5
3B2
100
AcDbEntity
8
0
100
AcDbLine
62
0
6
CONTINUOUS
10
24.2966201111
20
7.7495676840
11
23.1058352944
21
5.3677838249
0
LINE
5
3B3
100
AcDbEntity
8
0
100
AcDbLine
62
0
6
CONTINUOUS
10
23.4630707735
20
5.5136245985
11
24.6538555901
21
7.8954084577
0
LINE
5
3B4
100
AcDbEntity
8
0
100
AcDbLine
62
0
6
CONTINUOUS
10
28.1666713613
20
7.6143993934
11
28.3452891009
21
7.8678576760
0
LINE
5
3B5
100
AcDbEntity
8
0
100
AcDbLine
62
0
6
CONTINUOUS
10
25.3874052684
20
8.5838505260
11
25.0301694486
21
8.1220683232
0
LINE
5
3B6
100
AcDbEntity
8
0
100
AcDbLine
62
0
6
CONTINUOUS
10
25.4874052684
20
8.4613760389
11
25.1301694486
21
7.9995938361
0
LINE
5
3B7
100
AcDbEntity
8
0
100
AcDbLine
62
0
6
CONTINUOUS
10
25.1301694486
20
7.6385179495
11
25.4874052684
21
8.1003002788
0
LINE
5
3B8
100
AcDbEntity
8
0
100
AcDbLine
62
0
6
CONTINUOUS
10
31.8176432101
20
11.2089841730
11
31.4604077310
21
10.7472021093
0
LINE
5
3B9
100
AcDbEntity
8
0
100
AcDbLine
62
0
6
CONTINUOUS
10
31.9176432101
20
11.0865096859
11
31.5604077310
21
10.6247276222
0
LINE
5
3BA
100
AcDbEntity
8
0
100
AcDbLine
62
0
6
CONTINUOUS
10
31.5604077310
20
10.2636517356
11
31.9176432101
21
10.7254339258
0
LINE
5
3BB
100
AcDbEntity
8
0
100
AcDbLine
62
0
6
CONTINUOUS
10
26.7377294451
20
7.7983223998
11
26.9758862040
21
8.0309528995
0
LINE
5
3BC
100
AcDbEntity
8
0
100
AcDbLine
62
0
6
CONTINUOUS
10
29.3574558373
20
8.8678212209
11
29.5956132776
21
9.1004519988
0
LINE
5
3BD
100
AcDbEntity
8
0
100
AcDbLine
62
0
6
CONTINUOUS
10
27.8880536218
20
7.8444913895
11
27.7094358823
21
7.6813020627
0
LINE
5
3BE
100
AcDbEntity
8
0
100
AcDbLine
62
0
6
CONTINUOUS
10
27.9880536218
20
7.7220169024
11
27.8094358823
21
7.5588275756
0
LINE
5
3BF
100
AcDbEntity
8
0
100
AcDbLine
62
0
6
CONTINUOUS
10
30.5077800140
20
8.9139902106
11
30.3291622745
21
8.7508008838
0
LINE
5
3C0
100
AcDbEntity
8
0
100
AcDbLine
62
0
6
CONTINUOUS
10
30.6077800140
20
8.7915157235
11
30.4291622745
21
8.6283263967
0
LINE
5
3C1
100
AcDbEntity
8
0
100
AcDbLine
62
0
6
CONTINUOUS
10
30.4887019752
20
8.4269610000
11
30.7863977535
21
8.6838982145
0
LINE
5
3C2
100
AcDbEntity
8
0
100
AcDbLine
62
0
6
CONTINUOUS
10
-8.2823645640
20
-24.7387842751
11
-8.2830676297
21
-24.7393122894
0
LINE
5
3C3
100
AcDbEntity
8
0
100
AcDbLine
62
0
6
CONTINUOUS
10
42.6754371643
20
0.1560214851
11
37.1328745801
21
-2.1067202147
0
LINE
5
3C4
100
AcDbEntity
8
0
100
AcDbLine
62
0
6
CONTINUOUS
10
26.6539671943
20
-6.3847162409
11
21.1114046101
21
-8.6474579407
0
LINE
5
3C5
100
AcDbEntity
8
0
100
AcDbLine
62
0
6
CONTINUOUS
10
-20.1114046101
20
-25.4765993330
11
-25.6539671943
21
-27.7393410328
0
LINE
5
3C6
100
AcDbEntity
8
0
100
AcDbLine
62
0
6
CONTINUOUS
10
-36.1328745801
20
-32.0173370589
11
-41.6754371643
21
-34.2800787587
0
LINE
5
3C7
100
AcDbEntity
8
0
100
AcDbLine
62
0
6
CONTINUOUS
10
-41.6754371643
20
-34.6269845842
11
-37.1328745801
21
-32.7724911749
0
LINE
5
3C8
100
AcDbEntity
8
0
100
AcDbLine
62
0
6
CONTINUOUS
10
-25.6539671943
20
-28.0862468582
11
-21.1114046101
21
-26.2317534489
0
LINE
5
3C9
100
AcDbEntity
8
0
100
AcDbLine
62
0
6
CONTINUOUS
10
21.1114046101
20
-8.9943637662
11
25.6539671943
21
-7.1398703569
0
LINE
5
3CA
100
AcDbEntity
8
0
100
AcDbLine
62
0
6
CONTINUOUS
10
37.1328745801
20
-2.4536260402
11
41.6754371643
21
-0.5991326309
0
LINE
5
3CB
100
AcDbEntity
8
0
100
AcDbLine
62
0
6
CONTINUOUS
10
-41.6754371643
20
-36.2599777461
11
-36.1328745801
21
-33.9972360463
0
LINE
5
3CC
100
AcDbEntity
8
0
100
AcDbLine
62
0
6
CONTINUOUS
10
-25.6539671943
20
-29.7192400201
11
-20.1114046101
21
-27.4564983203
0
LINE
5
3CD
100
AcDbEntity
8
0
100
AcDbLine
62
0
6
CONTINUOUS
10
21.1114046101
20
-10.6273569280
11
26.6539671943
21
-8.3646152282
0
LINE
5
3CE
100
AcDbEntity
8
0
100
AcDbLine
62
0
6
CONTINUOUS
10
37.1328745801
20
-4.0866192021
11
42.6754371643
21
-1.8238775023
0
LINE
5
3CF
100
AcDbEntity
8
0
100
AcDbLine
62
0
6
CONTINUOUS
10
-6.6075629641
20
-22.5092634786
11
7.6075629641
21
-16.7059626197
0
LINE
5
3D0
100
AcDbEntity
8
0
100
AcDbLine
62
0
6
CONTINUOUS
10
-6.5520311583
20
-22.6184061482
11
7.4299956313
21
-16.9102676141
0
LINE
5
3D1
100
AcDbEntity
8
0
100
AcDbLine
62
0
6
CONTINUOUS
10
16.5619307235
20
18.5474737449
11
15.7085342058
21
18.3284615562
0
LINE
5
3D2
100
AcDbEntity
8
0
100
AcDbLine
62
0
6
CONTINUOUS
10
16.4619307235
20
18.6699482321
11
15.6085342058
21
18.4509360433
0
LINE
5
3D3
100
AcDbEntity
8
0
100
AcDbLine
62
0
6
CONTINUOUS
10
15.8792146813
20
17.7512141650
11
16.3912502480
21
17.8308663290
0
LINE
5
3D4
100
AcDbEntity
8
0
100
AcDbLine
62
0
6
CONTINUOUS
10
8.2693304037
20
11.4437681921
11
8.3693304037
21
11.3212937050
0
LINE
5
3D5
100
AcDbEntity
8
0
100
AcDbLine
62
0
6
CONTINUOUS
10
6.0505018015
20
14.5488856541
11
6.1505018015
21
14.4264111669
0
LINE
5
3D6
100
AcDbEntity
8
0
100
AcDbLine
62
0
6
CONTINUOUS
10
7.4159338860
20
15.1063209683
11
7.5159338860
21
14.9838464812
0
LINE
5
3D7
100
AcDbEntity
8
0
100
AcDbLine
62
0
6
CONTINUOUS
10
26.6539671943
20
-8.3646152282
11
25.6539671943
21
-7.1398703569
0
LINE
5
3D8
100
AcDbEntity
8
0
100
AcDbLine
62
0
6
CONTINUOUS
10
11.5122340459
20
10.6975101876
11
11.6122340459
21
10.5750357005
0
LINE
5
3D9
100
AcDbEntity
8
0
100
AcDbLine
62
0
6
CONTINUOUS
10
10.2468019614
20
10.0176003863
11
7.5159338860
21
14.9838464812
0
LINE
5
3DA
100
AcDbEntity
8
0
100
AcDbLine
62
0
6
CONTINUOUS
10
21.1114046101
20
-8.6474579407
11
21.1114046101
21
-10.6273569280
0
LINE
5
3DB
100
AcDbEntity
8
0
100
AcDbLine
62
0
6
CONTINUOUS
10
22.4104427157
20
7.3685106532
11
22.4104427157
21
7.1428383031
0
LINE
5
3DC
100
AcDbEntity
8
0
100
AcDbLine
62
0
6
CONTINUOUS
10
22.5104427157
20
7.2460361660
11
22.5104427157
21
7.0203638159
0
LINE
5
3DD
100
AcDbEntity
8
0
100
AcDbLine
62
0
6
CONTINUOUS
10
24.6538555901
20
7.8954084577
11
24.6538555901
21
8.1210808077
0
LINE
5
3DE
100
AcDbEntity
8
0
100
AcDbLine
62
0
6
CONTINUOUS
10
28.0666713613
20
8.1882186281
11
28.0071316606
21
8.0285082370
0
LINE
5
3DF
100
AcDbEntity
8
0
100
AcDbLine
62
0
6
CONTINUOUS
10
28.1666713613
20
8.0657441409
11
28.1071316606
21
7.9060337498
0
LINE
5
3E0
100
AcDbEntity
8
0
100
AcDbLine
62
0
6
CONTINUOUS
10
28.3452891009
20
7.8678576760
11
28.4643671396
21
8.1421434635
0
LINE
5
3E1
100
AcDbEntity
8
0
100
AcDbLine
62
0
6
CONTINUOUS
10
30.9650154931
20
8.9373564971
11
31.0840942132
21
9.2116425627
0
LINE
5
3E2
100
AcDbEntity
8
0
100
AcDbLine
62
0
6
CONTINUOUS
10
28.0071316606
20
8.0285082370
11
27.8880536218
21
7.8444913895
0
LINE
5
3E3
100
AcDbEntity
8
0
100
AcDbLine
62
0
6
CONTINUOUS
10
28.1071316606
20
7.9060337498
11
27.9880536218
21
7.7220169024
0
LINE
5
3E4
100
AcDbEntity
8
0
100
AcDbLine
62
0
6
CONTINUOUS
10
30.6268587342
20
9.0980073362
11
30.5077800140
21
8.9139902106
0
LINE
5
3E5
100
AcDbEntity
8
0
100
AcDbLine
62
0
6
CONTINUOUS
10
30.7268587342
20
8.9755328491
11
30.6077800140
21
8.7915157235
0
LINE
5
3E6
100
AcDbEntity
8
0
100
AcDbLine
62
0
6
CONTINUOUS
10
30.7863977535
20
8.6838982145
11
30.9650154931
21
8.9373564971
0
LINE
5
3E7
100
AcDbEntity
8
0
100
AcDbLine
62
0
6
CONTINUOUS
10
73.6157491602
20
9.0725019634
11
44.6905006738
21
-2.7361812824
0
LINE
5
3E8
100
AcDbEntity
8
0
100
AcDbLine
62
0
6
CONTINUOUS
10
-43.9905006738
20
-38.9400484791
11
-72.9157491602
21
-50.7487317250
0
LINE
5
3E9
100
AcDbEntity
8
0
100
AcDbLine
62
0
6
CONTINUOUS
10
44.2806930526
20
-3.0120889595
11
44.0641867017
21
-3.1004773071
0
LINE
5
3EA
100
AcDbEntity
8
0
100
AcDbLine
62
0
6
CONTINUOUS
10
-43.8806930526
20
-39.0038241219
11
-43.6641867017
21
-38.9154357742
0
LINE
5
3EB
100
AcDbEntity
8
0
100
AcDbLine
62
0
6
CONTINUOUS
10
73.5547313967
20
8.9157781314
11
44.5203264493
21
-2.9374680530
0
LINE
5
3EC
100
AcDbEntity
8
0
100
AcDbLine
62
0
6
CONTINUOUS
10
-43.9423538862
20
-39.0522060698
11
-72.9767669451
21
-50.9054555658
0
LINE
5
3ED
100
AcDbEntity
8
0
100
AcDbLine
62
0
6
CONTINUOUS
10
-42.8445714594
20
-38.7171738107
11
-8.3396137716
21
-24.6305838221
0
LINE
5
3EE
100
AcDbEntity
8
0
100
AcDbLine
62
0
6
CONTINUOUS
10
9.3396137716
20
-17.4130694008
11
43.8445714594
21
-3.3264794123
0
LINE
5
3EF
100
AcDbEntity
8
0
100
AcDbLine
62
0
6
CONTINUOUS
10
-42.9055892229
20
-38.8738976427
11
-8.2840819659
21
-24.7397264918
0
LINE
5
3F0
100
AcDbEntity
8
0
100
AcDbLine
62
0
6
CONTINUOUS
10
9.1620464389
20
-17.6173743953
11
43.8921866844
21
-3.4388540125
0
LINE
5
3F1
100
AcDbEntity
8
0
100
AcDbLine
62
0
6
CONTINUOUS
10
17.2446487190
20
18.4380357573
11
16.5619307235
21
18.5474737449
0
LINE
5
3F2
100
AcDbEntity
8
0
100
AcDbLine
62
0
6
CONTINUOUS
10
17.1446487190
20
18.5605102445
11
16.4619307235
21
18.6699482321
0
LINE
5
3F3
100
AcDbEntity
8
0
100
AcDbLine
62
0
6
CONTINUOUS
10
16.3912502480
20
17.8308663290
11
16.7326111990
21
17.7114553923
0
LINE
5
3F4
100
AcDbEntity
8
0
100
AcDbLine
62
0
6
CONTINUOUS
10
26.4400329854
20
7.0900401240
11
26.6186507249
21
6.9824226149
0
LINE
5
3F5
100
AcDbEntity
8
0
100
AcDbLine
62
0
6
CONTINUOUS
10
28.3452891009
20
8.4997403511
11
28.1666713613
21
8.6073578443
0
LINE
5
3F6
100
AcDbEntity
8
0
100
AcDbLine
62
0
6
CONTINUOUS
10
28.2452891009
20
8.6222148382
11
28.0666713613
21
8.7298323314
0
LINE
5
3F7
100
AcDbEntity
8
0
100
AcDbLine
62
0
6
CONTINUOUS
10
29.0597600590
20
8.1595392233
11
29.2383777985
21
8.0519217142
0
LINE
5
3F8
100
AcDbEntity
8
0
100
AcDbLine
62
0
6
CONTINUOUS
10
30.9650154931
20
9.5692391722
11
30.7863977535
21
9.6768566654
0
LINE
5
3F9
100
AcDbEntity
8
0
100
AcDbLine
62
0
6
CONTINUOUS
10
30.8650154931
20
9.6917136593
11
30.6863977535
21
9.7993311525
0
LINE
5
3FA
100
AcDbEntity
8
0
100
AcDbLine
62
0
6
CONTINUOUS
10
17.7566862390
20
18.1295322767
11
17.2446487190
21
18.4380357573
0
LINE
5
3FB
100
AcDbEntity
8
0
100
AcDbLine
62
0
6
CONTINUOUS
10
17.6566862390
20
18.2520067638
11
17.1446487190
21
18.5605102445
0
LINE
5
3FC
100
AcDbEntity
8
0
100
AcDbLine
62
0
6
CONTINUOUS
10
27.9880536218
20
8.3538995774
11
28.1071316606
21
8.2671095732
0
LINE
5
3FD
100
AcDbEntity
8
0
100
AcDbLine
62
0
6
CONTINUOUS
10
26.3209542653
20
7.2219643517
11
26.4400329854
21
7.0900401240
0
LINE
5
3FE
100
AcDbEntity
8
0
100
AcDbLine
62
0
6
CONTINUOUS
10
26.7972684645
20
7.2358808976
11
26.6781897443
21
7.3678051254
0
LINE
5
3FF
100
AcDbEntity
8
0
100
AcDbLine
62
0
6
CONTINUOUS
10
26.6972684645
20
7.3583553848
11
26.5781897443
21
7.4902796125
0
LINE
5
400
100
AcDbEntity
8
0
100
AcDbLine
62
0
6
CONTINUOUS
10
19.5525588833
20
6.2017844642
11
19.6525588833
21
6.0793099771
0
LINE
5
401
100
AcDbEntity
8
0
100
AcDbLine
62
0
6
CONTINUOUS
10
19.9097943623
20
6.3476252378
11
20.0097943623
21
6.2251507507
0
LINE
5
402
100
AcDbEntity
8
0
100
AcDbLine
62
0
6
CONTINUOUS
10
11.5122340459
20
16.7786285058
11
11.6122340459
21
16.6561540187
0
LINE
5
403
100
AcDbEntity
8
0
100
AcDbLine
62
0
6
CONTINUOUS
10
16.8032877680
20
12.8575738244
11
16.9032877680
21
12.7350993373
0
LINE
5
404
100
AcDbEntity
8
0
100
AcDbLine
62
0
6
CONTINUOUS
10
21.5768932078
20
7.0282154915
11
21.6768932078
21
6.9057410044
0
LINE
5
405
100
AcDbEntity
8
0
100
AcDbLine
62
0
6
CONTINUOUS
10
23.0058352944
20
5.4902583120
11
23.1058352944
21
5.3677838249
0
LINE
5
406
100
AcDbEntity
8
0
100
AcDbLine
62
0
6
CONTINUOUS
10
21.9341286869
20
7.1740562652
11
22.0341286869
21
7.0515817780
0
LINE
5
407
100
AcDbEntity
8
0
100
AcDbLine
62
0
6
CONTINUOUS
10
22.4104427157
20
7.1428383031
11
22.5104427157
21
7.0203638159
0
LINE
5
408
100
AcDbEntity
8
0
100
AcDbLine
62
0
6
CONTINUOUS
10
22.4104427157
20
7.3685106532
11
22.5104427157
21
7.2460361660
0
LINE
5
409
100
AcDbEntity
8
0
100
AcDbLine
62
0
6
CONTINUOUS
10
15.7792146813
20
15.9329060790
11
15.8792146813
21
15.8104315919
0
LINE
5
40A
100
AcDbEntity
8
0
100
AcDbLine
62
0
6
CONTINUOUS
10
16.2912502480
20
16.2713292045
11
16.3912502480
21
16.1488547174
0
LINE
5
40B
100
AcDbEntity
8
0
100
AcDbLine
62
0
6
CONTINUOUS
10
16.6326111990
20
16.6694601906
11
16.7326111990
21
16.5469857035
0
LINE
5
40C
100
AcDbEntity
8
0
100
AcDbLine
62
0
6
CONTINUOUS
10
25.3874052684
20
6.4625301825
11
25.4874052684
21
6.3400556953
0
LINE
5
40D
100
AcDbEntity
8
0
100
AcDbLine
62
0
6
CONTINUOUS
10
15.6085342058
20
18.4509360433
11
15.7085342058
21
18.3284615562
0
LINE
5
40E
100
AcDbEntity
8
0
100
AcDbLine
62
0
6
CONTINUOUS
10
16.8032877680
20
17.1272950502
11
16.9032877680
21
17.0048205631
0
LINE
5
40F
100
AcDbEntity
8
0
100
AcDbLine
62
0
6
CONTINUOUS
10
24.5538555901
20
8.2435552949
11
24.6538555901
21
8.1210808077
0
LINE
5
410
100
AcDbEntity
8
0
100
AcDbLine
62
0
6
CONTINUOUS
10
25.0301694486
20
7.7609924367
11
25.1301694486
21
7.6385179495
0
LINE
5
411
100
AcDbEntity
8
0
100
AcDbLine
62
0
6
CONTINUOUS
10
25.0301694486
20
8.1220683232
11
25.1301694486
21
7.9995938361
0
LINE
5
412
100
AcDbEntity
8
0
100
AcDbLine
62
0
6
CONTINUOUS
10
16.4619307235
20
18.6699482321
11
16.5619307235
21
18.5474737449
0
LINE
5
413
100
AcDbEntity
8
0
100
AcDbLine
62
0
6
CONTINUOUS
10
18.0980432835
20
13.2228562340
11
16.5619307235
21
15.5716073262
0
LINE
5
414
100
AcDbEntity
8
0
100
AcDbLine
62
0
6
CONTINUOUS
10
15.5217338558
20
14.8845665522
11
16.8032877680
21
12.8575738244
0
LINE
5
415
100
AcDbEntity
8
0
100
AcDbLine
62
0
6
CONTINUOUS
10
15.5378556835
20
14.8947594804
11
16.9032877680
21
12.7350993373
0
LINE
5
416
100
AcDbEntity
8
0
100
AcDbLine
62
0
6
CONTINUOUS
10
20.8433437851
20
4.7149323857
11
20.0097943623
21
6.2251507507
0
LINE
5
417
100
AcDbEntity
8
0
100
AcDbLine
62
0
6
CONTINUOUS
10
19.5525588833
20
6.2017844642
11
20.5051868558
21
4.4693728619
0
LINE
5
418
100
AcDbEntity
8
0
100
AcDbLine
62
0
6
CONTINUOUS
10
19.6525588833
20
6.0793099771
11
20.6051868558
21
4.3468983747
0
LINE
5
419
100
AcDbEntity
8
0
100
AcDbLine
62
0
6
CONTINUOUS
10
16.7059143138
20
17.6971481798
11
16.8032877680
21
17.5154518548
0
LINE
5
41A
100
AcDbEntity
8
0
100
AcDbLine
62
0
6
CONTINUOUS
10
16.7326111990
20
17.7114553923
11
16.9032877680
21
17.3929773677
0
LINE
5
41B
100
AcDbEntity
8
0
100
AcDbLine
62
0
6
CONTINUOUS
10
17.9273628080
20
17.8110542521
11
17.7566862390
21
18.1295322767
0
LINE
5
41C
100
AcDbEntity
8
0
100
AcDbLine
62
0
6
CONTINUOUS
10
25.0301694486
20
8.1220683232
11
25.0301694486
21
7.7609924367
0
LINE
5
41D
100
AcDbEntity
8
0
100
AcDbLine
62
0
6
CONTINUOUS
10
25.1301694486
20
7.9995938361
11
25.1301694486
21
7.6385179495
0
LINE
5
41E
100
AcDbEntity
8
0
100
AcDbLine
62
0
6
CONTINUOUS
10
25.3874052684
20
7.9710348738
11
25.3874052684
21
6.4625301825
0
LINE
5
41F
100
AcDbEntity
8
0
100
AcDbLine
62
0
6
CONTINUOUS
10
25.4874052684
20
8.1003002788
11
25.4874052684
21
6.3400556953
0
LINE
5
420
100
AcDbEntity
8
0
100
AcDbLine
62
0
6
CONTINUOUS
10
25.6539671943
20
-7.1398703569
11
25.6539671943
21
-6.7929645314
0
LINE
5
421
100
AcDbEntity
8
0
100
AcDbLine
62
0
6
CONTINUOUS
10
25.8446407474
20
6.4858964690
11
25.8446407474
21
8.6072168125
0
LINE
5
422
100
AcDbEntity
8
0
100
AcDbLine
62
0
6
CONTINUOUS
10
26.2209542653
20
8.9241454790
11
26.2209542653
21
7.7506491322
0
LINE
5
423
100
AcDbEntity
8
0
100
AcDbLine
62
0
6
CONTINUOUS
10
26.3209542653
20
8.8016709919
11
26.3209542653
21
7.6281746451
0
LINE
5
424
100
AcDbEntity
8
0
100
AcDbLine
62
0
6
CONTINUOUS
10
26.6186507249
20
7.9753810659
11
26.6186507249
21
8.6975327126
0
LINE
5
425
100
AcDbEntity
8
0
100
AcDbLine
62
0
6
CONTINUOUS
10
26.6539671943
20
-8.3646152282
11
26.6539671943
21
-6.3847162409
0
LINE
5
426
100
AcDbEntity
8
0
100
AcDbLine
62
0
6
CONTINUOUS
10
28.0666713613
20
8.2784875681
11
28.0666713613
21
8.1882186281
0
LINE
5
427
100
AcDbEntity
8
0
100
AcDbLine
62
0
6
CONTINUOUS
10
28.1666713613
20
8.1560130809
11
28.1666713613
21
8.0657441409
0
LINE
5
428
100
AcDbEntity
8
0
100
AcDbLine
62
0
6
CONTINUOUS
10
28.3452891009
20
9.4024298778
11
28.3452891009
21
9.6281022279
0
LINE
5
429
100
AcDbEntity
8
0
100
AcDbLine
62
0
6
CONTINUOUS
10
28.4643671396
20
8.1421434635
11
28.4643671396
21
8.3226813435
0
LINE
5
42A
100
AcDbEntity
8
0
100
AcDbLine
62
0
6
CONTINUOUS
10
28.8406813388
20
9.9936445783
11
28.8406813388
21
8.8201482315
0
LINE
5
42B
100
AcDbEntity
8
0
100
AcDbLine
62
0
6
CONTINUOUS
10
28.9406813388
20
9.8711700912
11
28.9406813388
21
8.6976737444
0
LINE
5
42C
100
AcDbEntity
8
0
100
AcDbLine
62
0
6
CONTINUOUS
10
29.2383777985
20
9.0448801652
11
29.2383777985
21
9.7670318118
0
LINE
5
42D
100
AcDbEntity
8
0
100
AcDbLine
62
0
6
CONTINUOUS
10
30.6863977535
20
9.3479863892
11
30.6863977535
21
9.2577174492
0
LINE
5
42E
100
AcDbEntity
8
0
100
AcDbLine
62
0
6
CONTINUOUS
10
30.7863977535
20
9.2255119020
11
30.7863977535
21
9.1352429620
0
LINE
5
42F
100
AcDbEntity
8
0
100
AcDbLine
62
0
6
CONTINUOUS
10
30.6863977535
20
9.2577174492
11
30.6268587342
21
9.0980073362
0
LINE
5
430
100
AcDbEntity
8
0
100
AcDbLine
62
0
6
CONTINUOUS
10
30.7863977535
20
9.1352429620
11
30.7268587342
21
8.9755328491
0
LINE
5
431
100
AcDbEntity
8
0
100
AcDbLine
62
0
6
CONTINUOUS
10
44.2806930526
20
19.6153280385
11
44.6905006738
21
19.5376823250
0
LINE
5
432
100
AcDbEntity
8
0
100
AcDbLine
62
0
6
CONTINUOUS
10
30.6077800140
20
9.4233983985
11
30.7268587342
21
9.3366086724
0
LINE
5
433
100
AcDbEntity
8
0
100
AcDbLine
62
0
6
CONTINUOUS
10
28.9406813388
20
8.2914634510
11
29.0597600590
21
8.1595392233
0
LINE
5
434
100
AcDbEntity
8
0
100
AcDbLine
62
0
6
CONTINUOUS
10
29.4169955381
20
8.3053799969
11
29.2979168179
21
8.4373042246
0
LINE
5
435
100
AcDbEntity
8
0
100
AcDbLine
62
0
6
CONTINUOUS
10
29.3169955381
20
8.4278544840
11
29.1979168179
21
8.5597787118
0
LINE
5
436
100
AcDbEntity
8
0
100
AcDbLine
62
0
6
CONTINUOUS
10
26.2209542653
20
7.3444388389
11
26.3209542653
21
7.2219643517
0
LINE
5
437
100
AcDbEntity
8
0
100
AcDbLine
62
0
6
CONTINUOUS
10
17.1446487190
20
18.5605102445
11
17.2446487190
21
18.4380357573
0
LINE
5
438
100
AcDbEntity
8
0
100
AcDbLine
62
0
6
CONTINUOUS
10
25.3874052684
20
8.5838505260
11
25.4874052684
21
8.4613760389
0
LINE
5
439
100
AcDbEntity
8
0
100
AcDbLine
62
0
6
CONTINUOUS
10
26.2209542653
20
7.7506491322
11
26.3209542653
21
7.6281746451
0
LINE
5
43A
100
AcDbEntity
8
0
100
AcDbLine
62
0
6
CONTINUOUS
10
17.6566862390
20
18.2520067638
11
17.7566862390
21
18.1295322767
0
LINE
5
43B
100
AcDbEntity
8
0
100
AcDbLine
62
0
6
CONTINUOUS
10
26.5781897443
20
7.4902796125
11
26.6781897443
21
7.3678051254
0
LINE
5
43C
100
AcDbEntity
8
0
100
AcDbLine
62
0
6
CONTINUOUS
10
26.6972684645
20
7.3583553848
11
26.7972684645
21
7.2358808976
0
LINE
5
43D
100
AcDbEntity
8
0
100
AcDbLine
62
0
6
CONTINUOUS
10
26.8758862040
20
7.3410068315
11
26.9758862040
21
7.2185323444
0
LINE
5
43E
100
AcDbEntity
8
0
100
AcDbLine
62
0
6
CONTINUOUS
10
25.7446407474
20
8.7296912997
11
25.8446407474
21
8.6072168125
0
LINE
5
43F
100
AcDbEntity
8
0
100
AcDbLine
62
0
6
CONTINUOUS
10
27.1140429629
20
7.3930994512
11
27.2140429629
21
7.2706249641
0
LINE
5
440
100
AcDbEntity
8
0
100
AcDbLine
62
0
6
CONTINUOUS
10
26.2209542653
20
8.9241454790
11
26.3209542653
21
8.8016709919
0
LINE
5
441
100
AcDbEntity
8
0
100
AcDbLine
62
0
6
CONTINUOUS
10
27.4712784420
20
7.5389402248
11
27.5712784420
21
7.4164657377
0
LINE
5
442
100
AcDbEntity
8
0
100
AcDbLine
62
0
6
CONTINUOUS
10
26.8163471846
20
8.3547930338
11
26.9163471846
21
8.2323185467
0
LINE
5
443
100
AcDbEntity
8
0
100
AcDbLine
62
0
6
CONTINUOUS
10
27.7094358823
20
7.6813020627
11
27.8094358823
21
7.5588275756
0
LINE
5
444
100
AcDbEntity
8
0
100
AcDbLine
62
0
6
CONTINUOUS
10
27.1140429629
20
8.5214612964
11
27.2140429629
21
8.3989868093
0
LINE
5
445
100
AcDbEntity
8
0
100
AcDbLine
62
0
6
CONTINUOUS
10
27.8880536218
20
7.8444913895
11
27.9880536218
21
7.7220169024
0
LINE
5
446
100
AcDbEntity
8
0
100
AcDbLine
62
0
6
CONTINUOUS
10
27.4712784420
20
8.6673020700
11
27.5712784420
21
8.5448275829
0
LINE
5
447
100
AcDbEntity
8
0
100
AcDbLine
62
0
6
CONTINUOUS
10
28.0071316606
20
8.0285082370
11
28.1071316606
21
7.9060337498
0
LINE
5
448
100
AcDbEntity
8
0
100
AcDbLine
62
0
6
CONTINUOUS
10
28.0666713613
20
8.1882186281
11
28.1666713613
21
8.0657441409
0
LINE
5
449
100
AcDbEntity
8
0
100
AcDbLine
62
0
6
CONTINUOUS
10
28.0666713613
20
8.2784875681
11
28.0884295374
21
8.2518393535
0
LINE
5
44A
100
AcDbEntity
8
0
100
AcDbLine
62
0
6
CONTINUOUS
10
27.7689749017
20
8.7437016708
11
27.8689749017
21
8.6212271836
0
LINE
5
44B
100
AcDbEntity
8
0
100
AcDbLine
62
0
6
CONTINUOUS
10
28.0666713613
20
8.7298323314
11
28.1666713613
21
8.6073578443
0
LINE
5
44C
100
AcDbEntity
8
0
100
AcDbLine
62
0
6
CONTINUOUS
10
28.2452891009
20
8.6222148382
11
28.3452891009
21
8.4997403511
0
LINE
5
44D
100
AcDbEntity
8
0
100
AcDbLine
62
0
6
CONTINUOUS
10
28.8406813388
20
8.4139379381
11
28.9406813388
21
8.2914634510
0
LINE
5
44E
100
AcDbEntity
8
0
100
AcDbLine
62
0
6
CONTINUOUS
10
28.8406813388
20
8.8201482315
11
28.9406813388
21
8.6976737444
0
LINE
5
44F
100
AcDbEntity
8
0
100
AcDbLine
62
0
6
CONTINUOUS
10
29.1979168179
20
8.5597787118
11
29.2979168179
21
8.4373042246
0
LINE
5
450
100
AcDbEntity
8
0
100
AcDbLine
62
0
6
CONTINUOUS
10
29.3169955381
20
8.4278544840
11
29.4169955381
21
8.3053799969
0
LINE
5
451
100
AcDbEntity
8
0
100
AcDbLine
62
0
6
CONTINUOUS
10
28.2452891009
20
9.7505767150
11
28.3452891009
21
9.6281022279
0
LINE
5
452
100
AcDbEntity
8
0
100
AcDbLine
62
0
6
CONTINUOUS
10
29.4956132776
20
8.4105059308
11
29.5956132776
21
8.2880314437
0
LINE
5
453
100
AcDbEntity
8
0
100
AcDbLine
62
0
6
CONTINUOUS
10
29.7337700365
20
8.4625985505
11
29.8337700365
21
8.3401240633
0
LINE
5
454
100
AcDbEntity
8
0
100
AcDbLine
62
0
6
CONTINUOUS
10
28.8406813388
20
9.9936445783
11
28.9406813388
21
9.8711700912
0
LINE
5
455
100
AcDbEntity
8
0
100
AcDbLine
62
0
6
CONTINUOUS
10
30.0910055156
20
8.6084393241
11
30.1910055156
21
8.4859648370
0
LINE
5
456
100
AcDbEntity
8
0
100
AcDbLine
62
0
6
CONTINUOUS
10
29.4360735768
20
9.4242918549
11
29.5360735768
21
9.3018173678
0
LINE
5
457
100
AcDbEntity
8
0
100
AcDbLine
62
0
6
CONTINUOUS
10
30.3291622745
20
8.7508008838
11
30.4291622745
21
8.6283263967
0
LINE
5
458
100
AcDbEntity
8
0
100
AcDbLine
62
0
6
CONTINUOUS
10
29.7337700365
20
9.5909603957
11
29.8337700365
21
9.4684859085
0
LINE
5
459
100
AcDbEntity
8
0
100
AcDbLine
62
0
6
CONTINUOUS
10
30.5077800140
20
8.9139902106
11
30.6077800140
21
8.7915157235
0
LINE
5
45A
100
AcDbEntity
8
0
100
AcDbLine
62
0
6
CONTINUOUS
10
30.0910055156
20
9.7368011693
11
30.1910055156
21
9.6143266822
0
LINE
5
45B
100
AcDbEntity
8
0
100
AcDbLine
62
0
6
CONTINUOUS
10
30.6268587342
20
9.0980073362
11
30.7268587342
21
8.9755328491
0
LINE
5
45C
100
AcDbEntity
8
0
100
AcDbLine
62
0
6
CONTINUOUS
10
30.6863977535
20
9.2577174492
11
30.7863977535
21
9.1352429620
0
LINE
5
45D
100
AcDbEntity
8
0
100
AcDbLine
62
0
6
CONTINUOUS
10
30.6863977535
20
9.3479863892
11
30.7081560659
21
9.3213380077
0
LINE
5
45E
100
AcDbEntity
8
0
100
AcDbLine
62
0
6
CONTINUOUS
10
30.3887019752
20
9.8132007700
11
30.4887019752
21
9.6907262829
0
LINE
5
45F
100
AcDbEntity
8
0
100
AcDbLine
62
0
6
CONTINUOUS
10
30.6863977535
20
9.7993311525
11
30.7863977535
21
9.6768566654
0
LINE
5
460
100
AcDbEntity
8
0
100
AcDbLine
62
0
6
CONTINUOUS
10
30.8650154931
20
9.6917136593
11
30.9650154931
21
9.5692391722
0
LINE
5
461
100
AcDbEntity
8
0
100
AcDbLine
62
0
6
CONTINUOUS
10
31.8176432101
20
9.0876638295
11
31.9176432101
21
8.9651893423
0
LINE
5
462
100
AcDbEntity
8
0
100
AcDbLine
62
0
6
CONTINUOUS
10
30.8650154931
20
10.8200755361
11
30.9650154931
21
10.6976010490
0
LINE
5
463
100
AcDbEntity
8
0
100
AcDbLine
62
0
6
CONTINUOUS
10
28.4643671396
20
8.3226813435
11
28.3452891009
21
8.4997403511
0
LINE
5
464
100
AcDbEntity
8
0
100
AcDbLine
62
0
6
CONTINUOUS
10
28.1071316606
20
8.2671095732
11
28.1666713613
21
8.1560130809
0
LINE
5
465
100
AcDbEntity
8
0
100
AcDbLine
62
0
6
CONTINUOUS
10
30.9650154931
20
10.4719286989
11
30.9650154931
21
10.6976010490
0
LINE
5
466
100
AcDbEntity
8
0
100
AcDbLine
62
0
6
CONTINUOUS
10
31.0840942132
20
9.2116425627
11
31.0840942132
21
9.3921804428
0
LINE
5
467
100
AcDbEntity
8
0
100
AcDbLine
62
0
6
CONTINUOUS
10
31.4604077310
20
10.7472021093
11
31.4604077310
21
10.3861262228
0
LINE
5
468
100
AcDbEntity
8
0
100
AcDbLine
62
0
6
CONTINUOUS
10
31.5604077310
20
10.6247276222
11
31.5604077310
21
10.2636517356
0
LINE
5
469
100
AcDbEntity
8
0
100
AcDbLine
62
0
6
CONTINUOUS
10
31.8176432101
20
10.5961684364
11
31.8176432101
21
9.0876638295
0
LINE
5
46A
100
AcDbEntity
8
0
100
AcDbLine
62
0
6
CONTINUOUS
10
31.9176432101
20
10.7254339258
11
31.9176432101
21
8.9651893423
0
LINE
5
46B
100
AcDbEntity
8
0
100
AcDbLine
62
0
6
CONTINUOUS
10
32.2748786892
20
9.1110301160
11
32.2748786892
21
11.2323504595
0
LINE
5
46C
100
AcDbEntity
8
0
100
AcDbLine
62
0
6
CONTINUOUS
10
43.8445714594
20
18.9473841951
11
44.0641867017
21
19.5269396909
0
LINE
5
46D
100
AcDbEntity
8
0
100
AcDbLine
62
0
6
CONTINUOUS
10
31.4604077310
20
10.3861262228
11
31.5604077310
21
10.2636517356
0
LINE
5
46E
100
AcDbEntity
8
0
100
AcDbLine
62
0
6
CONTINUOUS
10
31.4604077310
20
10.7472021093
11
31.5604077310
21
10.6247276222
0
LINE
5
46F
100
AcDbEntity
8
0
100
AcDbLine
62
0
6
CONTINUOUS
10
31.8176432101
20
11.2089841730
11
31.9176432101
21
11.0865096859
0
LINE
5
470
100
AcDbEntity
8
0
100
AcDbLine
62
0
6
CONTINUOUS
10
42.6754371643
20
-1.8238775023
11
41.6754371643
21
-0.5991326309
0
LINE
5
471
100
AcDbEntity
8
0
100
AcDbLine
62
0
6
CONTINUOUS
10
32.1748786892
20
11.3548249467
11
32.2748786892
21
11.2323504595
0
LINE
5
472
100
AcDbEntity
8
0
100
AcDbLine
62
0
6
CONTINUOUS
10
31.0840942132
20
9.3921804428
11
30.9650154931
21
9.5692391722
0
LINE
5
473
100
AcDbEntity
8
0
100
AcDbLine
62
0
6
CONTINUOUS
10
30.7268587342
20
9.3366086724
11
30.7863977535
21
9.2255119020
0
LINE
5
474
100
AcDbEntity
8
0
100
AcDbLine
62
0
6
CONTINUOUS
10
37.1328745801
20
-2.1067202147
11
37.1328745801
21
-4.0866192021
0
LINE
5
475
100
AcDbEntity
8
0
100
AcDbLine
62
0
6
CONTINUOUS
10
41.6754371643
20
-0.5991326309
11
41.6754371643
21
-0.2522268054
0
LINE
5
476
100
AcDbEntity
8
0
100
AcDbLine
62
0
6
CONTINUOUS
10
42.6754371643
20
-1.8238775023
11
42.6754371643
21
0.1560214851
0
LINE
5
477
100
AcDbEntity
8
0
100
AcDbLine
62
0
6
CONTINUOUS
10
44.0275841613
20
-3.1970698897
11
44.0641867017
21
-3.1004773071
0
LINE
5
478
100
AcDbEntity
8
0
100
AcDbLine
62
0
6
CONTINUOUS
10
43.8445714594
20
-3.3264794123
11
43.8445714594
21
18.9473841951
0
LINE
5
479
100
AcDbEntity
8
0
100
AcDbLine
62
0
6
CONTINUOUS
10
44.0641867017
20
19.5269396909
11
44.0641867017
21
-3.1004773071
0
LINE
5
47A
100
AcDbEntity
8
0
100
AcDbLine
62
0
6
CONTINUOUS
10
44.2806930526
20
19.6153280385
11
44.2806930526
21
-3.0120889595
0
LINE
5
47B
100
AcDbEntity
8
0
100
AcDbLine
62
0
6
CONTINUOUS
10
44.6905006738
20
19.5376823250
11
44.6905006738
21
-2.7361812824
0
LINE
5
47C
100
AcDbEntity
8
0
100
AcDbLine
62
0
6
CONTINUOUS
10
45.6663336987
20
21.3123843134
11
45.8163336987
21
20.9165405483
0
LINE
5
47D
100
AcDbEntity
8
0
100
AcDbLine
62
0
6
CONTINUOUS
10
74.0487618621
20
32.4423810816
11
74.0487618621
21
9.6028320493
0
LINE
5
47E
100
AcDbEntity
8
0
100
AcDbLine
62
0
6
CONTINUOUS
10
74.1987618621
20
33.0718421493
11
74.1987618621
21
49.0171000650
0
LINE
5
47F
100
AcDbEntity
8
0
100
AcDbLine
62
0
6
CONTINUOUS
10
74.2987618621
20
32.9272304181
11
74.2987618621
21
9.9090182500
0
LINE
5
480
100
AcDbEntity
8
0
100
AcDbLine
62
0
6
CONTINUOUS
10
74.3317745639
20
33.0150015420
11
74.3317745639
21
33.1295368192
0
LINE
5
481
100
AcDbEntity
8
0
100
AcDbLine
62
0
6
CONTINUOUS
10
74.4487618621
20
33.1993520075
11
74.4487618621
21
49.3232862840
0
LINE
5
482
100
AcDbEntity
8
0
100
AcDbLine
62
0
6
CONTINUOUS
10
66.0843647256
20
46.6894329553
11
61.0496509611
21
49.5331120069
0
LINE
5
483
100
AcDbEntity
8
0
100
AcDbLine
62
0
6
CONTINUOUS
10
66.1660716997
20
47.3582977171
11
61.1313579351
21
50.2019767687
0
LINE
5
484
100
AcDbEntity
8
0
100
AcDbLine
62
0
6
CONTINUOUS
10
60.6313579351
20
50.8143492044
11
65.6660716997
21
47.9706701528
0
LINE
5
485
100
AcDbEntity
8
0
100
AcDbLine
62
0
6
CONTINUOUS
10
60.5455466260
20
50.8870272062
11
65.5802603906
21
48.0433481546
0
LINE
5
486
100
AcDbEntity
8
0
100
AcDbLine
62
0
6
CONTINUOUS
10
59.9679439870
20
50.7960988977
11
60.4679439870
21
50.1837264620
0
LINE
5
487
100
AcDbEntity
8
0
100
AcDbLine
62
0
6
CONTINUOUS
10
60.6313579351
20
50.8143492044
11
61.1313579351
21
50.2019767687
0
LINE
5
488
100
AcDbEntity
8
0
100
AcDbLine
62
0
6
CONTINUOUS
10
65.6660716997
20
47.9706701528
11
66.1660716997
21
47.3582977171
0
LINE
5
489
100
AcDbEntity
8
0
100
AcDbLine
62
0
6
CONTINUOUS
10
66.9928995960
20
48.0071707662
11
67.4928995960
21
47.3947983305
0
LINE
5
48A
100
AcDbEntity
8
0
100
AcDbLine
62
0
6
CONTINUOUS
10
73.0157491602
20
50.4659888045
11
73.5157491602
21
49.8536163688
0
LINE
5
48B
100
AcDbEntity
8
0
100
AcDbLine
62
0
6
CONTINUOUS
10
73.7903458294
20
50.3913375553
11
74.2903458294
21
49.7789651196
0
SPLINE
5
48C
100
AcDbEntity
8
0
100
AcDbSpline
62
0
6
CONTINUOUS
70
0
71
3
72
8
73
4
74
2
42
0.0000001000
43
0.0000001000
44
0.0000000001
12
0.0000961705
22
0.0762632875
32
0.0000000000
13
-0.0062794582
23
0.0758349333
33
0.0000000000
40
0.0000000000
40
0.0000000000
40
0.0000000000
40
0.0000000000
40
1.0000000000
40
1.0000000000
40
1.0000000000
40
1.0000000000
10
74.2987737330
20
32.9241345240
30
0.0000000000
10
74.2988057898
20
32.9495556198
30
0.0000000000
10
74.2977177115
20
32.9749650531
30
0.0000000000
10
74.2956245587
20
33.0002433642
30
0.0000000000
11
74.2987737330
21
32.9241345240
31
0.0000000000
11
74.2956245587
21
33.0002433642
31
0.0000000000
0
SPLINE
5
48D
100
AcDbEntity
8
0
100
AcDbSpline
62
0
6
CONTINUOUS
70
0
71
3
72
8
73
4
74
2
42
0.0000001000
43
0.0000001000
44
0.0000000001
12
0.2114242313
22
0.0863135810
32
0.0000000000
13
0.1927167893
23
0.1243261614
33
0.0000000000
40
0.0000000000
40
0.0000000000
40
0.0000000000
40
0.0000000000
40
1.0000000000
40
1.0000000000
40
1.0000000000
40
1.0000000000
10
73.5547313967
20
8.9157781314
30
0.0000000000
10
73.6252061405
20
8.9445493251
30
0.0000000000
10
73.6930672568
20
8.9802513688
30
0.0000000000
10
73.7573061866
20
9.0216934226
30
0.0000000000
11
73.5547313967
21
8.9157781314
31
0.0000000000
11
73.7573061866
21
9.0216934226
31
0.0000000000
0
SPLINE
5
48E
100
AcDbEntity
8
0
100
AcDbSpline
62
0
6
CONTINUOUS
70
0
71
3
72
9
73
5
74
3
42
0.0000001000
43
0.0000001000
44
0.0000000001
12
0.2868484725
22
0.1850527379
32
0.0000000000
13
0.2287865730
23
0.2525049127
33
0.0000000000
40
0.0000000000
40
0.0000000000
40
0.0000000000
40
0.0000000000
40
0.3325800954
40
1.0000000000
40
1.0000000000
40
1.0000000000
40
1.0000000000
10
73.7573061866
20
9.0216934226
30
0.0000000000
10
73.7891062174
20
9.0422083750
30
0.0000000000
10
73.8820534703
20
9.1081219832
30
0.0000000000
10
73.9658697699
20
9.1854463984
30
0.0000000000
10
74.0167686741
20
9.2416220000
30
0.0000000000
11
73.7573061866
21
9.0216934226
31
0.0000000000
11
73.8499210595
21
9.0873136271
31
0.0000000000
11
74.0167686741
21
9.2416220000
31
0.0000000000
0
SPLINE
5
48F
100
AcDbEntity
8
0
100
AcDbSpline
62
0
6
CONTINUOUS
70
0
71
3
72
9
73
5
74
3
42
0.0000001000
43
0.0000001000
44
0.0000000001
12
0.2972021873
22
0.3280131844
32
0.0000000000
13
0.1488439722
23
0.4184521968
33
0.0000000000
40
0.0000000000
40
0.0000000000
40
0.0000000000
40
0.0000000000
40
0.2536133961
40
1.0000000000
40
1.0000000000
40
1.0000000000
40
1.0000000000
10
74.0167686741
20
9.2416220000
30
0.0000000000
10
74.0418934928
20
9.2693515126
30
0.0000000000
10
74.1361169436
20
9.3830777693
30
0.0000000000
10
74.2094185839
20
9.5131446385
30
0.0000000000
10
74.2464502995
20
9.6172536766
30
0.0000000000
11
74.0167686741
21
9.2416220000
31
0.0000000000
11
74.0883404658
21
9.3280875411
31
0.0000000000
11
74.2464502995
21
9.6172536766
31
0.0000000000
0
SPLINE
5
490
100
AcDbEntity
8
0
100
AcDbSpline
62
0
6
CONTINUOUS
70
0
71
3
72
8
73
4
74
2
42
0.0000001000
43
0.0000001000
44
0.0000000001
12
0.0999198567
22
0.2809094847
32
0.0000000000
13
0.0000000098
23
0.2964170390
33
0.0000000000
40
0.0000000000
40
0.0000000000
40
0.0000000000
40
0.0000000000
40
1.0000000000
40
1.0000000000
40
1.0000000000
40
1.0000000000
10
74.2464502995
20
9.6172536766
30
0.0000000000
10
74.2797569184
20
9.7108901715
30
0.0000000000
10
74.2987618588
20
9.8102125621
30
0.0000000000
10
74.2987618621
20
9.9090182418
30
0.0000000000
11
74.2464502995
21
9.6172536766
31
0.0000000000
11
74.2987618621
21
9.9090182418
31
0.0000000000
0
SPLINE
5
491
100
AcDbEntity
8
0
100
AcDbSpline
62
0
6
CONTINUOUS
70
0
71
3
72
10
73
6
74
4
42
0.0000001000
43
0.0000001000
44
0.0000000001
12
0.1902859378
22
0.0749939644
32
0.0000000000
13
0.0884869371
23
0.2110196900
33
0.0000000000
40
0.0000000000
40
0.0000000000
40
0.0000000000
40
0.0000000000
40
0.1571818419
40
0.5858908038
40
1.0000000000
40
1.0000000000
40
1.0000000000
40
1.0000000000
10
43.8894564447
20
-3.4408300739
30
0.0000000000
10
43.8994262761
20
-3.4369008441
30
0.0000000000
10
43.9378863138
20
-3.3955422044
30
0.0000000000
10
43.9685187846
20
-3.3357994327
30
0.0000000000
10
43.9949213554
20
-3.2773571953
30
0.0000000000
10
44.0071357735
20
-3.2482287973
30
0.0000000000
11
43.8894564447
21
-3.4408300739
31
0.0000000000
11
43.9185858996
21
-3.4151670405
31
0.0000000000
11
43.9691173640
21
-3.3328340400
31
0.0000000000
11
44.0071357735
21
-3.2482287973
31
0.0000000000
0
SPLINE
5
492
100
AcDbEntity
8
0
100
AcDbSpline
62
0
6
CONTINUOUS
70
0
71
3
72
8
73
4
74
2
42
0.0000001000
43
0.0000001000
44
0.0000000001
12
0.0214036733
22
0.0510425229
32
0.0000000000
13
0.0193138606
23
0.0509684752
33
0.0000000000
40
0.0000000000
40
0.0000000000
40
0.0000000000
40
0.0000000000
40
1.0000000000
40
1.0000000000
40
1.0000000000
40
1.0000000000
10
44.0071357735
20
-3.2482287973
30
0.0000000000
10
44.0142703313
20
-3.2312146230
30
0.0000000000
10
44.0211462078
20
-3.2140593815
30
0.0000000000
10
44.0275841613
20
-3.1970698897
30
0.0000000000
11
44.0071357735
21
-3.2482287973
31
0.0000000000
11
44.0275841613
21
-3.1970698897
31
0.0000000000
0
SPLINE
5
493
100
AcDbEntity
8
0
100
AcDbSpline
62
0
6
CONTINUOUS
70
0
71
3
72
10
73
6
74
4
42
0.0000001000
43
0.0000001000
44
0.0000000001
12
-0.1346120148
22
-0.0537979155
32
0.0000000000
13
-0.1357138447
23
0.0534561533
33
0.0000000000
40
0.0000000000
40
0.0000000000
40
0.0000000000
40
0.0000000000
40
0.1104515723
40
0.9525285982
40
1.0000000000
40
1.0000000000
40
1.0000000000
40
1.0000000000
10
9.1612982254
20
-17.6178707367
30
0.0000000000
10
9.1563421892
20
-17.6198514248
30
0.0000000000
10
9.1128794538
20
-17.6351693928
30
0.0000000000
10
9.0608488877
20
-17.6338489897
30
0.0000000000
10
9.0202993280
20
-17.6187149904
30
0.0000000000
10
9.0181518191
20
-17.6178691109
30
0.0000000000
11
9.1612982254
21
-17.6178707367
31
0.0000000000
11
9.1461806532
21
-17.6231809768
31
0.0000000000
11
9.0246435720
21
-17.6202905092
31
0.0000000000
11
9.0181518191
21
-17.6178691109
31
0.0000000000
0
SPLINE
5
494
100
AcDbEntity
8
0
100
AcDbSpline
62
0
6
CONTINUOUS
70
0
71
3
72
9
73
5
74
3
42
0.0000001000
43
0.0000001000
44
0.0000000001
12
0.0720563111
22
0.0304769194
32
0.0000000000
13
0.0357012445
23
0.0638317370
33
0.0000000000
40
0.0000000000
40
0.0000000000
40
0.0000000000
40
0.0000000000
40
0.2823756931
40
1.0000000000
40
1.0000000000
40
1.0000000000
40
1.0000000000
10
-43.9462489353
20
-39.0526024765
30
0.0000000000
10
-43.9394666184
20
-39.0497338294
30
0.0000000000
10
-43.9146025483
20
-39.0321758959
30
0.0000000000
10
-43.9013389515
20
-39.0118004973
30
0.0000000000
10
-43.8927989246
20
-38.9965314287
30
0.0000000000
11
-43.9462489353
21
-39.0526024765
31
0.0000000000
11
-43.9263495761
21
-39.0395933086
31
0.0000000000
11
-43.8927989246
21
-38.9965314287
31
0.0000000000
0
SPLINE
5
495
100
AcDbEntity
8
0
100
AcDbSpline
62
0
6
CONTINUOUS
70
0
71
3
72
8
73
4
74
2
42
0.0000001000
43
0.0000001000
44
0.0000000001
12
0.0122311640
22
0.0218686058
32
0.0000000000
13
0.0125241656
23
0.0224912630
33
0.0000000000
40
0.0000000000
40
0.0000000000
40
0.0000000000
40
0.0000000000
40
1.0000000000
40
1.0000000000
40
1.0000000000
40
1.0000000000
10
-43.8927989246
20
-38.9965314287
30
0.0000000000
10
-43.8887218699
20
-38.9892418934
30
0.0000000000
10
-43.8848677745
20
-38.9818048538
30
0.0000000000
10
-43.8806930526
20
-38.9743077662
30
0.0000000000
11
-43.8927989246
21
-38.9965314287
31
0.0000000000
11
-43.8806930526
21
-38.9743077662
31
0.0000000000
0
SPLINE
5
496
100
AcDbEntity
8
0
100
AcDbSpline
62
0
6
CONTINUOUS
70
0
71
3
72
10
73
6
74
4
42
0.0000001000
43
0.0000001000
44
0.0000000001
12
0.4354872649
22
-0.5350934413
32
0.0000000000
13
0.6901436117
23
0.0229052046
33
0.0000000000
40
0.0000000000
40
0.0000000000
40
0.0000000000
40
0.0000000000
40
0.1057729023
40
0.5276657806
40
1.0000000000
40
1.0000000000
40
1.0000000000
40
1.0000000000
10
-73.9407748791
20
-50.7208885386
30
0.0000000000
10
-73.9254206285
20
-50.7397546673
30
0.0000000000
10
-73.8438473140
20
-50.8297946128
30
0.0000000000
10
-73.6455216406
20
-50.9564532219
30
0.0000000000
10
-73.4378431059
20
-50.9873677315
30
0.0000000000
10
-73.3291836245
20
-50.9837614275
30
0.0000000000
11
-73.9407748791
21
-50.7208885386
31
0.0000000000
11
-73.8917899237
21
-50.7749199816
31
0.0000000000
11
-73.6487741744
21
-50.9317346315
31
0.0000000000
11
-73.3291836245
21
-50.9837614275
31
0.0000000000
0
SPLINE
5
497
100
AcDbEntity
8
0
100
AcDbSpline
62
0
6
CONTINUOUS
70
0
71
3
72
8
73
4
74
2
42
0.0000001000
43
0.0000001000
44
0.0000000001
12
0.2365874930
22
0.0078521120
32
0.0000000000
13
0.2273855979
23
0.0641553896
33
0.0000000000
40
0.0000000000
40
0.0000000000
40
0.0000000000
40
0.0000000000
40
1.0000000000
40
1.0000000000
40
1.0000000000
40
1.0000000000
10
-73.3291836245
20
-50.9837614275
30
0.0000000000
10
-73.2503211269
20
-50.9811440569
30
0.0000000000
10
-73.1720049367
20
-50.9680256482
30
0.0000000000
10
-73.0962097374
20
-50.9466405183
30
0.0000000000
11
-73.3291836245
21
-50.9837614275
31
0.0000000000
11
-73.0962097374
21
-50.9466405183
31
0.0000000000
0
SPLINE
5
498
100
AcDbEntity
8
0
100
AcDbSpline
62
0
6
CONTINUOUS
70
0
71
3
72
8
73
4
74
2
42
0.0000001000
43
0.0000001000
44
0.0000000001
12
0.1219215310
22
0.0343993788
32
0.0000000000
13
0.1166596404
23
0.0476260955
33
0.0000000000
40
0.0000000000
40
0.0000000000
40
0.0000000000
40
0.0000000000
40
1.0000000000
40
1.0000000000
40
1.0000000000
40
1.0000000000
10
-73.0962097374
20
-50.9466405183
30
0.0000000000
10
-73.0555692271
20
-50.9351740587
30
0.0000000000
10
-73.0156534967
20
-50.9213309329
30
0.0000000000
10
-72.9767669499
20
-50.9054555677
30
0.0000000000
11
-73.0962097374
21
-50.9466405183
31
0.0000000000
11
-72.9767669499
21
-50.9054555677
31
0.0000000000
0
SPLINE
5
499
100
AcDbEntity
8
0
100
AcDbSpline
62
0
6
CONTINUOUS
70
0
71
3
72
9
73
5
74
3
42
0.0000001000
43
0.0000001000
44
0.0000000001
12
0.0000000145
22
-0.3763224530
32
0.0000000000
13
0.1885559323
23
-0.3287221271
33
0.0000000000
40
0.0000000000
40
0.0000000000
40
0.0000000000
40
0.0000000000
40
0.7551545047
40
1.0000000000
40
1.0000000000
40
1.0000000000
40
1.0000000000
10
-74.2987618621
20
-50.0208198670
30
0.0000000000
10
-74.2987618584
20
-50.1155470655
30
0.0000000000
10
-74.2753906404
20
-50.2426179899
30
0.0000000000
10
-74.2198312866
20
-50.3564093544
30
0.0000000000
10
-74.2044422630
20
-50.3832380650
30
0.0000000000
11
-74.2987618621
21
-50.0208198670
31
0.0000000000
11
-74.2451085448
21
-50.2998906478
31
0.0000000000
11
-74.2044422630
21
-50.3832380650
31
0.0000000000
0
SPLINE
5
49A
100
AcDbEntity
8
0
100
AcDbSpline
62
0
6
CONTINUOUS
70
0
71
3
72
8
73
4
74
2
42
0.0000001000
43
0.0000001000
44
0.0000000001
12
0.0458210446
22
-0.0798828818
32
0.0000000000
13
0.0559518220
23
-0.0730862104
33
0.0000000000
40
0.0000000000
40
0.0000000000
40
0.0000000000
40
0.0000000000
40
1.0000000000
40
1.0000000000
40
1.0000000000
40
1.0000000000
10
-74.2044422630
20
-50.3832380650
30
0.0000000000
10
-74.1891685815
20
-50.4098656923
30
0.0000000000
10
-74.1721359995
20
-50.4354761480
30
0.0000000000
10
-74.1534853922
20
-50.4598382181
30
0.0000000000
11
-74.2044422630
21
-50.3832380650
31
0.0000000000
11
-74.1534853922
21
-50.4598382181
31
0.0000000000
0
SPLINE
5
49B
100
AcDbEntity
8
0
100
AcDbSpline
62
0
6
CONTINUOUS
70
0
71
3
72
8
73
4
74
2
42
0.0000001000
43
0.0000001000
44
0.0000000001
12
0.0124709293
22
-0.0162899604
32
0.0000000000
13
0.0129485370
23
-0.0159101718
33
0.0000000000
40
0.0000000000
40
0.0000000000
40
0.0000000000
40
0.0000000000
40
1.0000000000
40
1.0000000000
40
1.0000000000
40
1.0000000000
10
-74.1534853922
20
-50.4598382181
30
0.0000000000
10
-74.1493284158
20
-50.4652682049
30
0.0000000000
10
-74.1450910581
20
-50.4706361737
30
0.0000000000
10
-74.1407748791
20
-50.4759395643
30
0.0000000000
11
-74.1534853922
21
-50.4598382181
31
0.0000000000
11
-74.1407748791
21
-50.4759395643
31
0.0000000000
0
SPLINE
5
49C
100
AcDbEntity
8
0
100
AcDbSpline
62
0
6
CONTINUOUS
70
0
71
3
72
11
73
7
74
5
42
0.0000001000
43
0.0000001000
44
0.0000000001
12
0.0928032749
22
-0.2212202520
32
0.0000000000
13
-0.2217721109
23
-0.0893462207
33
0.0000000000
40
0.0000000000
40
0.0000000000
40
0.0000000000
40
0.0000000000
40
0.0208879021
40
0.2299180984
40
0.6352647981
40
1.0000000000
40
1.0000000000
40
1.0000000000
40
1.0000000000
10
74.4442086473
20
33.1992856061
30
0.0000000000
10
74.4448548026
20
33.1977453305
30
0.0000000000
10
74.4498634591
20
33.1806020860
30
0.0000000000
10
74.3799371478
20
33.1612143664
30
0.0000000000
10
74.3272004272
20
33.1244805169
30
0.0000000000
10
74.2708182514
20
33.1008082520
30
0.0000000000
10
74.2438555528
20
33.0899456814
30
0.0000000000
11
74.4442086473
21
33.1992856061
31
0.0000000000
11
74.4455146465
21
33.1947140052
31
0.0000000000
11
74.4055442980
21
33.1667080563
31
0.0000000000
11
74.3208836103
21
33.1244029502
31
0.0000000000
11
74.2438555528
21
33.0899456814
31
0.0000000000
0
SPLINE
5
49D
100
AcDbEntity
8
0
100
AcDbSpline
62
0
6
CONTINUOUS
70
0
71
3
72
8
73
4
74
2
42
0.0000001000
43
0.0000001000
44
0.0000000001
12
-0.0453949243
22
-0.0182884354
32
0.0000000000
13
-0.0442471550
23
-0.0180638254
33
0.0000000000
40
0.0000000000
40
0.0000000000
40
0.0000000000
40
0.0000000000
40
1.0000000000
40
1.0000000000
40
1.0000000000
40
1.0000000000
10
74.2438555528
20
33.0899456814
30
0.0000000000
10
74.2287239114
20
33.0838495363
30
0.0000000000
10
74.2135109137
20
33.0778634244
30
0.0000000000
10
74.1987618621
20
33.0718421493
30
0.0000000000
11
74.2438555528
21
33.0899456814
31
0.0000000000
11
74.1987618621
21
33.0718421493
31
0.0000000000
0
SPLINE
5
49E
100
AcDbEntity
8
0
100
AcDbSpline
62
0
6
CONTINUOUS
70
0
71
3
72
8
73
4
74
2
42
0.0000001000
43
0.0000001000
44
0.0000000001
12
0.1716713575
22
0.0062569219
32
0.0000000000
13
0.1671260752
23
0.0420019421
33
0.0000000000
40
0.0000000000
40
0.0000000000
40
0.0000000000
40
0.0000000000
40
1.0000000000
40
1.0000000000
40
1.0000000000
40
1.0000000000
10
44.2806930526
20
-2.9825726038
30
0.0000000000
10
44.3379168385
20
-2.9804869631
30
0.0000000000
10
44.3952390254
20
-2.9736919643
30
0.0000000000
10
44.4509477171
20
-2.9596913169
30
0.0000000000
11
44.2806930526
21
-2.9825726038
31
0.0000000000
11
44.4509477171
21
-2.9596913169
31
0.0000000000
0
SPLINE
5
49F
100
AcDbEntity
8
0
100
AcDbSpline
62
0
6
CONTINUOUS
70
0
71
3
72
8
73
4
74
2
42
0.0000001000
43
0.0000001000
44
0.0000000001
12
0.0744777850
22
0.0187176753
32
0.0000000000
13
0.0710513987
23
0.0290599594
33
0.0000000000
40
0.0000000000
40
0.0000000000
40
0.0000000000
40
0.0000000000
40
1.0000000000
40
1.0000000000
40
1.0000000000
40
1.0000000000
10
44.4509477171
20
-2.9596913169
30
0.0000000000
10
44.4757736455
20
-2.9534520918
30
0.0000000000
10
44.5002791441
20
-2.9457818716
30
0.0000000000
10
44.5239629437
20
-2.9360952184
30
0.0000000000
11
44.4509477171
21
-2.9596913169
31
0.0000000000
11
44.5239629437
21
-2.9360952184
31
0.0000000000
0
SPLINE
5
4A0
100
AcDbEntity
8
0
100
AcDbSpline
62
0
6
CONTINUOUS
70
0
71
3
72
9
73
5
74
3
42
0.0000001000
43
0.0000001000
44
0.0000000001
12
-0.2986067792
22
-0.1219057071
32
0.0000000000
13
-0.3050324194
23
-0.1048540292
33
0.0000000000
40
0.0000000000
40
0.0000000000
40
0.0000000000
40
0.0000000000
40
0.4882929107
40
1.0000000000
40
1.0000000000
40
1.0000000000
40
1.0000000000
10
-73.1987618621
20
-27.1029449297
30
0.0000000000
10
-73.2473643865
20
-27.1227868272
30
0.0000000000
10
-73.3476125990
20
-27.1616858479
30
0.0000000000
10
-73.4488287685
20
-27.1979553293
30
0.0000000000
10
-73.5008578523
20
-27.2158401793
30
0.0000000000
11
-73.1987618621
21
-27.1029449297
31
0.0000000000
11
-73.3454961594
21
-27.1601480983
31
0.0000000000
11
-73.5008578523
21
-27.2158401793
31
0.0000000000
0
SPLINE
5
4A1
100
AcDbEntity
8
0
100
AcDbSpline
62
0
6
CONTINUOUS
70
0
71
3
72
10
73
6
74
4
42
0.0000001000
43
0.0000001000
44
0.0000000001
12
-0.3755080683
22
-0.1290798336
32
0.0000000000
13
-0.3901106021
23
-0.0739137451
33
0.0000000000
40
0.0000000000
40
0.0000000000
40
0.0000000000
40
0.0000000000
40
0.3893107876
40
0.7344925609
40
1.0000000000
40
1.0000000000
40
1.0000000000
40
1.0000000000
10
-73.5008578523
20
-27.2158401793
30
0.0000000000
10
-73.5495876329
20
-27.2325909032
30
0.0000000000
10
-73.6419142511
20
-27.2630773573
30
0.0000000000
10
-73.7687993607
20
-27.3006907749
30
0.0000000000
10
-73.8472488083
20
-27.3205472480
30
0.0000000000
10
-73.8817745639
20
-27.3270887977
30
0.0000000000
11
-73.5008578523
21
-27.2158401793
31
0.0000000000
11
-73.6477056166
21
-27.2641056061
31
0.0000000000
11
-73.7792162208
21
-27.3026928283
31
0.0000000000
11
-73.8817745639
21
-27.3270887977
31
0.0000000000
0
SPLINE
5
4A2
100
AcDbEntity
8
0
100
AcDbSpline
62
0
6
CONTINUOUS
70
0
71
3
72
9
73
5
74
3
42
0.0000001000
43
0.0000001000
44
0.0000000001
12
-0.0000000010
22
0.4881557993
32
0.0000000000
13
-0.3101056315
23
0.3810340804
33
0.0000000000
40
0.0000000000
40
0.0000000000
40
0.0000000000
40
0.0000000000
40
0.5821535324
40
1.0000000000
40
1.0000000000
40
1.0000000000
40
1.0000000000
10
74.4487618621
20
49.3232862845
30
0.0000000000
10
74.4487618619
20
49.4180134921
30
0.0000000000
10
74.4184453225
20
49.5828466260
30
0.0000000000
10
74.3339670600
20
49.7253347615
30
0.0000000000
10
74.2907748791
20
49.7784060097
30
0.0000000000
11
74.4487618621
21
49.3232862845
31
0.0000000000
11
74.3951085448
21
49.6023570933
31
0.0000000000
11
74.2907748791
21
49.7784060097
31
0.0000000000
0
SPLINE
5
4A3
100
AcDbEntity
8
0
100
AcDbSpline
62
0
6
CONTINUOUS
70
0
71
3
72
10
73
6
74
4
42
0.0000001000
43
0.0000001000
44
0.0000000001
12
0.5135438741
22
-0.0973004856
32
0.0000000000
13
0.4855277496
23
0.1992983131
33
0.0000000000
40
0.0000000000
40
0.0000000000
40
0.0000000000
40
0.0000000000
40
0.4194692515
40
0.7813526830
40
1.0000000000
40
1.0000000000
40
1.0000000000
40
1.0000000000
10
-43.5275841613
20
-38.9413176787
30
0.0000000000
10
-43.4557788731
20
-38.9549225327
30
0.0000000000
10
-43.3197664943
20
-38.9699870463
30
0.0000000000
10
-43.1447323792
20
-38.9583299555
30
0.0000000000
10
-43.0465445881
20
-38.9315515502
30
0.0000000000
10
-43.0111581415
20
-38.9170262031
30
0.0000000000
11
-43.5275841613
21
-38.9413176787
31
0.0000000000
11
-43.3095259166
21
-38.9641305051
31
0.0000000000
11
-43.1209920382
21
-38.9488842073
31
0.0000000000
11
-43.0111581415
21
-38.9170262031
31
0.0000000000
0
SPLINE
5
4A4
100
AcDbEntity
8
0
100
AcDbSpline
62
0
6
CONTINUOUS
70
0
71
3
72
8
73
4
74
2
42
0.0000001000
43
0.0000001000
44
0.0000000001
12
-0.2114242323
22
-0.0863135814
32
0.0000000000
13
-0.1927167901
23
-0.1243261621
33
0.0000000000
40
0.0000000000
40
0.0000000000
40
0.0000000000
40
0.0000000000
40
1.0000000000
40
1.0000000000
40
1.0000000000
40
1.0000000000
10
-73.7047313967
20
-9.2458882246
30
0.0000000000
10
-73.7752061408
20
-9.2746594184
30
0.0000000000
10
-73.8430672574
20
-9.3103614623
30
0.0000000000
10
-73.9073061874
20
-9.3518035163
30
0.0000000000
11
-73.7047313967
21
-9.2458882246
31
0.0000000000
11
-73.9073061874
21
-9.3518035163
31
0.0000000000
0
SPLINE
5
4A5
100
AcDbEntity
8
0
100
AcDbSpline
62
0
6
CONTINUOUS
70
0
71
3
72
11
73
7
74
5
42
0.0000001000
43
0.0000001000
44
0.0000000001
12
-0.7450397740
22
-0.4806427903
32
0.0000000000
13
-0.2052631770
23
-0.8649362525
33
0.0000000000
40
0.0000000000
40
0.0000000000
40
0.0000000000
40
0.0000000000
40
0.1280469794
40
0.5118540221
40
0.8851543648
40
1.0000000000
40
1.0000000000
40
1.0000000000
40
1.0000000000
10
-73.9073061874
20
-9.3518035163
30
0.0000000000
10
-73.9391062183
20
-9.3723184688
30
0.0000000000
10
-74.0626752363
20
-9.4599475230
30
0.0000000000
10
-74.2484559857
20
-9.6463620325
30
0.0000000000
10
-74.3762505042
20
-9.8731213924
30
0.0000000000
10
-74.4175625262
20
-10.0120872136
30
0.0000000000
10
-74.4254203861
20
-10.0451985980
30
0.0000000000
11
-73.9073061874
21
-9.3518035163
31
0.0000000000
11
-73.9999210606
21
-9.4174237211
31
0.0000000000
11
-74.2383404672
21
-9.6581976362
31
0.0000000000
11
-74.3964503006
21
-9.9473637727
31
0.0000000000
11
-74.4254203861
21
-10.0451985980
31
0.0000000000
0
SPLINE
5
4A6
100
AcDbEntity
8
0
100
AcDbSpline
62
0
6
CONTINUOUS
70
0
71
3
72
8
73
4
74
2
42
0.0000001000
43
0.0000001000
44
0.0000000001
12
-0.0453433918
22
-0.1910676038
32
0.0000000000
13
0.0000000007
23
-0.1950253287
33
0.0000000000
40
0.0000000000
40
0.0000000000
40
0.0000000000
40
0.0000000000
40
1.0000000000
40
1.0000000000
40
1.0000000000
40
1.0000000000
10
-74.4254203861
20
-10.0451985980
30
0.0000000000
10
-74.4405348501
20
-10.1088877993
30
0.0000000000
10
-74.4487618623
20
-10.1741199205
30
0.0000000000
10
-74.4487618621
20
-10.2391283634
30
0.0000000000
11
-74.4254203861
21
-10.0451985980
31
0.0000000000
11
-74.4487618621
21
-10.2391283634
31
0.0000000000
0
SPLINE
5
4A7
100
AcDbEntity
8
0
100
AcDbSpline
62
0
6
CONTINUOUS
70
0
71
3
72
8
73
4
74
2
42
0.0000001000
43
0.0000001000
44
0.0000000001
12
0.1811186867
22
0.0739413942
32
0.0000000000
13
0.1760903372
23
0.0857678550
33
0.0000000000
40
0.0000000000
40
0.0000000000
40
0.0000000000
40
0.0000000000
40
1.0000000000
40
1.0000000000
40
1.0000000000
40
1.0000000000
10
-67.6818818325
20
-6.7870701863
30
0.0000000000
10
-67.6215089370
20
-6.7624230549
30
0.0000000000
10
-67.5619387907
20
-6.7357151332
30
0.0000000000
10
-67.5032420116
20
-6.7071258482
30
0.0000000000
11
-67.6818818325
21
-6.7870701863
31
0.0000000000
11
-67.5032420116
21
-6.7071258482
31
0.0000000000
0
SPLINE
5
4A8
100
AcDbEntity
8
0
100
AcDbSpline
62
0
6
CONTINUOUS
70
0
71
3
72
8
73
4
74
2
42
0.0000001000
43
0.0000001000
44
0.0000000001
12
0.1819918624
22
0.0886422953
32
0.0000000000
13
0.1761606550
23
0.1001055468
33
0.0000000000
40
0.0000000000
40
0.0000000000
40
0.0000000000
40
0.0000000000
40
1.0000000000
40
1.0000000000
40
1.0000000000
40
1.0000000000
10
-67.5032420116
20
-6.7071258482
30
0.0000000000
10
-67.4425780575
20
-6.6775784164
30
0.0000000000
10
-67.3828469919
20
-6.6460214035
30
0.0000000000
10
-67.3241267736
20
-6.6126528879
30
0.0000000000
11
-67.5032420116
21
-6.7071258482
31
0.0000000000
11
-67.3241267736
21
-6.6126528879
31
0.0000000000
0
SPLINE
5
4A9
100
AcDbEntity
8
0
100
AcDbSpline
62
0
6
CONTINUOUS
70
0
71
3
72
8
73
4
74
2
42
0.0000001000
43
0.0000001000
44
0.0000000001
12
0.1806444538
22
0.1026535229
32
0.0000000000
13
0.1740145006
23
0.1134421012
33
0.0000000000
40
0.0000000000
40
0.0000000000
40
0.0000000000
40
0.0000000000
40
1.0000000000
40
1.0000000000
40
1.0000000000
40
1.0000000000
10
-67.3241267736
20
-6.6126528879
30
0.0000000000
10
-67.2639119557
20
-6.5784350469
30
0.0000000000
10
-67.2047600978
20
-6.5423123137
30
0.0000000000
10
-67.1467552643
20
-6.5044982800
30
0.0000000000
11
-67.3241267736
21
-6.6126528879
31
0.0000000000
11
-67.1467552643
21
-6.5044982800
31
0.0000000000
0
SPLINE
5
4AA
100
AcDbEntity
8
0
100
AcDbSpline
62
0
6
CONTINUOUS
70
0
71
3
72
9
73
5
74
3
42
0.0000001000
43
0.0000001000
44
0.0000000001
12
0.7105674893
22
0.4632273101
32
0.0000000000
13
0.5802712997
23
0.6188493873
33
0.0000000000
40
0.0000000000
40
0.0000000000
40
0.0000000000
40
0.0000000000
40
0.7521938071
40
1.0000000000
40
1.0000000000
40
1.0000000000
40
1.0000000000
10
-67.1467552643
20
-6.5044982800
30
0.0000000000
10
-66.9685937759
20
-6.3883527087
30
0.0000000000
10
-66.7461240164
20
-6.2127311801
30
0.0000000000
10
-66.5462762096
20
-6.0123892716
30
0.0000000000
10
-66.4983446024
20
-5.9612710347
30
0.0000000000
11
-67.1467552643
21
-6.5044982800
31
0.0000000000
11
-66.6467124248
21
-6.1101631760
31
0.0000000000
11
-66.4983446024
21
-5.9612710347
31
0.0000000000
0
SPLINE
5
4AB
100
AcDbEntity
8
0
100
AcDbSpline
62
0
6
CONTINUOUS
70
0
71
3
72
8
73
4
74
2
42
0.0000001000
43
0.0000001000
44
0.0000000001
12
0.2000219911
22
0.2133200224
32
0.0000000000
13
0.1799032044
23
0.2300431591
33
0.0000000000
40
0.0000000000
40
0.0000000000
40
0.0000000000
40
0.0000000000
40
1.0000000000
40
1.0000000000
40
1.0000000000
40
1.0000000000
10
-66.4983446024
20
-5.9612710347
30
0.0000000000
10
-66.4316706054
20
-5.8901643606
30
0.0000000000
10
-66.3680768827
20
-5.8162089201
30
0.0000000000
10
-66.3081091479
20
-5.7395278670
30
0.0000000000
11
-66.4983446024
21
-5.9612710347
31
0.0000000000
11
-66.3081091479
21
-5.7395278670
31
0.0000000000
0
SPLINE
5
4AC
100
AcDbEntity
8
0
100
AcDbSpline
62
0
6
CONTINUOUS
70
0
71
3
72
8
73
4
74
2
42
0.0000001000
43
0.0000001000
44
0.0000000001
12
0.0704374902
22
0.0900687835
32
0.0000000000
13
0.0670041394
23
0.0925535564
33
0.0000000000
40
0.0000000000
40
0.0000000000
40
0.0000000000
40
0.0000000000
40
1.0000000000
40
1.0000000000
40
1.0000000000
40
1.0000000000
10
-66.3081091479
20
-5.7395278670
30
0.0000000000
10
-66.2846299845
20
-5.7095049392
30
0.0000000000
10
-66.2617066694
20
-5.6790641867
30
0.0000000000
10
-66.2393719563
20
-5.6482130012
30
0.0000000000
11
-66.3081091479
21
-5.7395278670
31
0.0000000000
11
-66.2393719563
21
-5.6482130012
31
0.0000000000
0
SPLINE
5
4AD
100
AcDbEntity
8
0
100
AcDbSpline
62
0
6
CONTINUOUS
70
0
71
3
72
8
73
4
74
2
42
0.0000001000
43
0.0000001000
44
0.0000000001
12
-0.2182635380
22
-0.0891057163
32
0.0000000000
13
-0.1977841959
23
-0.1290797980
33
0.0000000000
40
0.0000000000
40
0.0000000000
40
0.0000000000
40
0.0000000000
40
1.0000000000
40
1.0000000000
40
1.0000000000
40
1.0000000000
10
-60.6569262235
20
1.7377101811
30
0.0000000000
10
-60.7296807361
20
1.7080082757
30
0.0000000000
10
-60.7996033645
20
1.6709065998
30
0.0000000000
10
-60.8655314298
20
1.6278800005
30
0.0000000000
11
-60.6569262235
21
1.7377101811
31
0.0000000000
11
-60.8655314298
21
1.6278800005
31
0.0000000000
0
SPLINE
5
4AE
100
AcDbEntity
8
0
100
AcDbSpline
62
0
6
CONTINUOUS
70
0
71
3
72
8
73
4
74
2
42
0.0000001000
43
0.0000001000
44
0.0000000001
12
-0.1315505508
22
-0.0858537683
32
0.0000000000
13
-0.1202368206
23
-0.1009433291
33
0.0000000000
40
0.0000000000
40
0.0000000000
40
0.0000000000
40
0.0000000000
40
1.0000000000
40
1.0000000000
40
1.0000000000
40
1.0000000000
10
-60.8655314298
20
1.6278800005
30
0.0000000000
10
-60.9093816134
20
1.5992620777
30
0.0000000000
10
-60.9514646550
20
1.5680230470
30
0.0000000000
10
-60.9915435952
20
1.5343752706
30
0.0000000000
11
-60.8655314298
21
1.6278800005
31
0.0000000000
11
-60.9915435952
21
1.5343752706
31
0.0000000000
0
SPLINE
5
4AF
100
AcDbEntity
8
0
100
AcDbSpline
62
0
6
CONTINUOUS
70
0
71
3
72
9
73
5
74
3
42
0.0000001000
43
0.0000001000
44
0.0000000001
12
-0.2396142185
22
-0.2011651406
32
0.0000000000
13
-0.1832449713
23
-0.2531182999
33
0.0000000000
40
0.0000000000
40
0.0000000000
40
0.0000000000
40
0.0000000000
40
0.2503616633
40
1.0000000000
40
1.0000000000
40
1.0000000000
40
1.0000000000
10
-60.9915435952
20
1.5343752706
30
0.0000000000
10
-61.0115403333
20
1.5175872575
30
0.0000000000
10
-61.0894190587
20
1.4481371916
30
0.0000000000
10
-61.1588690412
20
1.3695416837
30
0.0000000000
10
-61.2046581930
20
1.3062926233
30
0.0000000000
11
-60.9915435952
21
1.5343752706
31
0.0000000000
11
-61.0500077060
21
1.4822387444
31
0.0000000000
11
-61.2046581930
21
1.3062926233
31
0.0000000000
0
SPLINE
5
4B0
100
AcDbEntity
8
0
100
AcDbSpline
62
0
6
CONTINUOUS
70
0
71
3
72
9
73
5
74
3
42
0.0000001000
43
0.0000001000
44
0.0000000001
12
-0.1282206590
22
0.3383689895
32
0.0000000000
13
0.0004484216
23
0.3625290739
33
0.0000000000
40
0.0000000000
40
0.0000000000
40
0.0000000000
40
0.0000000000
40
0.6278490465
40
1.0000000000
40
1.0000000000
40
1.0000000000
40
1.0000000000
10
-74.3817745639
20
-26.7147163620
30
0.0000000000
10
-74.4086089701
20
-26.6439014796
30
0.0000000000
10
-74.4395496860
20
-26.5261816028
30
0.0000000000
10
-74.4488451272
20
-26.4053064940
30
0.0000000000
10
-74.4487895003
20
-26.3603346472
30
0.0000000000
11
-74.3817745639
21
-26.7147163620
31
0.0000000000
11
-74.4389287214
21
-26.4948370799
31
0.0000000000
11
-74.4487895003
21
-26.3603346472
31
0.0000000000
0
SPLINE
5
4B1
100
AcDbEntity
8
0
100
AcDbSpline
62
0
6
CONTINUOUS
70
0
71
3
72
8
73
4
74
2
42
0.0000001000
43
0.0000001000
44
0.0000000001
12
-0.0667279787
22
0.0376889261
32
0.0000000000
13
-0.0706336220
23
0.0304561447
33
0.0000000000
40
0.0000000000
40
0.0000000000
40
0.0000000000
40
0.0000000000
40
1.0000000000
40
1.0000000000
40
1.0000000000
40
1.0000000000
10
60.5455466260
20
50.8870272062
30
0.0000000000
10
60.5233039665
20
50.8995901816
30
0.0000000000
10
60.5003261302
20
50.9109561329
30
0.0000000000
10
60.4767815896
20
50.9211081811
30
0.0000000000
11
60.5455466260
21
50.8870272062
31
0.0000000000
11
60.4767815896
21
50.9211081811
31
0.0000000000
0
SPLINE
5
4B2
100
AcDbEntity
8
0
100
AcDbSpline
62
0
6
CONTINUOUS
70
0
71
3
72
8
73
4
74
2
42
0.0000001000
43
0.0000001000
44
0.0000000001
12
-0.0727152397
22
0.0313537066
32
0.0000000000
13
-0.0757674014
23
0.0235794212
33
0.0000000000
40
0.0000000000
40
0.0000000000
40
0.0000000000
40
0.0000000000
40
1.0000000000
40
1.0000000000
40
1.0000000000
40
1.0000000000
10
60.4767815896
20
50.9211081811
30
0.0000000000
10
60.4525431763
20
50.9315594167
30
0.0000000000
10
60.4277041642
20
50.9407241458
30
0.0000000000
10
60.4024483637
20
50.9485839529
30
0.0000000000
11
60.4767815896
21
50.9211081811
31
0.0000000000
11
60.4024483637
21
50.9485839529
31
0.0000000000
0
SPLINE
5
4B3
100
AcDbEntity
8
0
100
AcDbSpline
62
0
6
CONTINUOUS
70
0
71
3
72
9
73
5
74
3
42
0.0000001000
43
0.0000001000
44
0.0000000001
12
-0.1601029486
22
0.0498253179
32
0.0000000000
13
-0.1666333584
23
0.0149804732
33
0.0000000000
40
0.0000000000
40
0.0000000000
40
0.0000000000
40
0.0000000000
40
0.4892824043
40
1.0000000000
40
1.0000000000
40
1.0000000000
40
1.0000000000
10
60.4024483637
20
50.9485839529
30
0.0000000000
10
60.3763365118
20
50.9567101700
30
0.0000000000
10
60.3220583013
20
50.9704677351
30
0.0000000000
10
60.2667676341
20
50.9783136408
30
0.0000000000
10
60.2384001047
20
50.9808639046
30
0.0000000000
11
60.4024483637
21
50.9485839529
31
0.0000000000
11
60.3229793858
21
50.9687576039
31
0.0000000000
11
60.2384001047
21
50.9808639046
31
0.0000000000
0
SPLINE
5
4B4
100
AcDbEntity
8
0
100
AcDbSpline
62
0
6
CONTINUOUS
70
0
71
3
72
9
73
5
74
3
42
0.0000001000
43
0.0000001000
44
0.0000000001
12
-0.3681114352
22
0.0330935146
32
0.0000000000
13
-0.3530759057
23
-0.1088006351
33
0.0000000000
40
0.0000000000
40
0.0000000000
40
0.0000000000
40
0.0000000000
40
0.4860331130
40
1.0000000000
40
1.0000000000
40
1.0000000000
40
1.0000000000
10
60.2384001047
20
50.9808639046
30
0.0000000000
10
60.1787619891
20
50.9862254192
30
0.0000000000
10
60.0548795223
20
50.9840091366
30
0.0000000000
10
59.9338612898
20
50.9578868774
30
0.0000000000
10
59.8733715151
20
50.9392469028
30
0.0000000000
11
60.2384001047
21
50.9808639046
31
0.0000000000
11
60.0590166400
21
50.9784237802
31
0.0000000000
11
59.8733715151
21
50.9392469028
31
0.0000000000
0
SPLINE
5
4B5
100
AcDbEntity
8
0
100
AcDbSpline
62
0
6
CONTINUOUS
70
0
71
3
72
8
73
4
74
2
42
0.0000001000
43
0.0000001000
44
0.0000000001
12
-0.0959856822
22
-0.0295780681
32
0.0000000000
13
-0.0926928288
23
-0.0378416891
33
0.0000000000
40
0.0000000000
40
0.0000000000
40
0.0000000000
40
0.0000000000
40
1.0000000000
40
1.0000000000
40
1.0000000000
40
1.0000000000
10
59.8733715151
20
50.9392469028
30
0.0000000000
10
59.8413762877
20
50.9293875468
30
0.0000000000
10
59.8098593581
20
50.9180694526
30
0.0000000000
10
59.7789617485
20
50.9054555562
30
0.0000000000
11
59.8733715151
21
50.9392469028
31
0.0000000000
11
59.7789617485
21
50.9054555562
31
0.0000000000
0
SPLINE
5
4B6
100
AcDbEntity
8
0
100
AcDbSpline
62
0
6
CONTINUOUS
70
0
71
3
72
8
73
4
74
2
42
0.0000001000
43
0.0000001000
44
0.0000000001
12
0.1767301448
22
-0.0998197383
32
0.0000000000
13
0.1999051214
23
-0.0460619699
33
0.0000000000
40
0.0000000000
40
0.0000000000
40
0.0000000000
40
0.0000000000
40
1.0000000000
40
1.0000000000
40
1.0000000000
40
1.0000000000
10
65.5802603906
20
48.0433481546
30
0.0000000000
10
65.6391704389
20
48.0100749085
30
0.0000000000
10
65.7036981799
20
47.9871587178
30
0.0000000000
10
65.7703332204
20
47.9718047278
30
0.0000000000
11
65.5802603906
21
48.0433481546
31
0.0000000000
11
65.7703332204
21
47.9718047278
31
0.0000000000
0
SPLINE
5
4B7
100
AcDbEntity
8
0
100
AcDbSpline
62
0
6
CONTINUOUS
70
0
71
3
72
9
73
5
74
3
42
0.0000001000
43
0.0000001000
44
0.0000000001
12
0.2419416293
22
-0.0557479867
32
0.0000000000
13
0.2464110302
23
-0.0019458276
33
0.0000000000
40
0.0000000000
40
0.0000000000
40
0.0000000000
40
0.0000000000
40
0.4775756042
40
1.0000000000
40
1.0000000000
40
1.0000000000
40
1.0000000000
10
65.7703332204
20
47.9718047278
30
0.0000000000
10
65.8088483603
20
47.9629301016
30
0.0000000000
10
65.8909697203
20
47.9496375372
30
0.0000000000
10
65.9732057545
20
47.9450557034
30
0.0000000000
10
66.0161161323
20
47.9447168541
30
0.0000000000
11
65.7703332204
21
47.9718047278
31
0.0000000000
11
65.8873128313
21
47.9522204226
31
0.0000000000
11
66.0161161323
21
47.9447168541
31
0.0000000000
0
SPLINE
5
4B8
100
AcDbEntity
8
0
100
AcDbSpline
62
0
6
CONTINUOUS
70
0
71
3
72
9
73
5
74
3
42
0.0000001000
43
0.0000001000
44
0.0000000001
12
0.6284392183
22
-0.0049625798
32
0.0000000000
13
0.5960721777
23
0.1972836499
33
0.0000000000
40
0.0000000000
40
0.0000000000
40
0.0000000000
40
0.0000000000
40
0.4622925579
40
1.0000000000
40
1.0000000000
40
1.0000000000
40
1.0000000000
10
66.0161161323
20
47.9447168541
30
0.0000000000
10
66.1129570569
20
47.9439521329
30
0.0000000000
10
66.3218668415
20
47.9649364821
30
0.0000000000
10
66.5250780081
20
48.0175410588
30
0.0000000000
10
66.6319154901
20
48.0529013544
30
0.0000000000
11
66.0161161323
21
47.9447168541
31
0.0000000000
11
66.3048940575
21
47.9701116481
31
0.0000000000
11
66.6319154901
21
48.0529013544
31
0.0000000000
0
SPLINE
5
4B9
100
AcDbEntity
8
0
100
AcDbSpline
62
0
6
CONTINUOUS
70
0
71
3
72
8
73
4
74
2
42
0.0000001000
43
0.0000001000
44
0.0000000001
12
0.1742838867
22
0.0576832179
32
0.0000000000
13
0.1695939539
23
0.0692364418
33
0.0000000000
40
0.0000000000
40
0.0000000000
40
0.0000000000
40
0.0000000000
40
1.0000000000
40
1.0000000000
40
1.0000000000
40
1.0000000000
10
66.6319154901
20
48.0529013544
30
0.0000000000
10
66.6900101190
20
48.0721290937
30
0.0000000000
10
66.7473860416
20
48.0934486116
30
0.0000000000
10
66.8039173595
20
48.1165274255
30
0.0000000000
11
66.6319154901
21
48.0529013544
31
0.0000000000
11
66.8039173595
21
48.1165274255
31
0.0000000000
0
SPLINE
5
4BA
100
AcDbEntity
8
0
100
AcDbSpline
62
0
6
CONTINUOUS
70
0
71
3
72
9
73
5
74
3
42
0.0000001000
43
0.0000001000
44
0.0000000001
12
-0.3021331976
22
0.3700360842
32
0.0000000000
13
-0.4683209121
23
0.1031875522
33
0.0000000000
40
0.0000000000
40
0.0000000000
40
0.0000000000
40
0.0000000000
40
0.4841839373
40
1.0000000000
40
1.0000000000
40
1.0000000000
40
1.0000000000
10
73.7903458294
20
50.3913375553
30
0.0000000000
10
73.7415831490
20
50.4510593981
30
0.0000000000
10
73.6188608633
20
50.5580150784
30
0.0000000000
10
73.4679329886
20
50.6174319112
30
0.0000000000
10
73.3874105056
20
50.6351738435
30
0.0000000000
11
73.7903458294
21
50.3913375553
31
0.0000000000
11
73.6161304786
21
50.5434871167
31
0.0000000000
11
73.3874105056
21
50.6351738435
31
0.0000000000
0
SPLINE
5
4BB
100
AcDbEntity
8
0
100
AcDbSpline
62
0
6
CONTINUOUS
70
0
71
3
72
9
73
5
74
3
42
0.0000001000
43
0.0000001000
44
0.0000000001
12
-0.4585426499
22
0.1010330575
32
0.0000000000
13
-0.4487654193
23
-0.1372333457
33
0.0000000000
40
0.0000000000
40
0.0000000000
40
0.0000000000
40
0.0000000000
40
0.5842351100
40
1.0000000000
40
1.0000000000
40
1.0000000000
40
1.0000000000
10
73.3874105056
20
50.6351738435
30
0.0000000000
10
73.2981116004
20
50.6548495300
30
0.0000000000
10
73.1396403896
20
50.6613584749
30
0.0000000000
10
72.9857254757
20
50.6288866249
30
0.0000000000
10
72.9235318407
20
50.6098676892
30
0.0000000000
11
73.3874105056
21
50.6351738435
31
0.0000000000
11
73.1144979137
21
50.6491496977
31
0.0000000000
11
72.9235318407
21
50.6098676892
31
0.0000000000
0
SPLINE
5
4BC
100
AcDbEntity
8
0
100
AcDbSpline
62
0
6
CONTINUOUS
70
0
71
3
72
8
73
4
74
2
42
0.0000001000
43
0.0000001000
44
0.0000000001
12
-0.0984146715
22
-0.0300953997
32
0.0000000000
13
-0.0949667783
23
-0.0387700252
33
0.0000000000
40
0.0000000000
40
0.0000000000
40
0.0000000000
40
0.0000000000
40
1.0000000000
40
1.0000000000
40
1.0000000000
40
1.0000000000
10
72.9235318407
20
50.6098676892
30
0.0000000000
10
72.8907269501
20
50.5998358894
30
0.0000000000
10
72.8584225133
20
50.5882688042
30
0.0000000000
10
72.8267669205
20
50.5753454625
30
0.0000000000
11
72.9235318407
21
50.6098676892
31
0.0000000000
11
72.8267669205
21
50.5753454625
31
0.0000000000
0
SPLINE
5
4BD
100
AcDbEntity
8
0
100
AcDbSpline
62
0
6
CONTINUOUS
70
0
71
3
72
11
73
7
74
5
42
0.0000001000
43
0.0000001000
44
0.0000000001
12
0.0116696452
22
0.5573571527
32
0.0000000000
13
-0.3537755702
23
0.4334070770
33
0.0000000000
40
0.0000000000
40
0.0000000000
40
0.0000000000
40
0.0000000000
40
0.3043648881
40
0.5334103384
40
0.8391984537
40
1.0000000000
40
1.0000000000
40
1.0000000000
40
1.0000000000
10
-28.4250551275
20
-14.6443092633
30
0.0000000000
10
-28.4238711841
20
-14.5877626141
30
0.0000000000
10
-28.4267099732
20
-14.4883691136
30
0.0000000000
10
-28.4550690001
20
-14.3341330878
30
0.0000000000
10
-28.5077639817
20
-14.2150084075
30
0.0000000000
10
-28.5566726064
20
-14.1419962031
30
0.0000000000
10
-28.5756351593
20
-14.1187653604
30
0.0000000000
11
-28.4250551275
21
-14.6443092633
31
0.0000000000
11
-28.4320554170
21
-14.4747766021
31
0.0000000000
11
-28.4565912859
21
-14.3494680163
31
0.0000000000
11
-28.5245727042
21
-14.1931390878
31
0.0000000000
11
-28.5756351593
21
-14.1187653604
31
0.0000000000
0
SPLINE
5
4BE
100
AcDbEntity
8
0
100
AcDbSpline
62
0
6
CONTINUOUS
70
0
71
3
72
8
73
4
74
2
42
0.0000001000
43
0.0000001000
44
0.0000000001
12
0.0438992067
22
0.0177571554
32
0.0000000000
13
0.0434478608
23
0.0188807157
33
0.0000000000
40
0.0000000000
40
0.0000000000
40
0.0000000000
40
0.0000000000
40
1.0000000000
40
1.0000000000
40
1.0000000000
40
1.0000000000
10
-29.4802529239
20
-16.1003967925
30
0.0000000000
10
-29.4656198550
20
-16.0944777407
30
0.0000000000
10
-29.4510600199
20
-16.0883697043
30
0.0000000000
10
-29.4365773996
20
-16.0820761324
30
0.0000000000
11
-29.4802529239
21
-16.1003967925
31
0.0000000000
11
-29.4365773996
21
-16.0820761324
31
0.0000000000
0
SPLINE
5
4BF
100
AcDbEntity
8
0
100
AcDbSpline
62
0
6
CONTINUOUS
70
0
71
3
72
8
73
4
74
2
42
0.0000001000
43
0.0000001000
44
0.0000000001
12
0.0831537516
22
0.0361353198
32
0.0000000000
13
0.0813730335
23
0.0401403852
33
0.0000000000
40
0.0000000000
40
0.0000000000
40
0.0000000000
40
0.0000000000
40
1.0000000000
40
1.0000000000
40
1.0000000000
40
1.0000000000
10
-29.4365773996
20
-16.0820761324
30
0.0000000000
10
-29.4088594824
20
-16.0700310258
30
0.0000000000
10
-29.3814243968
20
-16.0573063184
30
0.0000000000
10
-29.3543000523
20
-16.0439261900
30
0.0000000000
11
-29.4365773996
21
-16.0820761324
31
0.0000000000
11
-29.3543000523
21
-16.0439261900
31
0.0000000000
0
SPLINE
5
4C0
100
AcDbEntity
8
0
100
AcDbSpline
62
0
6
CONTINUOUS
70
0
71
3
72
8
73
4
74
2
42
0.0000001000
43
0.0000001000
44
0.0000000001
12
0.1207340031
22
0.0595567006
32
0.0000000000
13
0.1163561423
23
0.0679768179
33
0.0000000000
40
0.0000000000
40
0.0000000000
40
0.0000000000
40
0.0000000000
40
1.0000000000
40
1.0000000000
40
1.0000000000
40
1.0000000000
10
-29.3543000523
20
-16.0439261900
30
0.0000000000
10
-29.3140553846
20
-16.0240739564
30
0.0000000000
10
-29.2744947810
20
-16.0027788816
30
0.0000000000
10
-29.2357094003
20
-15.9801199423
30
0.0000000000
11
-29.3543000523
21
-16.0439261900
31
0.0000000000
11
-29.2357094003
21
-15.9801199423
31
0.0000000000
0
SPLINE
5
4C1
100
AcDbEntity
8
0
100
AcDbSpline
62
0
6
CONTINUOUS
70
0
71
3
72
15
73
11
74
9
42
0.0000001000
43
0.0000001000
44
0.0000000001
12
1.4164348780
22
0.8275002402
32
0.0000000000
13
-0.0348615005
23
1.6365654728
33
0.0000000000
40
0.0000000000
40
0.0000000000
40
0.0000000000
40
0.0000000000
40
0.0434319280
40
0.2435212948
40
0.3879953388
40
0.5291553779
40
0.6669003458
40
0.8028105656
40
0.8928558891
40
1.0000000000
40
1.0000000000
40
1.0000000000
40
1.0000000000
10
-29.2357094003
20
-15.9801199423
30
0.0000000000
10
-29.2152032344
20
-15.9681399654
30
0.0000000000
10
-29.1014409131
20
-15.8988310287
30
0.0000000000
10
-28.9317159381
20
-15.7698914775
30
0.0000000000
10
-28.7536687947
20
-15.5727125047
30
0.0000000000
10
-28.6170068066
20
-15.3852315397
30
0.0000000000
10
-28.5210079089
20
-15.1792074558
30
0.0000000000
10
-28.4577651279
20
-14.9903818409
30
0.0000000000
10
-28.4275571995
20
-14.8106385076
30
0.0000000000
10
-28.4238100594
20
-14.7027587141
30
0.0000000000
10
-28.4250551275
20
-14.6443092633
30
0.0000000000
11
-29.2357094003
21
-15.9801199423
31
0.0000000000
11
-29.1748544758
21
-15.9430479489
31
0.0000000000
11
-28.9156232711
21
-15.7428543818
31
0.0000000000
11
-28.7556526553
21
-15.5686727941
31
0.0000000000
11
-28.6224318239
21
-15.3798724242
31
0.0000000000
11
-28.5245727042
21
-15.1767351999
31
0.0000000000
11
-28.4565912859
21
-14.9648996757
31
0.0000000000
11
-28.4320554170
21
-14.8195576368
31
0.0000000000
11
-28.4250551275
21
-14.6443092633
31
0.0000000000
0
SPLINE
5
4C2
100
AcDbEntity
8
0
100
AcDbSpline
62
0
6
CONTINUOUS
70
0
71
3
72
8
73
4
74
2
42
0.0000001000
43
0.0000001000
44
0.0000000001
12
0.1678312439
22
0.0651406990
32
0.0000000000
13
0.1773449270
23
0.0334063981
33
0.0000000000
40
0.0000000000
40
0.0000000000
40
0.0000000000
40
0.0000000000
40
1.0000000000
40
1.0000000000
40
1.0000000000
40
1.0000000000
10
-29.4888857476
20
-14.2902966320
30
0.0000000000
10
-29.4329419996
20
-14.2685830657
30
0.0000000000
10
-29.3751170803
20
-14.2511579321
30
0.0000000000
10
-29.3160021047
20
-14.2400224660
30
0.0000000000
11
-29.4888857476
21
-14.2902966320
31
0.0000000000
11
-29.3160021047
21
-14.2400224660
31
0.0000000000
0
SPLINE
5
4C3
100
AcDbEntity
8
0
100
AcDbSpline
62
0
6
CONTINUOUS
70
0
71
3
72
13
73
9
74
7
42
0.0000001000
43
0.0000001000
44
0.0000000001
12
0.4038188923
22
0.0760672150
32
0.0000000000
13
0.3118113483
23
-0.2685355405
33
0.0000000000
40
0.0000000000
40
0.0000000000
40
0.0000000000
40
0.0000000000
40
0.0156941946
40
0.3588308972
40
0.5637606979
40
0.7540999870
40
0.9918785548
40
1.0000000000
40
1.0000000000
40
1.0000000000
40
1.0000000000
10
-29.3160021047
20
-14.2400224660
30
0.0000000000
10
-29.3138895672
20
-14.2396245281
30
0.0000000000
10
-29.2655510007
20
-14.2307097564
30
0.0000000000
10
-29.1882751391
20
-14.2233757566
30
0.0000000000
10
-29.0874757892
20
-14.2342998148
30
0.0000000000
10
-29.0041011419
20
-14.2593590893
30
0.0000000000
10
-28.9523811432
20
-14.2908171241
30
0.0000000000
10
-28.9267070621
20
-14.3126929095
30
0.0000000000
10
-28.9258629425
20
-14.3134198750
30
0.0000000000
11
-29.3160021047
21
-14.2400224660
31
0.0000000000
11
-29.3096595769
21
-14.2388528407
31
0.0000000000
11
-29.1694517099
21
-14.2275508553
31
0.0000000000
11
-29.0859946535
21
-14.2371496441
31
0.0000000000
11
-29.0114614313
21
-14.2602337425
31
0.0000000000
11
-28.9284067554
21
-14.3112524273
31
0.0000000000
11
-28.9258629425
21
-14.3134198750
31
0.0000000000
0
SPLINE
5
4C4
100
AcDbEntity
8
0
100
AcDbSpline
62
0
6
CONTINUOUS
70
0
71
3
72
8
73
4
74
2
42
0.0000001000
43
0.0000001000
44
0.0000000001
12
0.0429315773
22
-0.0369731711
32
0.0000000000
13
0.0358341383
23
-0.0438663043
33
0.0000000000
40
0.0000000000
40
0.0000000000
40
0.0000000000
40
0.0000000000
40
1.0000000000
40
1.0000000000
40
1.0000000000
40
1.0000000000
10
-28.9258629425
20
-14.3134198750
30
0.0000000000
10
-28.9115524167
20
-14.3257442654
30
0.0000000000
10
-28.8983424720
20
-14.3393518340
30
0.0000000000
10
-28.8863977593
20
-14.3539739354
30
0.0000000000
11
-28.9258629425
21
-14.3134198750
31
0.0000000000
11
-28.8863977593
21
-14.3539739354
31
0.0000000000
0
SPLINE
5
4C5
100
AcDbEntity
8
0
100
AcDbSpline
62
0
6
CONTINUOUS
70
0
71
3
72
12
73
8
74
6
42
0.0000001000
43
0.0000001000
44
0.0000000001
12
-2.5063021799
22
-1.0231935803
32
0.0000000000
13
-1.1129733282
23
-2.4725898810
33
0.0000000000
40
0.0000000000
40
0.0000000000
40
0.0000000000
40
0.0000000000
40
0.2282449848
40
0.4641318921
40
0.6977182809
40
0.9194051566
40
1.0000000000
40
1.0000000000
40
1.0000000000
40
1.0000000000
10
45.9663336987
20
21.5460016159
30
0.0000000000
10
45.7756500644
20
21.4681553482
30
0.0000000000
10
45.4021200846
20
21.2733722223
30
0.0000000000
10
44.8959931085
20
20.8947847653
30
0.0000000000
10
44.4595181786
20
20.4454801613
30
0.0000000000
10
44.1837894279
20
20.0450153602
30
0.0000000000
10
44.0610540612
20
19.8006425023
30
0.0000000000
10
44.0311540908
20
19.7342165042
30
0.0000000000
11
45.9663336987
21
21.5460016159
31
0.0000000000
11
45.4171812220
21
21.2627805619
31
0.0000000000
11
44.9054525790
21
20.8807995660
31
0.0000000000
11
44.4660212312
21
20.4260900020
31
0.0000000000
11
44.1288336987
21
19.9296395753
31
0.0000000000
11
44.0311540908
21
19.7342165042
31
0.0000000000
0
SPLINE
5
4C6
100
AcDbEntity
8
0
100
AcDbSpline
62
0
6
CONTINUOUS
70
0
71
3
72
8
73
4
74
2
42
0.0000001000
43
0.0000001000
44
0.0000000001
12
0.4526471803
22
0.1847924375
32
0.0000000000
13
0.4781510515
23
0.1071814851
33
0.0000000000
40
0.0000000000
40
0.0000000000
40
0.0000000000
40
0.0000000000
40
1.0000000000
40
1.0000000000
40
1.0000000000
40
1.0000000000
10
-44.9663336987
20
-15.5771043963
30
0.0000000000
10
-44.8154513053
20
-15.5155069172
30
0.0000000000
10
-44.6595439420
20
-15.4648435155
30
0.0000000000
10
-44.5001602581
20
-15.4291163538
30
0.0000000000
11
-44.9663336987
21
-15.5771043963
31
0.0000000000
11
-44.5001602581
21
-15.4291163538
31
0.0000000000
0
SPLINE
5
4C7
100
AcDbEntity
8
0
100
AcDbSpline
62
0
6
CONTINUOUS
70
0
71
3
72
12
73
8
74
6
42
0.0000001000
43
0.0000001000
44
0.0000000001
12
-0.2980292758
22
0.1683312395
32
0.0000000000
13
-0.3168914038
23
-0.1293703738
33
0.0000000000
40
0.0000000000
40
0.0000000000
40
0.0000000000
40
0.0000000000
40
0.1591771509
40
0.3417375317
40
0.5467685904
40
0.7691597116
40
1.0000000000
40
1.0000000000
40
1.0000000000
40
1.0000000000
10
61.0496509611
20
49.5331120069
30
0.0000000000
10
61.0338378107
20
49.5420435026
30
0.0000000000
10
60.9973287574
20
49.5568824166
30
0.0000000000
10
60.9353540574
20
49.5670919223
30
0.0000000000
10
60.8654129482
20
49.5650572968
30
0.0000000000
10
60.7914210384
20
49.5506949844
30
0.0000000000
10
60.7423277546
20
49.5339414850
30
0.0000000000
10
60.7179439870
20
49.5239868536
30
0.0000000000
11
61.0496509611
21
49.5331120069
31
0.0000000000
11
60.9993439349
21
49.5540320732
31
0.0000000000
11
60.9377880910
21
49.5647799122
31
0.0000000000
11
60.8676253451
21
49.5632973688
31
0.0000000000
11
60.7928166970
21
49.5492265568
31
0.0000000000
11
60.7179439870
21
49.5239868536
31
0.0000000000
0
SPLINE
5
4C8
100
AcDbEntity
8
0
100
AcDbSpline
62
0
6
CONTINUOUS
70
0
71
3
72
17
73
13
74
11
42
0.0000001000
43
0.0000001000
44
0.0000000001
12
-1.5860477425
22
-0.6475012795
32
0.0000000000
13
-1.4916424190
23
0.8425011823
33
0.0000000000
40
0.0000000000
40
0.0000000000
40
0.0000000000
40
0.0000000000
40
0.1082817875
40
0.2211026021
40
0.3355362128
40
0.4488302171
40
0.5585362949
40
0.6626187591
40
0.7595934503
40
0.8484931033
40
0.9287479558
40
1.0000000000
40
1.0000000000
40
1.0000000000
40
1.0000000000
10
67.7428995960
20
46.7350587221
30
0.0000000000
10
67.6856529012
20
46.7116878568
30
0.0000000000
10
67.5674068295
20
46.6671962221
30
0.0000000000
10
67.3841735281
20
46.6107339042
30
0.0000000000
10
67.1946692946
20
46.5663139808
30
0.0000000000
10
67.0040383903
20
46.5368166137
30
0.0000000000
10
66.8174492242
20
46.5240240079
30
0.0000000000
10
66.6397632025
20
46.5284601772
30
0.0000000000
10
66.4752013719
20
46.5493335226
30
0.0000000000
10
66.3270610421
20
46.5846119944
30
0.0000000000
10
66.1976189972
20
46.6311653018
30
0.0000000000
10
66.1197922495
20
46.6694229782
30
0.0000000000
10
66.0843647256
20
46.6894329553
30
0.0000000000
11
67.7428995960
21
46.7350587221
31
0.0000000000
11
67.5692356508
21
46.6698569823
31
0.0000000000
11
67.3844730558
21
46.6131246315
31
0.0000000000
11
67.1935477721
21
46.5686390995
31
0.0000000000
11
67.0016935913
21
46.5392833588
31
0.0000000000
11
66.8141675185
21
46.5268094938
31
0.0000000000
11
66.6359272950
21
46.5316712587
31
0.0000000000
11
66.4711694863
21
46.5529794794
31
0.0000000000
11
66.3231001198
21
46.5886118329
31
0.0000000000
11
66.1938235842
21
46.6354113303
31
0.0000000000
11
66.0843647256
21
46.6894329553
31
0.0000000000
0
SPLINE
5
4C9
100
AcDbEntity
8
0
100
AcDbSpline
62
0
6
CONTINUOUS
70
0
71
3
72
14
73
10
74
8
42
0.0000001000
43
0.0000001000
44
0.0000000001
12
0.0000000000
22
0.5634485840
32
0.0000000000
13
-0.5216520242
23
-0.2129635471
33
0.0000000000
40
0.0000000000
40
0.0000000000
40
0.0000000000
40
0.0000000000
40
0.1190273389
40
0.2405279203
40
0.3672622343
40
0.5060339523
40
0.6609210422
40
0.8287639869
40
1.0000000000
40
1.0000000000
40
1.0000000000
40
1.0000000000
10
74.1987618621
20
49.0171000650
30
0.0000000000
10
74.1987618621
20
49.0394553269
30
0.0000000000
10
74.1935064376
20
49.0849393789
30
0.0000000000
10
74.1644356547
20
49.1490484314
30
0.0000000000
10
74.1106013018
20
49.2005979110
30
0.0000000000
10
74.0361329443
20
49.2311870399
30
0.0000000000
10
73.9488048097
20
49.2389484837
30
0.0000000000
10
73.8563395743
20
49.2259270752
30
0.0000000000
10
73.7955243644
20
49.2060324366
30
0.0000000000
10
73.7657491602
20
49.1938767603
30
0.0000000000
11
74.1987618621
21
49.0171000650
31
0.0000000000
11
74.1901850643
21
49.0836151621
31
0.0000000000
11
74.1612847935
21
49.1456752482
31
0.0000000000
11
74.1099748400
21
49.1953384102
31
0.0000000000
11
74.0381950281
21
49.2263456440
31
0.0000000000
11
73.9514077808
21
49.2355209202
31
0.0000000000
11
73.8576256934
21
49.2233320134
31
0.0000000000
11
73.7657491602
21
49.1938767603
31
0.0000000000
0
SPLINE
5
4CA
100
AcDbEntity
8
0
100
AcDbSpline
62
0
6
CONTINUOUS
70
0
71
3
72
8
73
4
74
2
42
0.0000001000
43
0.0000001000
44
0.0000000001
12
0.0002252746
22
-0.1909007877
32
0.0000000000
13
0.1195613353
23
-0.1464321293
33
0.0000000000
40
0.0000000000
40
0.0000000000
40
0.0000000000
40
0.0000000000
40
1.0000000000
40
1.0000000000
40
1.0000000000
40
1.0000000000
10
-74.4487618612
20
-10.2391283625
30
0.0000000000
10
-74.4486867696
20
-10.3027619583
30
0.0000000000
10
-74.4216283424
20
-10.3670943459
30
0.0000000000
10
-74.3817745639
20
-10.4159050556
30
0.0000000000
11
-74.4487618612
21
-10.2391283625
31
0.0000000000
11
-74.3817745639
21
-10.4159050556
31
0.0000000000
0
SPLINE
5
4CB
100
AcDbEntity
8
0
100
AcDbSpline
62
0
6
CONTINUOUS
70
0
71
3
72
8
73
4
74
2
42
0.0000001000
43
0.0000001000
44
0.0000000001
12
0.1135421032
22
-0.1506855034
32
0.0000000000
13
0.1463466315
23
-0.1201956770
33
0.0000000000
40
0.0000000000
40
0.0000000000
40
0.0000000000
40
0.0000000000
40
1.0000000000
40
1.0000000000
40
1.0000000000
40
1.0000000000
10
-73.8956245587
20
-27.4985807497
30
0.0000000000
10
-73.8577771910
20
-27.5488092509
30
0.0000000000
10
-73.8145577657
20
-27.5953992939
30
0.0000000000
10
-73.7657755553
20
-27.6354645196
30
0.0000000000
11
-73.8956245587
21
-27.4985807497
31
0.0000000000
11
-73.7657755553
21
-27.6354645196
31
0.0000000000
0
SPLINE
5
4CC
100
AcDbEntity
8
0
100
AcDbSpline
62
0
6
CONTINUOUS
70
0
71
3
72
8
73
4
74
2
42
0.0000001000
43
0.0000001000
44
0.0000000001
12
0.0450043703
22
-0.0369624549
32
0.0000000000
13
0.0481227042
23
-0.0328007577
33
0.0000000000
40
0.0000000000
40
0.0000000000
40
0.0000000000
40
0.0000000000
40
1.0000000000
40
1.0000000000
40
1.0000000000
40
1.0000000000
10
-73.7657755553
20
-27.6354645196
30
0.0000000000
10
-73.7507740985
20
-27.6477853379
30
0.0000000000
10
-73.7352465806
20
-27.6594891176
30
0.0000000000
10
-73.7192056792
20
-27.6704227036
30
0.0000000000
11
-73.7657755553
21
-27.6354645196
31
0.0000000000
11
-73.7192056792
21
-27.6704227036
31
0.0000000000
0
SPLINE
5
4CD
100
AcDbEntity
8
0
100
AcDbSpline
62
0
6
CONTINUOUS
70
0
71
3
72
10
73
6
74
4
42
0.0000001000
43
0.0000001000
44
0.0000000001
12
0.3229507784
22
-0.2201254149
32
0.0000000000
13
0.3604933427
23
0.1471707909
33
0.0000000000
40
0.0000000000
40
0.0000000000
40
0.0000000000
40
0.0000000000
40
0.2810880282
40
0.6575740295
40
1.0000000000
40
1.0000000000
40
1.0000000000
40
1.0000000000
10
-73.7192056792
20
-27.6704227036
30
0.0000000000
10
-73.6889464800
20
-27.6910475765
30
0.0000000000
10
-73.6138847897
20
-27.7328856614
30
0.0000000000
10
-73.4852395747
20
-27.7651448397
30
0.0000000000
10
-73.3899092896
20
-27.7492043643
30
0.0000000000
10
-73.3487618621
20
-27.7324059973
30
0.0000000000
11
-73.7192056792
21
-27.6704227036
31
0.0000000000
11
-73.6230326767
21
-27.7230472413
31
0.0000000000
11
-73.4800774823
21
-27.7555116514
31
0.0000000000
11
-73.3487618621
21
-27.7324059973
31
0.0000000000
0
SPLINE
5
4CE
100
AcDbEntity
8
0
100
AcDbSpline
62
0
6
CONTINUOUS
70
0
71
3
72
8
73
4
74
2
42
0.0000001000
43
0.0000001000
44
0.0000000001
12
0.3499051608
22
0.1428481837
32
0.0000000000
13
0.3734214524
23
0.0694667841
33
0.0000000000
40
0.0000000000
40
0.0000000000
40
0.0000000000
40
0.0000000000
40
1.0000000000
40
1.0000000000
40
1.0000000000
40
1.0000000000
10
-45.2663336987
20
-15.8107216989
30
0.0000000000
10
-45.1496986451
20
-15.7631056377
30
0.0000000000
10
-45.0283936465
20
-15.7252867541
30
0.0000000000
10
-44.9039198290
20
-15.7021311594
30
0.0000000000
11
-45.2663336987
21
-15.8107216989
31
0.0000000000
11
-44.9039198290
21
-15.7021311594
31
0.0000000000
0
SPLINE
5
4CF
100
AcDbEntity
8
0
100
AcDbSpline
62
0
6
CONTINUOUS
70
0
71
3
72
9
73
5
74
3
42
0.0000001000
43
0.0000001000
44
0.0000000001
12
0.3237983226
22
0.0602355007
32
0.0000000000
13
0.3308432350
23
-0.0190491595
33
0.0000000000
40
0.0000000000
40
0.0000000000
40
0.0000000000
40
0.0000000000
40
0.5129708537
40
1.0000000000
40
1.0000000000
40
1.0000000000
40
1.0000000000
10
-44.9039198290
20
-15.7021311594
30
0.0000000000
10
-44.8485534617
20
-15.6918314740
30
0.0000000000
10
-44.7393984917
20
-15.6774085224
30
0.0000000000
10
-44.6283629757
20
-15.6756380825
30
0.0000000000
10
-44.5746528763
20
-15.6787305811
30
0.0000000000
11
-44.9039198290
21
-15.7021311594
31
0.0000000000
11
-44.7360719802
21
-15.6803637369
31
0.0000000000
11
-44.5746528763
21
-15.6787305811
31
0.0000000000
0
SPLINE
5
4D0
100
AcDbEntity
8
0
100
AcDbSpline
62
0
6
CONTINUOUS
70
0
71
3
72
10
73
6
74
4
42
0.0000001000
43
0.0000001000
44
0.0000000001
12
1.0956582105
22
-0.0630853702
32
0.0000000000
13
0.0000000000
23
-1.0853052716
33
0.0000000000
40
0.0000000000
40
0.0000000000
40
0.0000000000
40
0.0000000000
40
0.2710249745
40
0.6278360516
40
1.0000000000
40
1.0000000000
40
1.0000000000
40
1.0000000000
10
-44.5746528763
20
-15.6787305811
30
0.0000000000
10
-44.4756692967
20
-15.6844298181
30
0.0000000000
10
-44.2492622657
20
-15.7287473167
30
0.0000000000
10
-43.9428352908
20
-15.9651578966
30
0.0000000000
10
-43.8806930526
20
-16.2417699589
30
0.0000000000
10
-43.8806930526
20
-16.3764071239
30
0.0000000000
11
-44.5746528763
21
-15.6787305811
31
0.0000000000
11
-44.2865378016
21
-15.7420925488
31
0.0000000000
11
-43.9861686664
21
-15.9865104828
31
0.0000000000
11
-43.8806930526
21
-16.3764071239
31
0.0000000000
0
SPLINE
5
4D1
100
AcDbEntity
8
0
100
AcDbSpline
62
0
6
CONTINUOUS
70
0
71
3
72
10
73
6
74
4
42
0.0000001000
43
0.0000001000
44
0.0000000001
12
0.0000000000
22
-0.1379650745
32
0.0000000000
13
0.1323010589
23
0.0559580230
33
0.0000000000
40
0.0000000000
40
0.0000000000
40
0.0000000000
40
0.0000000000
40
0.5793990308
40
0.8775567714
40
1.0000000000
40
1.0000000000
40
1.0000000000
40
1.0000000000
10
-43.9905006738
20
-38.9400484791
30
0.0000000000
10
-43.9905006738
20
-38.9666940893
30
0.0000000000
10
-43.9918227236
20
-39.0024669884
30
0.0000000000
10
-43.9696776542
20
-39.0581825450
30
0.0000000000
10
-43.9516487249
20
-39.0548863702
30
0.0000000000
10
-43.9462489353
20
-39.0526024765
30
0.0000000000
11
-43.9905006738
21
-38.9400484791
31
0.0000000000
11
-43.9831986691
21
-39.0196511022
31
0.0000000000
11
-43.9614071546
21
-39.0545401737
31
0.0000000000
11
-43.9462489353
21
-39.0526024765
31
0.0000000000
0
SPLINE
5
4D2
100
AcDbEntity
8
0
100
AcDbSpline
62
0
6
CONTINUOUS
70
0
71
3
72
9
73
5
74
3
42
0.0000001000
43
0.0000001000
44
0.0000000001
12
0.2204169457
22
0.0673757342
32
0.0000000000
13
0.1412316929
23
-0.1729727916
33
0.0000000000
40
0.0000000000
40
0.0000000000
40
0.0000000000
40
0.0000000000
40
0.2668559406
40
1.0000000000
40
1.0000000000
40
1.0000000000
40
1.0000000000
10
-73.7030310558
20
-9.2514508199
30
0.0000000000
10
-73.6834245320
20
-9.2454576149
30
0.0000000000
10
-73.5985951337
20
-9.2435495076
30
0.0000000000
10
-73.5502635524
20
-9.3129735590
30
0.0000000000
10
-73.5157491602
20
-9.3552448839
30
0.0000000000
11
-73.7030310558
21
-9.2514508199
31
0.0000000000
11
-73.6407491602
21
-9.2495189477
31
0.0000000000
11
-73.5157491602
21
-9.3552448839
31
0.0000000000
0
SPLINE
5
4D3
100
AcDbEntity
8
0
100
AcDbSpline
62
0
6
CONTINUOUS
70
0
71
3
72
11
73
7
74
5
42
0.0000001000
43
0.0000001000
44
0.0000000001
12
0.0125949046
22
0.3862575076
32
0.0000000000
13
-0.1808734611
23
0.3420077169
33
0.0000000000
40
0.0000000000
40
0.0000000000
40
0.0000000000
40
0.0000000000
40
0.3444965388
40
0.7447586314
40
0.9183412787
40
1.0000000000
40
1.0000000000
40
1.0000000000
40
1.0000000000
10
-28.8741659976
20
-14.6643586920
30
0.0000000000
10
-28.8727196972
20
-14.6200039005
30
0.0000000000
10
-28.8764062994
20
-14.5237435320
30
0.0000000000
10
-28.9009454629
20
-14.4072562935
30
0.0000000000
10
-28.9295648468
20
-14.3276756400
30
0.0000000000
10
-28.9437986603
20
-14.2979654512
30
0.0000000000
10
-28.9487219589
20
-14.2886561469
30
0.0000000000
11
-28.8741659976
21
-14.6643586920
31
0.0000000000
11
-28.8795995009
21
-14.5313345181
31
0.0000000000
11
-28.9117317399
21
-14.3800222448
31
0.0000000000
11
-28.9350073508
21
-14.3171063771
31
0.0000000000
11
-28.9487219589
21
-14.2886561469
31
0.0000000000
0
SPLINE
5
4D4
100
AcDbEntity
8
0
100
AcDbSpline
62
0
6
CONTINUOUS
70
0
71
3
72
14
73
10
74
8
42
0.0000001000
43
0.0000001000
44
0.0000000001
12
1.2644378067
22
0.5416404545
32
0.0000000000
13
-0.0460547730
23
1.3747931423
33
0.0000000000
40
0.0000000000
40
0.0000000000
40
0.0000000000
40
0.0000000000
40
0.1474284790
40
0.2739800636
40
0.4383177695
40
0.6425304367
40
0.7688219537
40
0.8999916231
40
1.0000000000
40
1.0000000000
40
1.0000000000
40
1.0000000000
10
-29.5888855746
20
-15.7444613972
30
0.0000000000
10
-29.5267475271
20
-15.7178436544
30
0.0000000000
10
-29.4152773697
20
-15.6584927034
30
0.0000000000
10
-29.2528363906
20
-15.5392173376
30
0.0000000000
10
-29.0928376386
20
-15.3765292040
30
0.0000000000
10
-28.9716687209
20
-15.1806828784
30
0.0000000000
10
-28.9077033167
20
-14.9780267508
30
0.0000000000
10
-28.8775209290
20
-14.8164922099
30
0.0000000000
10
-28.8726307099
20
-14.7101889689
30
0.0000000000
10
-28.8741659976
20
-14.6643586920
30
0.0000000000
11
-29.5888855746
21
-15.7444613972
31
0.0000000000
11
-29.4096595769
21
-15.6495677071
31
0.0000000000
11
-29.2694517099
21
-15.5463904484
31
0.0000000000
11
-29.1114614313
21
-15.3847090390
31
0.0000000000
11
-28.9660031321
21
-15.1443946677
31
0.0000000000
11
-28.9117317399
21
-14.9793674394
31
0.0000000000
11
-28.8795995009
21
-14.8018193029
31
0.0000000000
11
-28.8741659976
21
-14.6643586920
31
0.0000000000
0
SPLINE
5
4D5
100
AcDbEntity
8
0
100
AcDbSpline
62
0
6
CONTINUOUS
70
0
71
3
72
8
73
4
74
2
42
0.0000001000
43
0.0000001000
44
0.0000000001
12
0.1456465750
22
0.0594599652
32
0.0000000000
13
0.1521949161
23
0.0404299138
33
0.0000000000
40
0.0000000000
40
0.0000000000
40
0.0000000000
40
0.0000000000
40
1.0000000000
40
1.0000000000
40
1.0000000000
40
1.0000000000
10
59.9679439870
20
50.7960988977
30
0.0000000000
10
60.0164928453
20
50.8159188861
30
0.0000000000
10
60.0662704148
20
50.8329224093
30
0.0000000000
10
60.1170020536
20
50.8463990473
30
0.0000000000
11
59.9679439870
21
50.7960988977
31
0.0000000000
11
60.1170020536
21
50.8463990473
31
0.0000000000
0
SPLINE
5
4D6
100
AcDbEntity
8
0
100
AcDbSpline
62
0
6
CONTINUOUS
70
0
71
3
72
8
73
4
74
2
42
0.0000001000
43
0.0000001000
44
0.0000000001
12
0.0990695890
22
0.0263174030
32
0.0000000000
13
0.1011587573
23
0.0164664850
33
0.0000000000
40
0.0000000000
40
0.0000000000
40
0.0000000000
40
0.0000000000
40
1.0000000000
40
1.0000000000
40
1.0000000000
40
1.0000000000
10
60.1170020536
20
50.8463990473
30
0.0000000000
10
60.1500252499
20
50.8551715150
30
0.0000000000
10
60.1834527058
20
50.8624495658
30
0.0000000000
10
60.2171722916
20
50.8679383941
30
0.0000000000
11
60.1170020536
21
50.8463990473
31
0.0000000000
11
60.2171722916
21
50.8679383941
31
0.0000000000
0
SPLINE
5
4D7
100
AcDbEntity
8
0
100
AcDbSpline
62
0
6
CONTINUOUS
70
0
71
3
72
11
73
7
74
5
42
0.0000001000
43
0.0000001000
44
0.0000000001
12
0.3850657440
22
0.0626804783
32
0.0000000000
13
0.3542933026
23
-0.1642329291
33
0.0000000000
40
0.0000000000
40
0.0000000000
40
0.0000000000
40
0.0000000000
40
0.1272341746
40
0.4875541603
40
0.8090054677
40
1.0000000000
40
1.0000000000
40
1.0000000000
40
1.0000000000
10
60.2171722916
20
50.8679383941
30
0.0000000000
10
60.2335034656
20
50.8705967604
30
0.0000000000
10
60.2963461830
20
50.8791752189
30
0.0000000000
10
60.4019812100
20
50.8823676438
30
0.0000000000
10
60.5146639691
20
50.8639405959
30
0.0000000000
10
60.5775985729
20
50.8407971283
30
0.0000000000
10
60.6001546008
20
50.8303412645
30
0.0000000000
11
60.2171722916
21
50.8679383941
31
0.0000000000
11
60.2663586486
21
50.8746209134
31
0.0000000000
11
60.4067776595
21
50.8777489138
31
0.0000000000
11
60.5302373423
21
50.8563368327
31
0.0000000000
11
60.6001546008
21
50.8303412645
31
0.0000000000
0
SPLINE
5
4D8
100
AcDbEntity
8
0
100
AcDbSpline
62
0
6
CONTINUOUS
70
0
71
3
72
8
73
4
74
2
42
0.0000001000
43
0.0000001000
44
0.0000000001
12
0.0318488752
22
-0.0147635703
32
0.0000000000
13
0.0305106540
23
-0.0172328581
33
0.0000000000
40
0.0000000000
40
0.0000000000
40
0.0000000000
40
0.0000000000
40
1.0000000000
40
1.0000000000
40
1.0000000000
40
1.0000000000
10
60.6001546008
20
50.8303412645
30
0.0000000000
10
60.6107708925
20
50.8254200744
30
0.0000000000
10
60.6211877171
20
50.8200934904
30
0.0000000000
10
60.6313579351
20
50.8143492044
30
0.0000000000
11
60.6001546008
21
50.8303412645
31
0.0000000000
11
60.6313579351
21
50.8143492044
31
0.0000000000
0
SPLINE
5
4D9
100
AcDbEntity
8
0
100
AcDbSpline
62
0
6
CONTINUOUS
70
0
71
3
72
9
73
5
74
3
42
0.0000001000
43
0.0000001000
44
0.0000000001
12
0.2204169392
22
0.0673757048
32
0.0000000000
13
0.1412316912
23
-0.1729727895
33
0.0000000000
40
0.0000000000
40
0.0000000000
40
0.0000000000
40
0.0000000000
40
0.2668560220
40
1.0000000000
40
1.0000000000
40
1.0000000000
40
1.0000000000
10
-67.6801814912
20
-6.7926327783
30
0.0000000000
10
-67.6605749620
20
-6.7866395741
30
0.0000000000
10
-67.5757455595
20
-6.7847314853
30
0.0000000000
10
-67.5274139840
20
-6.8541555260
30
0.0000000000
10
-67.4928995960
20
-6.8964268456
30
0.0000000000
11
-67.6801814912
21
-6.7926327783
31
0.0000000000
11
-67.6178995764
21
-6.7907009175
31
0.0000000000
11
-67.4928995960
21
-6.8964268456
31
0.0000000000
0
SPLINE
5
4DA
100
AcDbEntity
8
0
100
AcDbSpline
62
0
6
CONTINUOUS
70
0
71
3
72
12
73
8
74
6
42
0.0000001000
43
0.0000001000
44
0.0000000001
12
-0.5960600990
22
0.3366633529
32
0.0000000000
13
-0.6337844529
23
-0.2587414194
33
0.0000000000
40
0.0000000000
40
0.0000000000
40
0.0000000000
40
0.0000000000
40
0.1590485250
40
0.3415343850
40
0.5465927564
40
0.7690834489
40
1.0000000000
40
1.0000000000
40
1.0000000000
40
1.0000000000
10
61.1313579351
20
50.2019767687
30
0.0000000000
10
61.0997571086
20
50.2198253719
30
0.0000000000
10
61.0267869150
20
50.2494936705
30
0.0000000000
10
60.9028812668
20
50.2699313466
30
0.0000000000
10
60.7629853967
20
50.2658857443
30
0.0000000000
10
60.6149521813
20
50.2371643891
30
0.0000000000
10
60.5167277603
20
50.2036423541
30
0.0000000000
10
60.4679439870
20
50.1837264620
30
0.0000000000
11
61.1313579351
21
50.2019767687
31
0.0000000000
11
61.0308290578
21
50.2437931374
31
0.0000000000
11
60.9077715720
21
50.2653045239
31
0.0000000000
11
60.7674265030
21
50.2623637385
31
0.0000000000
11
60.6177394342
21
50.2342221814
31
0.0000000000
11
60.4679439870
21
50.1837264620
31
0.0000000000
0
SPLINE
5
4DB
100
AcDbEntity
8
0
100
AcDbSpline
62
0
6
CONTINUOUS
70
0
71
3
72
9
73
5
74
3
42
0.0000001000
43
0.0000001000
44
0.0000000001
12
-0.1061471444
22
-0.1955863319
32
0.0000000000
13
0.1379768156
23
-0.1689863973
33
0.0000000000
40
0.0000000000
40
0.0000000000
40
0.0000000000
40
0.0000000000
40
0.2564753941
40
1.0000000000
40
1.0000000000
40
1.0000000000
40
1.0000000000
10
-66.2338209745
20
-5.6512255884
30
0.0000000000
10
-66.2428956847
20
-5.6679466156
30
0.0000000000
10
-66.2600427216
20
-5.7509296792
30
0.0000000000
10
-66.2002680855
20
-5.8076951700
30
0.0000000000
10
-66.1660716997
20
-5.8495770182
30
0.0000000000
11
-66.2338209745
21
-5.6512255884
31
0.0000000000
11
-66.2466313918
21
-5.7087882613
31
0.0000000000
11
-66.1660716997
21
-5.8495770182
31
0.0000000000
0
SPLINE
5
4DC
100
AcDbEntity
8
0
100
AcDbSpline
62
0
6
CONTINUOUS
70
0
71
3
72
9
73
5
74
3
42
0.0000001000
43
0.0000001000
44
0.0000000001
12
-0.1061474783
22
-0.1955863839
32
0.0000000000
13
0.1379768228
23
-0.1689864015
33
0.0000000000
40
0.0000000000
40
0.0000000000
40
0.0000000000
40
0.0000000000
40
0.2564743826
40
1.0000000000
40
1.0000000000
40
1.0000000000
40
1.0000000000
10
-61.1991071780
20
1.3032800096
30
0.0000000000
10
-61.2081818810
20
1.2865590439
30
0.0000000000
10
-61.2253291346
20
1.2035760872
30
0.0000000000
10
-61.1655543692
20
1.1468105144
30
0.0000000000
10
-61.1313579351
20
1.1049286082
30
0.0000000000
11
-61.1991071780
21
1.3032800096
31
0.0000000000
11
-61.2119176817
21
1.2457175949
31
0.0000000000
11
-61.1313579351
21
1.1049286082
31
0.0000000000
0
SPLINE
5
4DD
100
AcDbEntity
8
0
100
AcDbSpline
62
0
6
CONTINUOUS
70
0
71
3
72
9
73
5
74
3
42
0.0000001000
43
0.0000001000
44
0.0000000001
12
0.2204169457
22
0.0673757342
32
0.0000000000
13
0.1412316929
23
-0.1729727916
33
0.0000000000
40
0.0000000000
40
0.0000000000
40
0.0000000000
40
0.0000000000
40
0.2668559406
40
1.0000000000
40
1.0000000000
40
1.0000000000
40
1.0000000000
10
-60.6552258826
20
1.7321475858
30
0.0000000000
10
-60.6356193588
20
1.7381407908
30
0.0000000000
10
-60.5507899605
20
1.7400488981
30
0.0000000000
10
-60.5024583792
20
1.6706248467
30
0.0000000000
10
-60.4679439870
20
1.6283535219
30
0.0000000000
11
-60.6552258826
21
1.7321475858
31
0.0000000000
11
-60.5929439870
21
1.7340794580
31
0.0000000000
11
-60.4679439870
21
1.6283535219
31
0.0000000000
0
SPLINE
5
4DE
100
AcDbEntity
8
0
100
AcDbSpline
62
0
6
CONTINUOUS
70
0
71
3
72
8
73
4
74
2
42
0.0000001000
43
0.0000001000
44
0.0000000001
12
0.0980777714
22
0.1354759069
32
0.0000000000
13
0.1128318135
23
0.1236146171
33
0.0000000000
40
0.0000000000
40
0.0000000000
40
0.0000000000
40
0.0000000000
40
1.0000000000
40
1.0000000000
40
1.0000000000
40
1.0000000000
10
-61.1313579351
20
1.1049286081
30
0.0000000000
10
-61.0986653447
20
1.1500872438
30
0.0000000000
10
-61.0632553627
20
1.1933296570
30
0.0000000000
10
-61.0256447582
20
1.2345345294
30
0.0000000000
11
-61.1313579351
21
1.1049286081
31
0.0000000000
11
-61.0256447582
21
1.2345345294
31
0.0000000000
0
SPLINE
5
4DF
100
AcDbEntity
8
0
100
AcDbSpline
62
0
6
CONTINUOUS
70
0
71
3
72
8
73
4
74
2
42
0.0000001000
43
0.0000001000
44
0.0000000001
12
0.0793879753
22
0.0869747092
32
0.0000000000
13
0.0856124087
23
0.0808172178
33
0.0000000000
40
0.0000000000
40
0.0000000000
40
0.0000000000
40
0.0000000000
40
1.0000000000
40
1.0000000000
40
1.0000000000
40
1.0000000000
10
-61.0256447582
20
1.2345345294
30
0.0000000000
10
-60.9991820997
20
1.2635260991
30
0.0000000000
10
-60.9716300300
20
1.2915089906
30
0.0000000000
10
-60.9430925604
20
1.3184480632
30
0.0000000000
11
-61.0256447582
21
1.2345345294
31
0.0000000000
11
-60.9430925604
21
1.3184480632
31
0.0000000000
0
SPLINE
5
4E0
100
AcDbEntity
8
0
100
AcDbSpline
62
0
6
CONTINUOUS
70
0
71
3
72
9
73
5
74
3
42
0.0000001000
43
0.0000001000
44
0.0000000001
12
0.1306707440
22
0.1233518147
32
0.0000000000
13
0.1434697166
23
0.1082104692
33
0.0000000000
40
0.0000000000
40
0.0000000000
40
0.0000000000
40
0.0000000000
40
0.3323923358
40
1.0000000000
40
1.0000000000
40
1.0000000000
40
1.0000000000
10
-60.9430925604
20
1.3184480632
30
0.0000000000
10
-60.9286145758
20
1.3321151291
30
0.0000000000
10
-60.8842946221
20
1.3724241251
30
0.0000000000
10
-60.8378020004
20
1.4102598974
30
0.0000000000
10
-60.8058748396
20
1.4343406102
30
0.0000000000
11
-60.9430925604
21
1.3184480632
31
0.0000000000
11
-60.8989113035
21
1.3586386785
31
0.0000000000
11
-60.8058748396
21
1.4343406102
31
0.0000000000
0
SPLINE
5
4E1
100
AcDbEntity
8
0
100
AcDbSpline
62
0
6
CONTINUOUS
70
0
71
3
72
10
73
6
74
4
42
0.0000001000
43
0.0000001000
44
0.0000000001
12
0.2710756084
22
0.2044558215
32
0.0000000000
13
0.3093018391
23
0.1399921779
33
0.0000000000
40
0.0000000000
40
0.0000000000
40
0.0000000000
40
0.0000000000
40
0.1749633389
40
0.6836901901
40
1.0000000000
40
1.0000000000
40
1.0000000000
40
1.0000000000
10
-60.8058748396
20
1.4343406102
30
0.0000000000
10
-60.7900654085
20
1.4462647013
30
0.0000000000
10
-60.7274370284
20
1.4917301303
30
0.0000000000
10
-60.6311859357
20
1.5515679680
30
0.0000000000
10
-60.5475724948
20
1.5933575482
30
0.0000000000
10
-60.5149607595
20
1.6081178480
30
0.0000000000
11
-60.8058748396
21
1.4343406102
31
0.0000000000
11
-60.7578028197
21
1.4692365416
31
0.0000000000
11
-60.6110676562
21
1.5602002456
31
0.0000000000
11
-60.5149607595
21
1.6081178480
31
0.0000000000
0
SPLINE
5
4E2
100
AcDbEntity
8
0
100
AcDbSpline
62
0
6
CONTINUOUS
70
0
71
3
72
8
73
4
74
2
42
0.0000001000
43
0.0000001000
44
0.0000000001
12
0.0466448822
22
0.0211118002
32
0.0000000000
13
0.0473818926
23
0.0193435766
33
0.0000000000
40
0.0000000000
40
0.0000000000
40
0.0000000000
40
0.0000000000
40
1.0000000000
40
1.0000000000
40
1.0000000000
40
1.0000000000
10
-60.5149607595
20
1.6081178480
30
0.0000000000
10
-60.4994124655
20
1.6151551147
30
0.0000000000
10
-60.4837379512
20
1.6219056630
30
0.0000000000
10
-60.4679439870
20
1.6283535219
30
0.0000000000
11
-60.5149607595
21
1.6081178480
31
0.0000000000
11
-60.4679439870
21
1.6283535219
31
0.0000000000
0
SPLINE
5
4E3
100
AcDbEntity
8
0
100
AcDbSpline
62
0
6
CONTINUOUS
70
0
71
3
72
9
73
5
74
3
42
0.0000001000
43
0.0000001000
44
0.0000000001
12
0.2204170216
22
0.0673760160
32
0.0000000000
13
0.1412317022
23
-0.1729727983
33
0.0000000000
40
0.0000000000
40
0.0000000000
40
0.0000000000
40
0.0000000000
40
0.2668549226
40
1.0000000000
40
1.0000000000
40
1.0000000000
40
1.0000000000
10
59.7806621048
20
50.8998929317
30
0.0000000000
10
59.8002685606
20
50.9058861389
30
0.0000000000
10
59.8850979005
20
50.9077944486
30
0.0000000000
10
59.9334295447
20
50.8383702830
30
0.0000000000
10
59.9679439871
20
50.7960988978
30
0.0000000000
11
59.7806621048
21
50.8998929317
31
0.0000000000
11
59.8429437570
21
50.9018249265
31
0.0000000000
11
59.9679439871
21
50.7960988978
31
0.0000000000
0
SPLINE
5
4E4
100
AcDbEntity
8
0
100
AcDbSpline
62
0
6
CONTINUOUS
70
0
71
3
72
8
73
4
74
2
42
0.0000001000
43
0.0000001000
44
0.0000000001
12
0.0991964451
22
-0.0561222791
32
0.0000000000
13
0.0703698889
23
-0.0861851606
33
0.0000000000
40
0.0000000000
40
0.0000000000
40
0.0000000000
40
0.0000000000
40
1.0000000000
40
1.0000000000
40
1.0000000000
40
1.0000000000
10
60.5451670347
20
50.8863562763
30
0.0000000000
10
60.5782325164
20
50.8676488499
30
0.0000000000
10
60.6079013055
20
50.8430775913
30
0.0000000000
10
60.6313579351
20
50.8143492044
30
0.0000000000
11
60.5451670347
21
50.8863562763
31
0.0000000000
11
60.6313579351
21
50.8143492044
31
0.0000000000
0
SPLINE
5
4E5
100
AcDbEntity
8
0
100
AcDbSpline
62
0
6
CONTINUOUS
70
0
71
3
72
12
73
8
74
6
42
0.0000001000
43
0.0000001000
44
0.0000000001
12
-0.7916511519
22
-0.3231902294
32
0.0000000000
13
-0.5014279491
23
-0.6926279539
33
0.0000000000
40
0.0000000000
40
0.0000000000
40
0.0000000000
40
0.0000000000
40
0.1843676070
40
0.3857430237
40
0.5954296012
40
0.8034110498
40
1.0000000000
40
1.0000000000
40
1.0000000000
40
1.0000000000
10
-59.9679439870
20
1.0159810862
30
0.0000000000
10
-60.0165955965
20
0.9961191498
30
0.0000000000
10
-60.1160149951
20
0.9485536364
30
0.0000000000
10
-60.2604808668
20
0.8588818166
30
0.0000000000
10
-60.3997033494
20
0.7498972629
30
0.0000000000
10
-60.5252294138
20
0.6273663340
30
0.0000000000
10
-60.5984995371
20
0.5379438399
30
0.0000000000
10
-60.6313579351
20
0.4925561724
30
0.0000000000
11
-59.9679439870
21
1.0159810862
31
0.0000000000
11
-60.1102999912
21
0.9482459499
31
0.0000000000
11
-60.2567157464
21
0.8576224961
31
0.0000000000
11
-60.3979240267
21
0.7471310757
31
0.0000000000
11
-60.5250718312
21
0.6227894102
31
0.0000000000
11
-60.6313579351
21
0.4925561724
31
0.0000000000
0
SPLINE
5
4E6
100
AcDbEntity
8
0
100
AcDbSpline
62
0
6
CONTINUOUS
70
0
71
3
72
8
73
4
74
2
42
0.0000001000
43
0.0000001000
44
0.0000000001
12
0.0991964406
22
-0.0561222788
32
0.0000000000
13
0.0703698869
23
-0.0861851581
33
0.0000000000
40
0.0000000000
40
0.0000000000
40
0.0000000000
40
0.0000000000
40
1.0000000000
40
1.0000000000
40
1.0000000000
40
1.0000000000
10
65.5798808027
20
48.0426772235
30
0.0000000000
10
65.6129462829
20
48.0239697972
30
0.0000000000
10
65.6426150707
20
47.9993985389
30
0.0000000000
10
65.6660716997
20
47.9706701528
30
0.0000000000
11
65.5798808027
21
48.0426772235
31
0.0000000000
11
65.6660716997
21
47.9706701528
31
0.0000000000
0
SPLINE
5
4E7
100
AcDbEntity
8
0
100
AcDbSpline
62
0
6
CONTINUOUS
70
0
71
3
72
9
73
5
74
3
42
0.0000001000
43
0.0000001000
44
0.0000000001
12
0.2204169457
22
0.0673757342
32
0.0000000000
13
0.1412316929
23
-0.1729727916
33
0.0000000000
40
0.0000000000
40
0.0000000000
40
0.0000000000
40
0.0000000000
40
0.2668559406
40
1.0000000000
40
1.0000000000
40
1.0000000000
40
1.0000000000
10
66.8056177004
20
48.1109648302
30
0.0000000000
10
66.8252242242
20
48.1169580352
30
0.0000000000
10
66.9100536226
20
48.1188661425
30
0.0000000000
10
66.9583852038
20
48.0494420911
30
0.0000000000
10
66.9928995960
20
48.0071707662
30
0.0000000000
11
66.8056177004
21
48.1109648302
31
0.0000000000
11
66.8678995960
21
48.1128967024
31
0.0000000000
11
66.9928995960
21
48.0071707662
31
0.0000000000
0
SPLINE
5
4E8
100
AcDbEntity
8
0
100
AcDbSpline
62
0
6
CONTINUOUS
70
0
71
3
72
8
73
4
74
2
42
0.0000001000
43
0.0000001000
44
0.0000000001
12
0.0836017932
22
-0.0472195003
32
0.0000000000
13
0.0882595002
23
-0.0379575758
33
0.0000000000
40
0.0000000000
40
0.0000000000
40
0.0000000000
40
0.0000000000
40
1.0000000000
40
1.0000000000
40
1.0000000000
40
1.0000000000
10
65.6660716997
20
47.9706701528
30
0.0000000000
10
65.6939389641
20
47.9549303194
30
0.0000000000
10
65.7227134309
20
47.9407509959
30
0.0000000000
10
65.7521332643
20
47.9280984706
30
0.0000000000
11
65.6660716997
21
47.9706701528
31
0.0000000000
11
65.7521332643
21
47.9280984706
31
0.0000000000
0
SPLINE
5
4E9
100
AcDbEntity
8
0
100
AcDbSpline
62
0
6
CONTINUOUS
70
0
71
3
72
10
73
6
74
4
42
0.0000001000
43
0.0000001000
44
0.0000000001
12
0.2502134655
22
-0.1076087736
32
0.0000000000
13
0.2692539953
23
-0.0407495462
33
0.0000000000
40
0.0000000000
40
0.0000000000
40
0.0000000000
40
0.0000000000
40
0.3991021758
40
0.8427481821
40
1.0000000000
40
1.0000000000
40
1.0000000000
40
1.0000000000
10
65.7521332643
20
47.9280984706
30
0.0000000000
10
65.7854201772
20
47.9137828387
30
0.0000000000
10
65.8574537219
20
47.8876810676
30
0.0000000000
10
65.9458301765
20
47.8663341143
30
0.0000000000
10
65.9996191412
20
47.8572339910
30
0.0000000000
10
66.0137327013
20
47.8550980109
30
0.0000000000
11
65.7521332643
21
47.9280984706
31
0.0000000000
11
65.8541948224
21
47.8908798971
31
0.0000000000
11
65.9715133854
21
47.8622521555
31
0.0000000000
11
66.0137327013
21
47.8550980109
31
0.0000000000
0
SPLINE
5
4EA
100
AcDbEntity
8
0
100
AcDbSpline
62
0
6
CONTINUOUS
70
0
71
3
72
10
73
6
74
4
42
0.0000001000
43
0.0000001000
44
0.0000000001
12
0.3777339854
22
-0.0571671684
32
0.0000000000
13
0.3797900478
23
0.0409204924
33
0.0000000000
40
0.0000000000
40
0.0000000000
40
0.0000000000
40
0.0000000000
40
0.2339095462
40
0.6063217936
40
1.0000000000
40
1.0000000000
40
1.0000000000
40
1.0000000000
10
66.0137327013
20
47.8550980109
30
0.0000000000
10
66.0431845630
20
47.8506406954
30
0.0000000000
10
66.1199480326
20
47.8418576526
30
0.0000000000
10
66.2473893570
20
47.8382328097
30
0.0000000000
10
66.3448277805
20
47.8446050485
30
0.0000000000
10
66.3946661355
20
47.8499748838
30
0.0000000000
11
66.0137327013
21
47.8550980109
31
0.0000000000
11
66.1024883296
21
47.8448440484
31
0.0000000000
11
66.2446335491
21
47.8404719705
31
0.0000000000
11
66.3946661355
21
47.8499748838
31
0.0000000000
0
SPLINE
5
4EB
100
AcDbEntity
8
0
100
AcDbSpline
62
0
6
CONTINUOUS
70
0
71
3
72
11
73
7
74
5
42
0.0000001000
43
0.0000001000
44
0.0000000001
12
0.5678389096
22
0.0611818238
32
0.0000000000
13
0.5326083224
23
0.2058908112
33
0.0000000000
40
0.0000000000
40
0.0000000000
40
0.0000000000
40
0.0000000000
40
0.2728311661
40
0.5493602861
40
0.8229753562
40
1.0000000000
40
1.0000000000
40
1.0000000000
40
1.0000000000
10
66.3946661355
20
47.8499748838
30
0.0000000000
10
66.4463075194
20
47.8555389866
30
0.0000000000
10
66.5497859613
20
47.8712723356
30
0.0000000000
10
66.7024862345
20
47.9067479873
30
0.0000000000
10
66.8348826603
20
47.9473679767
30
0.0000000000
10
66.9154934376
20
47.9767492638
30
0.0000000000
10
66.9469217038
20
47.9888985130
30
0.0000000000
11
66.3946661355
21
47.8499748838
31
0.0000000000
11
66.5487079678
21
47.8731266923
31
0.0000000000
11
66.7025438430
21
47.9086463532
31
0.0000000000
11
66.8519389726
21
47.9543149930
31
0.0000000000
11
66.9469217038
21
47.9888985130
31
0.0000000000
0
SPLINE
5
4EC
100
AcDbEntity
8
0
100
AcDbSpline
62
0
6
CONTINUOUS
70
0
71
3
72
8
73
4
74
2
42
0.0000001000
43
0.0000001000
44
0.0000000001
12
0.0461508874
22
0.0178405843
32
0.0000000000
13
0.0458029994
23
0.0186989962
33
0.0000000000
40
0.0000000000
40
0.0000000000
40
0.0000000000
40
0.0000000000
40
1.0000000000
40
1.0000000000
40
1.0000000000
40
1.0000000000
10
66.9469217038
20
47.9888985130
30
0.0000000000
10
66.9623053330
20
47.9948453744
30
0.0000000000
10
66.9776319296
20
48.0009377675
30
0.0000000000
10
66.9928995960
20
48.0071707662
30
0.0000000000
11
66.9469217038
21
47.9888985130
31
0.0000000000
11
66.9928995960
21
48.0071707662
31
0.0000000000
0
SPLINE
5
4ED
100
AcDbEntity
8
0
100
AcDbSpline
62
0
6
CONTINUOUS
70
0
71
3
72
17
73
13
74
11
42
0.0000001000
43
0.0000001000
44
0.0000000001
12
-1.2688382967
22
-0.5180010655
32
0.0000000000
13
-1.1933140318
23
0.6740010004
33
0.0000000000
40
0.0000000000
40
0.0000000000
40
0.0000000000
40
0.0000000000
40
0.1082899421
40
0.2211167534
40
0.3355501178
40
0.4488353466
40
0.5585264851
40
0.6626009842
40
0.7595760353
40
0.8484811299
40
0.9287427578
40
1.0000000000
40
1.0000000000
40
1.0000000000
40
1.0000000000
10
67.4928995960
20
47.3947983305
30
0.0000000000
10
67.4470987875
20
47.3761002287
30
0.0000000000
10
67.3524958754
20
47.3405045902
30
0.0000000000
10
67.2059028009
20
47.2953339151
30
0.0000000000
10
67.0543004210
20
47.2597996813
30
0.0000000000
10
66.9018063561
20
47.2362046148
30
0.0000000000
10
66.7525495446
20
47.2259713111
30
0.0000000000
10
66.6104110294
20
47.2295181176
30
0.0000000000
10
66.4787622144
20
47.2462140646
30
0.0000000000
10
66.3602438009
20
47.2744359664
30
0.0000000000
10
66.2566821099
20
47.3116799511
30
0.0000000000
10
66.1944157887
20
47.3422885663
30
0.0000000000
10
66.1660716997
20
47.3582977171
30
0.0000000000
11
67.4928995960
21
47.3947983305
31
0.0000000000
11
67.3539579110
21
47.3426331519
31
0.0000000000
11
67.2061396637
21
47.2972458419
31
0.0000000000
11
67.0533994194
21
47.2616589225
31
0.0000000000
11
66.8999277819
21
47.2381772506
31
0.0000000000
11
66.7499273609
21
47.2281992144
31
0.0000000000
11
66.6073460301
21
47.2320863988
31
0.0000000000
11
66.4755389472
21
47.2491304411
31
0.0000000000
11
66.3570756622
21
47.2776358623
31
0.0000000000
11
66.2536452521
21
47.3150774030
31
0.0000000000
11
66.1660716997
21
47.3582977171
31
0.0000000000
0
SPLINE
5
4EE
100
AcDbEntity
8
0
100
AcDbSpline
62
0
6
CONTINUOUS
70
0
71
3
72
9
73
5
74
3
42
0.0000001000
43
0.0000001000
44
0.0000000001
12
0.2271091550
22
0.0927169243
32
0.0000000000
13
0.2181860910
23
0.1121760683
33
0.0000000000
40
0.0000000000
40
0.0000000000
40
0.0000000000
40
0.0000000000
40
0.5810880235
40
1.0000000000
40
1.0000000000
40
1.0000000000
40
1.0000000000
10
-67.4928995960
20
-6.8964268456
30
0.0000000000
10
-67.4489094594
20
-6.8784679475
30
0.0000000000
10
-67.3740170443
20
-6.8455403348
30
0.0000000000
10
-67.3006348205
20
-6.8094194939
30
0.0000000000
10
-67.2701678983
20
-6.7937555278
30
0.0000000000
11
-67.4928995960
21
-6.8964268456
31
0.0000000000
11
-67.3623812247
21
-6.8391220288
31
0.0000000000
11
-67.2701678983
21
-6.7937555278
31
0.0000000000
0
SPLINE
5
4EF
100
AcDbEntity
8
0
100
AcDbSpline
62
0
6
CONTINUOUS
70
0
71
3
72
15
73
11
74
9
42
0.0000001000
43
0.0000001000
44
0.0000000001
12
1.0651737009
22
0.5476380151
32
0.0000000000
13
0.7880977417
23
0.9019054342
33
0.0000000000
40
0.0000000000
40
0.0000000000
40
0.0000000000
40
0.0000000000
40
0.0445486890
40
0.1839338633
40
0.3342005731
40
0.4894703631
40
0.6465092880
40
0.8017613892
40
0.9517596171
40
1.0000000000
40
1.0000000000
40
1.0000000000
40
1.0000000000
10
-67.2701678983
20
-6.7937555278
30
0.0000000000
10
-67.2543505344
20
-6.7856233426
30
0.0000000000
10
-67.1893480291
20
-6.7514543416
30
0.0000000000
10
-67.0735645492
20
-6.6850456522
30
0.0000000000
10
-66.9245619496
20
-6.5882114441
30
0.0000000000
10
-66.7756166814
20
-6.4788940400
30
0.0000000000
10
-66.6316360449
20
-6.3599624125
30
0.0000000000
10
-66.4962539447
20
-6.2344052624
30
0.0000000000
10
-66.3983795483
20
-6.1326483053
30
0.0000000000
10
-66.3457377503
20
-6.0735442096
30
0.0000000000
10
-66.3330650380
20
-6.0590414551
30
0.0000000000
11
-67.2701678983
21
-6.7937555278
31
0.0000000000
11
-67.2229384008
21
-6.7689322815
31
0.0000000000
11
-67.0781093462
21
-6.6859379129
31
0.0000000000
11
-66.9271911767
21
-6.5879198108
31
0.0000000000
11
-66.7772710270
21
-6.4779193198
31
0.0000000000
11
-66.6322773234
21
-6.3581470714
31
0.0000000000
11
-66.4959765084
21
-6.2316940384
31
0.0000000000
11
-66.3714910186
21
-6.1021888733
31
0.0000000000
11
-66.3330650380
21
-6.0590414551
31
0.0000000000
0
SPLINE
5
4F0
100
AcDbEntity
8
0
100
AcDbSpline
62
0
6
CONTINUOUS
70
0
71
3
72
9
73
5
74
3
42
0.0000001000
43
0.0000001000
44
0.0000000001
12
0.1763284259
22
0.2017916777
32
0.0000000000
13
0.1571248774
23
0.2170383253
33
0.0000000000
40
0.0000000000
40
0.0000000000
40
0.0000000000
40
0.0000000000
40
0.4171562380
40
1.0000000000
40
1.0000000000
40
1.0000000000
40
1.0000000000
10
-66.3330650380
20
-6.0590414551
30
0.0000000000
10
-66.3085462038
20
-6.0309819028
30
0.0000000000
10
-66.2510030942
20
-5.9626405991
30
0.0000000000
10
-66.1965981179
20
-5.8917434962
30
0.0000000000
10
-66.1660716997
20
-5.8495770182
30
0.0000000000
11
-66.3330650380
21
-6.0590414551
31
0.0000000000
11
-66.2610833654
21
-5.9735191420
31
0.0000000000
11
-66.1660716997
21
-5.8495770182
31
0.0000000000
0
SPLINE
5
4F1
100
AcDbEntity
8
0
100
AcDbSpline
62
0
6
CONTINUOUS
70
0
71
3
72
17
73
13
74
11
42
0.0000001000
43
0.0000001000
44
0.0000000001
12
-1.0032425496
22
-1.3857899937
32
0.0000000000
13
-1.5839127465
23
-0.6466296710
33
0.0000000000
40
0.0000000000
40
0.0000000000
40
0.0000000000
40
0.0000000000
40
0.0899604839
40
0.1879665286
40
0.2921291849
40
0.4002776020
40
0.5100241769
40
0.6188696318
40
0.7245272159
40
0.8225757147
40
0.9153165301
40
1.0000000000
40
1.0000000000
40
1.0000000000
40
1.0000000000
10
-65.6660716997
20
-6.4619494539
30
0.0000000000
10
-65.6961557614
20
-6.5035049000
30
0.0000000000
10
-65.7614153834
20
-6.5886181586
30
0.0000000000
10
-65.8698739747
20
-6.7151776741
30
0.0000000000
10
-65.9924201066
20
-6.8429787862
30
0.0000000000
10
-66.1269230333
20
-6.9681867298
30
0.0000000000
10
-66.2704202081
20
-7.0872087372
30
0.0000000000
10
-66.4193474597
20
-7.1969821075
30
0.0000000000
10
-66.5686932899
20
-7.2944483624
30
0.0000000000
10
-66.7152679739
20
-7.3788548655
30
0.0000000000
10
-66.8555336078
20
-7.4497607657
30
0.0000000000
10
-66.9481891869
20
-7.4905463332
30
0.0000000000
10
-66.9928995960
20
-7.5087992813
30
0.0000000000
11
-65.6660716997
21
-6.4619494539
31
0.0000000000
11
-65.7596589068
21
-6.5841320530
31
0.0000000000
11
-65.8687112183
21
-6.7114941359
31
0.0000000000
11
-65.9920076927
21
-6.8401585636
31
0.0000000000
11
-66.1274118911
21
-6.9662500832
31
0.0000000000
11
-66.2719245777
21
-7.0861195581
31
0.0000000000
11
-66.4218350663
21
-7.1965863737
31
0.0000000000
11
-66.5732394074
21
-7.2953353144
31
0.0000000000
11
-66.7186351779
21
-7.3789889956
31
0.0000000000
11
-66.8602686100
21
-7.4505005787
31
0.0000000000
11
-66.9928995960
21
-7.5087992813
31
0.0000000000
0
SPLINE
5
4F2
100
AcDbEntity
8
0
100
AcDbSpline
62
0
6
CONTINUOUS
70
0
71
3
72
10
73
6
74
4
42
0.0000001000
43
0.0000001000
44
0.0000000001
12
-0.6786625502
22
-0.2770628259
32
0.0000000000
13
-0.4636147826
23
0.5678098273
33
0.0000000000
40
0.0000000000
40
0.0000000000
40
0.0000000000
40
0.0000000000
40
0.3471133421
40
0.6942266842
40
1.0000000000
40
1.0000000000
40
1.0000000000
40
1.0000000000
10
-73.1987618621
20
-11.1576870139
30
0.0000000000
10
-73.2772861374
20
-11.1897444151
30
0.0000000000
10
-73.4492446034
20
-11.2200336680
30
0.0000000000
10
-73.6941610041
20
-11.1773549968
30
0.0000000000
10
-73.8345208875
20
-11.0861511893
30
0.0000000000
10
-73.8817745639
20
-11.0282774914
30
0.0000000000
11
-73.1987618621
21
-11.1576870139
31
0.0000000000
11
-73.4487618621
21
-11.2050541867
31
0.0000000000
11
-73.6987618621
21
-11.1576870139
31
0.0000000000
11
-73.8817745639
21
-11.0282774914
31
0.0000000000
0
SPLINE
5
4F3
100
AcDbEntity
8
0
100
AcDbSpline
62
0
6
CONTINUOUS
70
0
71
3
72
10
73
6
74
4
42
0.0000001000
43
0.0000001000
44
0.0000000001
12
-0.0000000077
22
0.7148358659
32
0.0000000000
13
-0.4521018924
23
0.5537094853
33
0.0000000000
40
0.0000000000
40
0.0000000000
40
0.0000000000
40
0.0000000000
40
0.3082640406
40
0.6695185684
40
1.0000000000
40
1.0000000000
40
1.0000000000
40
1.0000000000
10
-72.7657491602
20
-10.6273569280
30
0.0000000000
10
-72.7657491610
20
-10.5539041972
30
0.0000000000
10
-72.7959720384
20
-10.3949109707
30
0.0000000000
10
-72.8810111439
20
-10.1719807462
30
0.0000000000
10
-72.9659454000
20
-10.0286142207
30
0.0000000000
10
-73.0157491602
20
-9.9676173196
30
0.0000000000
11
-72.7657491602
21
-10.6273569280
31
0.0000000000
11
-72.7992428083
21
-10.4095590665
31
0.0000000000
11
-72.8907491578
21
-10.1680776093
31
0.0000000000
11
-73.0157491602
21
-9.9676173196
31
0.0000000000
0
SPLINE
5
4F4
100
AcDbEntity
8
0
100
AcDbSpline
62
0
6
CONTINUOUS
70
0
71
3
72
10
73
6
74
4
42
0.0000001000
43
0.0000001000
44
0.0000000001
12
0.0000000000
22
0.7148358665
32
0.0000000000
13
-0.4521018983
23
0.5537094813
33
0.0000000000
40
0.0000000000
40
0.0000000000
40
0.0000000000
40
0.0000000000
40
0.3082640525
40
0.6695185799
40
1.0000000000
40
1.0000000000
40
1.0000000000
40
1.0000000000
10
-66.7428995960
20
-8.1685388898
30
0.0000000000
10
-66.7428995960
20
-8.0950861561
30
0.0000000000
10
-66.7731224741
20
-7.9360929265
30
0.0000000000
10
-66.8581615809
20
-7.7131627022
30
0.0000000000
10
-66.9430958369
20
-7.5697961799
30
0.0000000000
10
-66.9928995960
20
-7.5087992813
30
0.0000000000
11
-66.7428995960
21
-8.1685388898
31
0.0000000000
11
-66.7763932451
21
-7.9507410196
31
0.0000000000
11
-66.8678995960
21
-7.7092595630
31
0.0000000000
11
-66.9928995960
21
-7.5087992813
31
0.0000000000
0
SPLINE
5
4F5
100
AcDbEntity
8
0
100
AcDbSpline
62
0
6
CONTINUOUS
70
0
71
3
72
10
73
6
74
4
42
0.0000001000
43
0.0000001000
44
0.0000000001
12
-0.6864315739
22
0.1900548424
32
0.0000000000
13
-0.4504704869
23
0.5517114185
33
0.0000000000
40
0.0000000000
40
0.0000000000
40
0.0000000000
40
0.0000000000
40
0.3053414488
40
0.6675589501
40
1.0000000000
40
1.0000000000
40
1.0000000000
40
1.0000000000
10
-65.0843647256
20
-6.8599766055
30
0.0000000000
10
-65.1542300627
20
-6.8406327318
30
0.0000000000
10
-65.2989836479
20
-6.7714723060
30
0.0000000000
10
-65.4947823243
20
-6.6368682809
30
0.0000000000
10
-65.6161534058
20
-6.5230866283
30
0.0000000000
10
-65.6660716997
20
-6.4619494539
30
0.0000000000
11
-65.0843647256
21
-6.8599766055
31
0.0000000000
11
-65.2837119165
21
-6.7730349328
31
0.0000000000
11
-65.4966314356
21
-6.6273468792
31
0.0000000000
11
-65.6660716997
21
-6.4619494539
31
0.0000000000
0
SPLINE
5
4F6
100
AcDbEntity
8
0
100
AcDbSpline
62
0
6
CONTINUOUS
70
0
71
3
72
10
73
6
74
4
42
0.0000001000
43
0.0000001000
44
0.0000000001
12
-0.6864315740
22
0.1900548424
32
0.0000000000
13
-0.4504704869
23
0.5517114185
33
0.0000000000
40
0.0000000000
40
0.0000000000
40
0.0000000000
40
0.0000000000
40
0.3053413609
40
0.6675588712
40
1.0000000000
40
1.0000000000
40
1.0000000000
40
1.0000000000
10
-60.0496509611
20
0.0945290209
30
0.0000000000
10
-60.1195162780
20
0.1138728889
30
0.0000000000
10
-60.2642698482
20
0.1830333005
30
0.0000000000
10
-60.4600685292
20
0.3176373194
30
0.0000000000
10
-60.5814396294
20
0.4314189835
30
0.0000000000
10
-60.6313579351
20
0.4925561724
30
0.0000000000
11
-60.0496509611
21
0.0945290209
31
0.0000000000
11
-60.2489980972
21
0.1814706626
31
0.0000000000
11
-60.4619176272
21
0.3271587115
31
0.0000000000
11
-60.6313579351
21
0.4925561724
31
0.0000000000
0
SPLINE
5
4F7
100
AcDbEntity
8
0
100
AcDbSpline
62
0
6
CONTINUOUS
70
0
71
3
72
10
73
6
74
4
42
0.0000001000
43
0.0000001000
44
0.0000000001
12
-0.0000000019
22
0.7148358664
32
0.0000000000
13
-0.4521018969
23
0.5537094822
33
0.0000000000
40
0.0000000000
40
0.0000000000
40
0.0000000000
40
0.0000000000
40
0.3082640715
40
0.6695185978
40
1.0000000000
40
1.0000000000
40
1.0000000000
40
1.0000000000
10
-59.7179439870
20
0.3562414777
30
0.0000000000
10
-59.7179439872
20
0.4296942159
30
0.0000000000
10
-59.7481668677
20
0.5886874496
30
0.0000000000
10
-59.8332059763
20
0.8116176730
30
0.0000000000
10
-59.9181402307
20
0.9549841908
30
0.0000000000
10
-59.9679439870
20
1.0159810862
30
0.0000000000
11
-59.7179439870
21
0.3562414777
31
0.0000000000
11
-59.7514376399
21
0.5740393610
31
0.0000000000
11
-59.8429439929
21
0.8155208159
31
0.0000000000
11
-59.9679439870
21
1.0159810862
31
0.0000000000
0
SPLINE
5
4F8
100
AcDbEntity
8
0
100
AcDbSpline
62
0
6
CONTINUOUS
70
0
71
3
72
10
73
6
74
4
42
0.0000001000
43
0.0000001000
44
0.0000000001
12
0.0000000000
22
0.7148358665
32
0.0000000000
13
-0.4521018983
23
0.5537094813
33
0.0000000000
40
0.0000000000
40
0.0000000000
40
0.0000000000
40
0.0000000000
40
0.3082640525
40
0.6695185799
40
1.0000000000
40
1.0000000000
40
1.0000000000
40
1.0000000000
10
60.7179439870
20
49.5239868536
30
0.0000000000
10
60.7179439870
20
49.5974395873
30
0.0000000000
10
60.6877211089
20
49.7564328169
30
0.0000000000
10
60.6026820021
20
49.9793630411
30
0.0000000000
10
60.5177477461
20
50.1227295634
30
0.0000000000
10
60.4679439870
20
50.1837264620
30
0.0000000000
11
60.7179439870
21
49.5239868536
31
0.0000000000
11
60.6844503379
21
49.7417847238
31
0.0000000000
11
60.5929439870
21
49.9832661803
31
0.0000000000
11
60.4679439870
21
50.1837264620
31
0.0000000000
0
SPLINE
5
4F9
100
AcDbEntity
8
0
100
AcDbSpline
62
0
6
CONTINUOUS
70
0
71
3
72
10
73
6
74
4
42
0.0000001000
43
0.0000001000
44
0.0000000001
12
0.4876743758
22
0.5332086656
32
0.0000000000
13
-0.4570066858
23
0.5597165953
33
0.0000000000
40
0.0000000000
40
0.0000000000
40
0.0000000000
40
0.0000000000
40
0.3581177712
40
0.6994469553
40
1.0000000000
40
1.0000000000
40
1.0000000000
40
1.0000000000
10
61.0496509611
20
49.5331120069
30
0.0000000000
10
61.1078659146
20
49.5967625066
30
0.0000000000
10
61.1964509792
20
49.7461857160
30
0.0000000000
10
61.2327502159
20
49.9909042338
30
0.0000000000
10
61.1771428521
20
50.1459019264
30
0.0000000000
10
61.1313579351
20
50.2019767687
30
0.0000000000
11
61.0496509611
21
49.5331120069
31
0.0000000000
11
61.1820108035
21
49.7554724673
31
0.0000000000
11
61.2119176257
21
50.0002939601
31
0.0000000000
11
61.1313579351
21
50.2019767687
31
0.0000000000
0
SPLINE
5
4FA
100
AcDbEntity
8
0
100
AcDbSpline
62
0
6
CONTINUOUS
70
0
71
3
72
10
73
6
74
4
42
0.0000001000
43
0.0000001000
44
0.0000000001
12
0.4876743766
22
0.5332086650
32
0.0000000000
13
-0.4570066862
23
0.5597165951
33
0.0000000000
40
0.0000000000
40
0.0000000000
40
0.0000000000
40
0.0000000000
40
0.3581177519
40
0.6994469394
40
1.0000000000
40
1.0000000000
40
1.0000000000
40
1.0000000000
10
66.0843647256
20
46.6894329553
30
0.0000000000
10
66.1425796761
20
46.7530834515
30
0.0000000000
10
66.2311647400
20
46.9025066560
30
0.0000000000
10
66.2674639824
20
47.1472251728
30
0.0000000000
10
66.2118566191
20
47.3022228719
30
0.0000000000
10
66.1660716997
20
47.3582977171
30
0.0000000000
11
66.0843647256
21
46.6894329553
31
0.0000000000
11
66.2167245636
21
46.9117934022
31
0.0000000000
11
66.2466313918
21
47.1566148967
31
0.0000000000
11
66.1660716997
21
47.3582977171
31
0.0000000000
0
SPLINE
5
4FB
100
AcDbEntity
8
0
100
AcDbSpline
62
0
6
CONTINUOUS
70
0
71
3
72
10
73
6
74
4
42
0.0000001000
43
0.0000001000
44
0.0000000001
12
0.0000000000
22
0.7148358665
32
0.0000000000
13
-0.4521018982
23
0.5537094812
33
0.0000000000
40
0.0000000000
40
0.0000000000
40
0.0000000000
40
0.0000000000
40
0.3082641405
40
0.6695186583
40
1.0000000000
40
1.0000000000
40
1.0000000000
40
1.0000000000
10
67.7428995960
20
46.7350587221
30
0.0000000000
10
67.7428995960
20
46.8085114767
30
0.0000000000
10
67.7126767075
20
46.9675047245
30
0.0000000000
10
67.6276375926
20
47.1904349454
30
0.0000000000
10
67.5427033434
20
47.3338014464
30
0.0000000000
10
67.4928995960
20
47.3947983305
30
0.0000000000
11
67.7428995960
21
46.7350587221
31
0.0000000000
11
67.7094059304
21
46.9528566533
31
0.0000000000
11
67.6178995712
21
47.1943380994
31
0.0000000000
11
67.4928995960
21
47.3947983305
31
0.0000000000
0
SPLINE
5
4FC
100
AcDbEntity
8
0
100
AcDbSpline
62
0
6
CONTINUOUS
70
0
71
3
72
10
73
6
74
4
42
0.0000001000
43
0.0000001000
44
0.0000000001
12
0.0000000000
22
0.7148358665
32
0.0000000000
13
-0.4521018983
23
0.5537094813
33
0.0000000000
40
0.0000000000
40
0.0000000000
40
0.0000000000
40
0.0000000000
40
0.3082640525
40
0.6695185799
40
1.0000000000
40
1.0000000000
40
1.0000000000
40
1.0000000000
10
73.7657491602
20
49.1938767603
30
0.0000000000
10
73.7657491602
20
49.2673294940
30
0.0000000000
10
73.7355262821
20
49.4263227236
30
0.0000000000
10
73.6504871753
20
49.6492529479
30
0.0000000000
10
73.5655529193
20
49.7926194702
30
0.0000000000
10
73.5157491602
20
49.8536163688
30
0.0000000000
11
73.7657491602
21
49.1938767603
31
0.0000000000
11
73.7322555111
21
49.4116746305
31
0.0000000000
11
73.6407491602
21
49.6531560871
31
0.0000000000
11
73.5157491602
21
49.8536163688
31
0.0000000000
0
SPLINE
5
4FD
100
AcDbEntity
8
0
100
AcDbSpline
62
0
6
CONTINUOUS
70
0
71
3
72
9
73
5
74
3
42
0.0000001000
43
0.0000001000
44
0.0000000001
12
0.3825368107
22
0.1561700017
32
0.0000000000
13
-0.0004921427
23
0.4172473125
33
0.0000000000
40
0.0000000000
40
0.0000000000
40
0.0000000000
40
0.0000000000
40
0.5424756162
40
1.0000000000
40
1.0000000000
40
1.0000000000
40
1.0000000000
10
74.1987618621
20
49.0171000650
30
0.0000000000
10
74.2679341594
20
49.0453395377
30
0.0000000000
10
74.3900239938
20
49.1220975157
30
0.0000000000
10
74.4488369178
20
49.2596526775
30
0.0000000000
10
74.4487618620
20
49.3232862840
30
0.0000000000
11
74.1987618621
21
49.0171000650
31
0.0000000000
11
74.3817745595
21
49.1465095833
31
0.0000000000
11
74.4487618620
21
49.3232862840
31
0.0000000000
0
SPLINE
5
4FE
100
AcDbEntity
8
0
100
AcDbSpline
62
0
6
CONTINUOUS
70
0
71
3
72
8
73
4
74
2
42
0.0000001000
43
0.0000001000
44
0.0000000001
12
-0.1195612886
22
0.1464320485
32
0.0000000000
13
-0.0002254721
23
0.1909007307
33
0.0000000000
40
0.0000000000
40
0.0000000000
40
0.0000000000
40
0.0000000000
40
1.0000000000
40
1.0000000000
40
1.0000000000
40
1.0000000000
10
-74.2317745639
20
-50.1975965328
30
0.0000000000
10
-74.2716283268
20
-50.1487858500
30
0.0000000000
10
-74.2986867022
20
-50.0844534340
30
0.0000000000
10
-74.2987618595
20
-50.0208198571
30
0.0000000000
11
-74.2317745639
21
-50.1975965328
31
0.0000000000
11
-74.2987618595
21
-50.0208198571
31
0.0000000000
0
SPLINE
5
4FF
100
AcDbEntity
8
0
100
AcDbSpline
62
0
6
CONTINUOUS
70
0
71
3
72
9
73
5
74
3
42
0.0000001000
43
0.0000001000
44
0.0000000001
12
0.1939629734
22
-0.2375551564
32
0.0000000000
13
0.2984641301
23
-0.0774169846
33
0.0000000000
40
0.0000000000
40
0.0000000000
40
0.0000000000
40
0.0000000000
40
0.7308664484
40
1.0000000000
40
1.0000000000
40
1.0000000000
40
1.0000000000
10
-74.0317745639
20
-50.4425455071
30
0.0000000000
10
-73.9845208874
20
-50.5004192049
30
0.0000000000
10
-73.8945780130
20
-50.5588627743
30
0.0000000000
10
-73.7966103504
20
-50.5912974448
30
0.0000000000
10
-73.7698347800
20
-50.5982426141
30
0.0000000000
11
-74.0317745639
21
-50.4425455071
31
0.0000000000
11
-73.8487618620
21
-50.5719550295
31
0.0000000000
11
-73.7698347800
21
-50.5982426141
31
0.0000000000
0
SPLINE
5
500
100
AcDbEntity
8
0
100
AcDbSpline
62
0
6
CONTINUOUS
70
0
71
3
72
9
73
5
74
3
42
0.0000001000
43
0.0000001000
44
0.0000000001
12
0.2512607339
22
-0.0651731528
32
0.0000000000
13
0.2584698137
23
0.0320986698
33
0.0000000000
40
0.0000000000
40
0.0000000000
40
0.0000000000
40
0.0000000000
40
0.6658521949
40
1.0000000000
40
1.0000000000
40
1.0000000000
40
1.0000000000
10
-73.7698347800
20
-50.5982426141
30
0.0000000000
10
-73.7140672762
20
-50.6127078431
30
0.0000000000
10
-73.6276478998
20
-50.6228090850
30
0.0000000000
10
-73.5407315193
20
-50.6174882724
30
0.0000000000
10
-73.5119424790
20
-50.6139130390
30
0.0000000000
11
-73.7698347800
21
-50.5982426141
31
0.0000000000
11
-73.5987618620
21
-50.6193222024
31
0.0000000000
11
-73.5119424790
21
-50.6139130390
31
0.0000000000
0
SPLINE
5
501
100
AcDbEntity
8
0
100
AcDbSpline
62
0
6
CONTINUOUS
70
0
71
3
72
8
73
4
74
2
42
0.0000001000
43
0.0000001000
44
0.0000000001
12
0.1683669873
22
0.0209090426
32
0.0000000000
13
0.1557023018
23
0.0635651985
33
0.0000000000
40
0.0000000000
40
0.0000000000
40
0.0000000000
40
0.0000000000
40
1.0000000000
40
1.0000000000
40
1.0000000000
40
1.0000000000
10
-73.5119424790
20
-50.6139130390
30
0.0000000000
10
-73.4558201499
20
-50.6069433581
30
0.0000000000
10
-73.4006626293
20
-50.5931434292
30
0.0000000000
10
-73.3487618621
20
-50.5719550297
30
0.0000000000
11
-73.5119424790
21
-50.6139130390
31
0.0000000000
11
-73.3487618621
21
-50.5719550297
31
0.0000000000
0
SPLINE
5
502
100
AcDbEntity
8
0
100
AcDbSpline
62
0
6
CONTINUOUS
70
0
71
3
72
9
73
5
74
3
42
0.0000001000
43
0.0000001000
44
0.0000000001
12
0.2204171014
22
0.0673763131
32
0.0000000000
13
0.1412317102
23
-0.1729728059
33
0.0000000000
40
0.0000000000
40
0.0000000000
40
0.0000000000
40
0.0000000000
40
0.2668538481
40
1.0000000000
40
1.0000000000
40
1.0000000000
40
1.0000000000
10
72.8284672933
20
50.5697828072
30
0.0000000000
10
72.8480736772
20
50.5757760167
30
0.0000000000
10
72.9329029550
20
50.5776845400
30
0.0000000000
10
72.9812346653
20
50.5082602535
30
0.0000000000
10
73.0157491602
20
50.4659888045
30
0.0000000000
11
72.8284672933
21
50.5697828072
31
0.0000000000
11
72.8907486882
21
50.5717149313
31
0.0000000000
11
73.0157491602
21
50.4659888045
31
0.0000000000
0
SPLINE
5
503
100
AcDbEntity
8
0
100
AcDbSpline
62
0
6
CONTINUOUS
70
0
71
3
72
9
73
5
74
3
42
0.0000001000
43
0.0000001000
44
0.0000000001
12
0.0000000000
22
0.3492628603
32
0.0000000000
13
0.1486655713
23
0.3165919049
33
0.0000000000
40
0.0000000000
40
0.0000000000
40
0.0000000000
40
0.0000000000
40
0.4556179349
40
1.0000000000
40
1.0000000000
40
1.0000000000
40
1.0000000000
10
-74.3817745639
20
-10.4159050557
30
0.0000000000
10
-74.3817745639
20
-10.3628615813
30
0.0000000000
10
-74.3657592027
20
-10.2462565858
30
0.0000000000
10
-74.3252570137
20
-10.1363424822
30
0.0000000000
10
-74.2982800568
20
-10.0788934972
30
0.0000000000
11
-74.3817745639
21
-10.4159050557
31
0.0000000000
11
-74.3620976280
21
-10.2579958737
31
0.0000000000
11
-74.2982800568
21
-10.0788934972
31
0.0000000000
0
SPLINE
5
504
100
AcDbEntity
8
0
100
AcDbSpline
62
0
6
CONTINUOUS
70
0
71
3
72
9
73
5
74
3
42
0.0000001000
43
0.0000001000
44
0.0000000001
12
0.1242098126
22
0.2645119568
32
0.0000000000
13
0.1808566119
23
0.2293619099
33
0.0000000000
40
0.0000000000
40
0.0000000000
40
0.0000000000
40
0.0000000000
40
0.7399126060
40
1.0000000000
40
1.0000000000
40
1.0000000000
40
1.0000000000
10
-74.2982800568
20
-10.0788934972
30
0.0000000000
10
-74.2676452547
20
-10.0136549201
30
0.0000000000
10
-74.2176526357
20
-9.9296432353
30
0.0000000000
10
-74.1593624324
20
-9.8516118815
30
0.0000000000
10
-74.1436829241
20
-9.8317271677
30
0.0000000000
11
-74.2982800568
21
-10.0788934972
31
0.0000000000
11
-74.1891222327
21
-9.8926063666
31
0.0000000000
11
-74.1436829241
21
-9.8317271677
31
0.0000000000
0
SPLINE
5
505
100
AcDbEntity
8
0
100
AcDbSpline
62
0
6
CONTINUOUS
70
0
71
3
72
9
73
5
74
3
42
0.0000001000
43
0.0000001000
44
0.0000000001
12
0.1444142737
22
0.1831458262
32
0.0000000000
13
0.1702616291
23
0.1593691923
33
0.0000000000
40
0.0000000000
40
0.0000000000
40
0.0000000000
40
0.0000000000
40
0.6656707476
40
1.0000000000
40
1.0000000000
40
1.0000000000
40
1.0000000000
10
-74.1436829241
20
-9.8317271677
30
0.0000000000
10
-74.1116388049
20
-9.7910888946
30
0.0000000000
10
-74.0602445424
20
-9.7326144072
30
0.0000000000
10
-74.0047741777
20
-9.6781169762
30
0.0000000000
10
-73.9857996967
20
-9.6603563819
30
0.0000000000
11
-74.1436829241
21
-9.8317271677
31
0.0000000000
11
-74.0414092982
21
-9.7150016866
31
0.0000000000
11
-73.9857996967
21
-9.6603563819
31
0.0000000000
0
SPLINE
5
506
100
AcDbEntity
8
0
100
AcDbSpline
62
0
6
CONTINUOUS
70
0
71
3
72
10
73
6
74
4
42
0.0000001000
43
0.0000001000
44
0.0000000001
12
0.3671276630
22
0.3436407804
32
0.0000000000
13
0.4565958742
23
0.2103499191
33
0.0000000000
40
0.0000000000
40
0.0000000000
40
0.0000000000
40
0.0000000000
40
0.3067041488
40
0.7402629296
40
1.0000000000
40
1.0000000000
40
1.0000000000
40
1.0000000000
10
-73.9857996967
20
-9.6603563819
30
0.0000000000
10
-73.9482665042
20
-9.6252243643
30
0.0000000000
10
-73.8536235897
20
-9.5447689697
30
0.0000000000
10
-73.7141736592
20
-9.4511434061
30
0.0000000000
10
-73.6108534499
20
-9.3975982028
30
0.0000000000
10
-73.5713218250
20
-9.3793863122
30
0.0000000000
11
-73.9857996967
21
-9.6603563819
31
0.0000000000
11
-73.8683680189
21
-9.5604697851
31
0.0000000000
11
-73.6873374444
21
-9.4393138092
31
0.0000000000
11
-73.5713218250
21
-9.3793863122
31
0.0000000000
0
SPLINE
5
507
100
AcDbEntity
8
0
100
AcDbSpline
62
0
6
CONTINUOUS
70
0
71
3
72
8
73
4
74
2
42
0.0000001000
43
0.0000001000
44
0.0000000001
12
0.0550510800
22
0.0253615744
32
0.0000000000
13
0.0560834123
23
0.0228959572
33
0.0000000000
40
0.0000000000
40
0.0000000000
40
0.0000000000
40
0.0000000000
40
1.0000000000
40
1.0000000000
40
1.0000000000
40
1.0000000000
10
-73.5713218250
20
-9.3793863122
30
0.0000000000
10
-73.5529714650
20
-9.3709324541
30
0.0000000000
10
-73.5344436309
20
-9.3628768696
30
0.0000000000
10
-73.5157491602
20
-9.3552448839
30
0.0000000000
11
-73.5713218250
21
-9.3793863122
31
0.0000000000
11
-73.5157491602
21
-9.3552448839
31
0.0000000000
0
SPLINE
5
508
100
AcDbEntity
8
0
100
AcDbSpline
62
0
6
CONTINUOUS
70
0
71
3
72
9
73
5
74
3
42
0.0000001000
43
0.0000001000
44
0.0000000001
12
-0.1069658779
22
-0.2545194673
32
0.0000000000
13
-0.2574209100
23
-0.1028786945
33
0.0000000000
40
0.0000000000
40
0.0000000000
40
0.0000000000
40
0.0000000000
40
0.5770260243
40
1.0000000000
40
1.0000000000
40
1.0000000000
40
1.0000000000
10
9.3396137716
20
-17.4130694008
30
0.0000000000
10
9.3190397399
20
-17.4620241863
30
0.0000000000
10
9.2727822673
20
-17.5431471420
30
0.0000000000
10
9.1975923406
20
-17.6033657332
30
0.0000000000
10
9.1612982254
20
-17.6178707367
30
0.0000000000
11
9.3396137716
21
-17.4130694008
31
0.0000000000
11
9.2560228870
21
-17.5486840025
31
0.0000000000
11
9.1612982254
21
-17.6178707367
31
0.0000000000
0
SPLINE
5
509
100
AcDbEntity
8
0
100
AcDbSpline
62
0
6
CONTINUOUS
70
0
71
3
72
9
73
5
74
3
42
0.0000001000
43
0.0000001000
44
0.0000000001
12
0.0651416078
22
-0.1018129996
32
0.0000000000
13
-0.0086537982
23
-0.0664096404
33
0.0000000000
40
0.0000000000
40
0.0000000000
40
0.0000000000
40
0.0000000000
40
0.7859525571
40
1.0000000000
40
1.0000000000
40
1.0000000000
40
1.0000000000
10
-6.6075629641
20
-22.5092634786
30
0.0000000000
10
-6.5904968930
20
-22.5359368744
30
0.0000000000
10
-6.5676190542
20
-22.5590801143
30
0.0000000000
10
-6.5521144865
20
-22.6124105499
30
0.0000000000
10
-6.5527319276
20
-22.6171488212
30
0.0000000000
11
-6.6075629641
21
-22.5092634786
31
0.0000000000
11
-6.5590897287
21
-22.5909631290
31
0.0000000000
11
-6.5527319276
21
-22.6171488212
31
0.0000000000
0
SPLINE
5
50A
100
AcDbEntity
8
0
100
AcDbSpline
62
0
6
CONTINUOUS
70
0
71
3
72
9
73
5
74
3
42
0.0000001000
43
0.0000001000
44
0.0000000001
12
-0.1069658779
22
-0.2545194673
32
0.0000000000
13
-0.2574209100
23
-0.1028786945
33
0.0000000000
40
0.0000000000
40
0.0000000000
40
0.0000000000
40
0.0000000000
40
0.5770260243
40
1.0000000000
40
1.0000000000
40
1.0000000000
40
1.0000000000
10
7.6075629641
20
-16.7059626197
30
0.0000000000
10
7.5869889323
20
-16.7549174051
30
0.0000000000
10
7.5407314597
20
-16.8360403608
30
0.0000000000
10
7.4655415331
20
-16.8962589520
30
0.0000000000
10
7.4292474178
20
-16.9107639555
30
0.0000000000
11
7.6075629641
21
-16.7059626197
31
0.0000000000
11
7.5239720794
21
-16.8415772214
31
0.0000000000
11
7.4292474178
21
-16.9107639555
31
0.0000000000
0
SPLINE
5
50B
100
AcDbEntity
8
0
100
AcDbSpline
62
0
6
CONTINUOUS
70
0
71
3
72
9
73
5
74
3
42
0.0000001000
43
0.0000001000
44
0.0000000001
12
0.0651416078
22
-0.1018129996
32
0.0000000000
13
-0.0086537982
23
-0.0664096404
33
0.0000000000
40
0.0000000000
40
0.0000000000
40
0.0000000000
40
0.0000000000
40
0.7859525571
40
1.0000000000
40
1.0000000000
40
1.0000000000
40
1.0000000000
10
-8.3396137716
20
-24.6305838221
30
0.0000000000
10
-8.3225477006
20
-24.6572572179
30
0.0000000000
10
-8.2996698618
20
-24.6804004578
30
0.0000000000
10
-8.2841652941
20
-24.7337308935
30
0.0000000000
10
-8.2847827352
20
-24.7384691647
30
0.0000000000
11
-8.3396137716
21
-24.6305838221
31
0.0000000000
11
-8.2911405363
21
-24.7122834726
31
0.0000000000
11
-8.2847827352
21
-24.7384691647
31
0.0000000000
0
SPLINE
5
50C
100
AcDbEntity
8
0
100
AcDbSpline
62
0
6
CONTINUOUS
70
0
71
3
72
14
73
10
74
8
42
0.0000001000
43
0.0000001000
44
0.0000000001
12
-1.3304821996
22
-0.5431670835
32
0.0000000000
13
-0.0000000001
23
-1.4370850233
33
0.0000000000
40
0.0000000000
40
0.0000000000
40
0.0000000000
40
0.0000000000
40
0.1328077981
40
0.2842075252
40
0.4455170670
40
0.6062592641
40
0.7566277866
40
0.8891110524
40
1.0000000000
40
1.0000000000
40
1.0000000000
40
1.0000000000
10
-73.0157491602
20
-9.9676173196
30
0.0000000000
10
-73.0746486306
20
-9.9916629277
30
0.0000000000
10
-73.1971530664
20
-10.0521187480
30
0.0000000000
10
-73.3748796080
20
-10.1713864446
30
0.0000000000
10
-73.5447763280
20
-10.3227797628
30
0.0000000000
10
-73.6907284058
20
-10.4968639605
30
0.0000000000
10
-73.8000267647
20
-10.6803450054
30
0.0000000000
10
-73.8657143967
20
-10.8583920138
30
0.0000000000
10
-73.8817745639
20
-10.9751585428
30
0.0000000000
10
-73.8817745639
20
-11.0282774914
30
0.0000000000
11
-73.0157491602
21
-9.9676173196
31
0.0000000000
11
-73.1871460634
21
-10.0515765454
31
0.0000000000
11
-73.3679888465
21
-10.1725494978
31
0.0000000000
11
-73.5409480136
21
-10.3268983395
31
0.0000000000
11
-73.6887382467
21
-10.5044346493
31
0.0000000000
11
-73.7980734211
21
-10.6908259690
31
0.0000000000
11
-73.8620445017
21
-10.8701467576
31
0.0000000000
11
-73.8817745639
21
-11.0282774914
31
0.0000000000
0
SPLINE
5
50D
100
AcDbEntity
8
0
100
AcDbSpline
62
0
6
CONTINUOUS
70
0
71
3
72
8
73
4
74
2
42
0.0000001000
43
0.0000001000
44
0.0000000001
12
0.1860341683
22
0.0134011638
32
0.0000000000
13
0.1863069074
23
-0.0107271046
33
0.0000000000
40
0.0000000000
40
0.0000000000
40
0.0000000000
40
0.0000000000
40
1.0000000000
40
1.0000000000
40
1.0000000000
40
1.0000000000
10
-44.6532185867
20
-15.4832186100
30
0.0000000000
10
-44.5912071973
20
-15.4787515554
30
0.0000000000
10
-44.5286800502
20
-15.4777545721
30
0.0000000000
10
-44.4665777478
20
-15.4813302736
30
0.0000000000
11
-44.6532185867
21
-15.4832186100
31
0.0000000000
11
-44.4665777478
21
-15.4813302736
31
0.0000000000
0
SPLINE
5
50E
100
AcDbEntity
8
0
100
AcDbSpline
62
0
6
CONTINUOUS
70
0
71
3
72
10
73
6
74
4
42
0.0000001000
43
0.0000001000
44
0.0000000001
12
1.2668548059
22
-0.0729424593
32
0.0000000000
13
0.0000000000
23
-1.2548842203
33
0.0000000000
40
0.0000000000
40
0.0000000000
40
0.0000000000
40
0.0000000000
40
0.2710249745
40
0.6278360516
40
1.0000000000
40
1.0000000000
40
1.0000000000
40
1.0000000000
10
-44.4665777478
20
-15.4813302736
30
0.0000000000
10
-44.3521279839
20
-15.4879200164
30
0.0000000000
10
-44.0903448543
20
-15.5391621242
30
0.0000000000
10
-43.7360386645
20
-15.8125118571
30
0.0000000000
10
-43.6641867017
20
-16.1323445542
30
0.0000000000
10
-43.6641867017
20
-16.2880187762
30
0.0000000000
11
-44.4665777478
21
-15.4813302736
31
0.0000000000
11
-44.1334446926
21
-15.5545925488
31
0.0000000000
11
-43.7861428801
21
-15.8372007849
31
0.0000000000
11
-43.6641867017
21
-16.2880187762
31
0.0000000000
0
SPLINE
5
50F
100
AcDbEntity
8
0
100
AcDbSpline
62
0
6
CONTINUOUS
70
0
71
3
72
13
73
9
74
7
42
0.0000001000
43
0.0000001000
44
0.0000000001
12
2.2189351657
22
0.4973925409
32
0.0000000000
13
0.0000000000
23
-2.2688861908
33
0.0000000000
40
0.0000000000
40
0.0000000000
40
0.0000000000
40
0.0000000000
40
0.0372589759
40
0.2633533621
40
0.4615904334
40
0.6393136338
40
0.8126572278
40
1.0000000000
40
1.0000000000
40
1.0000000000
40
1.0000000000
10
-44.5001602581
20
-15.4291163538
30
0.0000000000
10
-44.4726018409
20
-15.4229389082
30
0.0000000000
10
-44.2770792328
20
-15.3824318159
30
0.0000000000
10
-43.9259789009
20
-15.3523466608
30
0.0000000000
10
-43.4713496118
20
-15.4408933042
30
0.0000000000
10
-43.1099581261
20
-15.6693809781
30
0.0000000000
10
-42.8859344865
20
-16.0247002548
30
0.0000000000
10
-42.8445714594
20
-16.3016237270
30
0.0000000000
10
-42.8445714594
20
-16.4433102033
30
0.0000000000
11
-44.5001602581
21
-15.4291163538
31
0.0000000000
11
-44.4171812220
21
-15.4119443308
31
0.0000000000
11
-43.9054525790
21
-15.3761006393
31
0.0000000000
11
-43.4660212312
21
-15.4720160103
31
0.0000000000
11
-43.1288336987
21
-15.6931539696
31
0.0000000000
11
-42.9168687545
21
-16.0244443308
31
0.0000000000
11
-42.8445714594
21
-16.4433102033
31
0.0000000000
0
SPLINE
5
510
100
AcDbEntity
8
0
100
AcDbSpline
62
0
6
CONTINUOUS
70
0
71
3
72
9
73
5
74
3
42
0.0000001000
43
0.0000001000
44
0.0000000001
12
-0.3339370159
22
-0.7418769753
32
0.0000000000
13
0.0000000000
23
-0.8122442241
33
0.0000000000
40
0.0000000000
40
0.0000000000
40
0.0000000000
40
0.0000000000
40
0.4049399563
40
1.0000000000
40
1.0000000000
40
1.0000000000
40
1.0000000000
10
44.0311540908
20
19.7342165042
30
0.0000000000
10
43.9860792773
20
19.6340779609
30
0.0000000000
10
43.8906155081
20
19.3796529955
30
0.0000000000
10
43.8445714594
20
19.1084955562
30
0.0000000000
10
43.8445714594
20
18.9473841951
30
0.0000000000
11
44.0311540908
21
19.7342165042
31
0.0000000000
11
43.9168687545
21
19.4252805619
31
0.0000000000
11
43.8445714594
21
18.9473841951
31
0.0000000000
0
SPLINE
5
511
100
AcDbEntity
8
0
100
AcDbSpline
62
0
6
CONTINUOUS
70
0
71
3
72
8
73
4
74
2
42
0.0000001000
43
0.0000001000
44
0.0000000001
12
-0.0281304870
22
-0.1809490277
32
0.0000000000
13
0.0000000000
23
-0.1824077518
33
0.0000000000
40
0.0000000000
40
0.0000000000
40
0.0000000000
40
0.0000000000
40
1.0000000000
40
1.0000000000
40
1.0000000000
40
1.0000000000
10
44.0786597084
20
19.7088281501
30
0.0000000000
10
44.0692828794
20
19.6485118076
30
0.0000000000
10
44.0641867017
20
19.5877422748
30
0.0000000000
10
44.0641867017
20
19.5269396909
30
0.0000000000
11
44.0786597084
21
19.7088281501
31
0.0000000000
11
44.0641867017
21
19.5269396909
31
0.0000000000
0
SPLINE
5
512
100
AcDbEntity
8
0
100
AcDbSpline
62
0
6
CONTINUOUS
70
0
71
3
72
12
73
8
74
6
42
0.0000001000
43
0.0000001000
44
0.0000000001
12
-0.5274767033
22
0.6454232412
32
0.0000000000
13
-0.7677316080
23
-0.3134251165
33
0.0000000000
40
0.0000000000
40
0.0000000000
40
0.0000000000
40
0.0000000000
40
0.1399339125
40
0.3285232669
40
0.5390592766
40
0.7672339085
40
1.0000000000
40
1.0000000000
40
1.0000000000
40
1.0000000000
10
74.2906643583
20
49.7785091143
30
0.0000000000
10
74.2660603987
20
49.8086146474
30
0.0000000000
10
74.1971872335
20
49.8704342819
30
0.0000000000
10
74.0566720700
20
49.9282138943
30
0.0000000000
10
73.8819764084
20
49.9437765431
30
0.0000000000
10
73.6969854726
20
49.9177420635
30
0.0000000000
10
73.5753164554
20
49.8779346152
30
0.0000000000
10
73.5157491602
20
49.8536163688
30
0.0000000000
11
74.2906643583
21
49.7785091143
31
0.0000000000
11
74.2043464041
21
49.8564513034
31
0.0000000000
11
74.0608048357
21
49.9185209235
31
0.0000000000
11
73.8871906101
21
49.9369150088
31
0.0000000000
11
73.6995539342
21
49.9125448252
31
0.0000000000
11
73.5157491602
21
49.8536163688
31
0.0000000000
0
SPLINE
5
513
100
AcDbEntity
8
0
100
AcDbSpline
62
0
6
CONTINUOUS
70
0
71
3
72
10
73
6
74
4
42
0.0000001000
43
0.0000001000
44
0.0000000001
12
0.2541890493
22
0.1043389359
32
0.0000000000
13
0.0000000000
23
0.2736395777
33
0.0000000000
40
0.0000000000
40
0.0000000000
40
0.0000000000
40
0.0000000000
40
0.1445484396
40
0.6024571420
40
1.0000000000
40
1.0000000000
40
1.0000000000
40
1.0000000000
10
-43.0111581415
20
-38.9170262031
30
0.0000000000
10
-42.9989105980
20
-38.9119988596
30
0.0000000000
10
-42.9486606154
20
-38.8888289964
30
0.0000000000
10
-42.8720843721
20
-38.8331212640
30
0.0000000000
10
-42.8445714594
20
-38.7534349639
30
0.0000000000
10
-42.8445714594
20
-38.7171738107
30
0.0000000000
11
-43.0111581415
21
-38.9170262031
31
0.0000000000
11
-42.9750344424
21
-38.9002822822
31
0.0000000000
11
-42.8783482258
21
-38.8205806343
31
0.0000000000
11
-42.8445714594
21
-38.7171738107
31
0.0000000000
0
SPLINE
5
514
100
AcDbEntity
8
0
100
AcDbSpline
62
0
6
CONTINUOUS
70
0
71
3
72
8
73
4
74
2
42
0.0000001000
43
0.0000001000
44
0.0000000001
12
-0.0220244405
22
0.0269814839
32
0.0000000000
13
-0.0240057844
23
0.0250506239
33
0.0000000000
40
0.0000000000
40
0.0000000000
40
0.0000000000
40
0.0000000000
40
1.0000000000
40
1.0000000000
40
1.0000000000
40
1.0000000000
10
-28.6756375909
20
-13.9962878943
30
0.0000000000
10
-28.6829790711
20
-13.9872940663
30
0.0000000000
10
-28.6906363816
20
-13.9785897488
30
0.0000000000
10
-28.6986383097
20
-13.9702395408
30
0.0000000000
11
-28.6756375909
21
-13.9962878943
31
0.0000000000
11
-28.6986383097
21
-13.9702395408
31
0.0000000000
0
SPLINE
5
515
100
AcDbEntity
8
0
100
AcDbSpline
62
0
6
CONTINUOUS
70
0
71
3
72
14
73
10
74
8
42
0.0000001000
43
0.0000001000
44
0.0000000001
12
-0.6379522963
22
0.6657188442
32
0.0000000000
13
-0.8550044525
23
-0.3458490860
33
0.0000000000
40
0.0000000000
40
0.0000000000
40
0.0000000000
40
0.0000000000
40
0.0357917116
40
0.2042925849
40
0.2922189767
40
0.3844717965
40
0.5199813022
40
0.6666203544
40
1.0000000000
40
1.0000000000
40
1.0000000000
40
1.0000000000
10
-28.6986383097
20
-13.9702395408
30
0.0000000000
10
-28.7062494446
20
-13.9622971352
30
0.0000000000
10
-28.7514719977
20
-13.9187919215
30
0.0000000000
10
-28.8318417455
20
-13.8740822566
30
0.0000000000
10
-28.9329371056
20
-13.8385222929
30
0.0000000000
10
-29.0284736098
20
-13.8191510483
30
0.0000000000
10
-29.1441868329
20
-13.8165324641
30
0.0000000000
10
-29.3323734814
20
-13.8399576300
30
0.0000000000
10
-29.4745610125
20
-13.8845202605
30
0.0000000000
10
-29.5695747063
20
-13.9229532758
30
0.0000000000
11
-28.6986383097
21
-13.9702395408
31
0.0000000000
11
-28.7224318239
21
-13.9474290129
31
0.0000000000
11
-28.8556526553
21
-13.8674029964
31
0.0000000000
11
-28.9322272752
21
-13.8407065401
31
0.0000000000
11
-29.0156232711
21
-13.8238368695
31
0.0000000000
11
-29.1405303905
21
-13.8195423239
31
0.0000000000
11
-29.2748544758
21
-13.8353046947
31
0.0000000000
11
-29.5695747063
21
-13.9229532758
31
0.0000000000
0
SPLINE
5
516
100
AcDbEntity
8
0
100
AcDbSpline
62
0
6
CONTINUOUS
70
0
71
3
72
9
73
5
74
3
42
0.0000001000
43
0.0000001000
44
0.0000000001
12
0.1711261402
22
0.0523094617
32
0.0000000000
13
0.0000000304
23
0.1733697484
33
0.0000000000
40
0.0000000000
40
0.0000000000
40
0.0000000000
40
0.0000000000
40
0.1934825296
40
1.0000000000
40
1.0000000000
40
1.0000000000
40
1.0000000000
10
-72.9784672735
20
-50.8998928752
30
0.0000000000
10
-72.9674306340
20
-50.8965192196
30
0.0000000000
10
-72.9153518848
20
-50.8701016817
30
0.0000000000
10
-72.9157491683
20
-50.7953403019
30
0.0000000000
10
-72.9157491602
20
-50.7487317250
30
0.0000000000
11
-72.9784672735
21
-50.8998928752
31
0.0000000000
11
-72.9492424437
21
-50.8844867801
31
0.0000000000
11
-72.9157491602
21
-50.7487317250
31
0.0000000000
0
SPLINE
5
517
100
AcDbEntity
8
0
100
AcDbSpline
62
0
6
CONTINUOUS
70
0
71
3
72
12
73
8
74
6
42
0.0000001000
43
0.0000001000
44
0.0000000001
12
0.2888083722
22
-0.3535443162
32
0.0000000000
13
-0.0148250631
23
-0.4546514703
33
0.0000000000
40
0.0000000000
40
0.0000000000
40
0.0000000000
40
0.0000000000
40
0.0756284758
40
0.2198062987
40
0.3672766250
40
0.7073266377
40
1.0000000000
40
1.0000000000
40
1.0000000000
40
1.0000000000
10
-28.8863977593
20
-14.3539739354
30
0.0000000000
10
-28.8791170469
20
-14.3628866080
30
0.0000000000
10
-28.8593226358
20
-14.3898858761
30
0.0000000000
10
-28.8334090548
20
-14.4394607081
30
0.0000000000
10
-28.8009454629
20
-14.5297307806
30
0.0000000000
10
-28.7764062994
20
-14.6462180191
30
0.0000000000
10
-28.7727196972
20
-14.7424783876
30
0.0000000000
10
-28.7741659976
20
-14.7868331791
30
0.0000000000
11
-28.8863977593
21
-14.3539739354
31
0.0000000000
11
-28.8660031321
21
-14.3817819098
31
0.0000000000
11
-28.8350073508
21
-14.4395808642
31
0.0000000000
11
-28.8117317399
21
-14.5024967319
31
0.0000000000
11
-28.7795995009
21
-14.6538090052
31
0.0000000000
11
-28.7741659976
21
-14.7868331791
31
0.0000000000
0
SPLINE
5
518
100
AcDbEntity
8
0
100
AcDbSpline
62
0
6
CONTINUOUS
70
0
71
3
72
10
73
6
74
4
42
0.0000001000
43
0.0000001000
44
0.0000000001
12
0.2545301593
22
0.1041026107
32
0.0000000000
13
0.0000000000
23
0.2742428171
33
0.0000000000
40
0.0000000000
40
0.0000000000
40
0.0000000000
40
0.0000000000
40
0.2349505510
40
0.6435031536
40
1.0000000000
40
1.0000000000
40
1.0000000000
40
1.0000000000
10
44.5239629437
20
-2.9360952184
30
0.0000000000
10
44.5438969441
20
-2.9279422298
30
0.0000000000
10
44.5968996193
20
-2.9016997022
30
0.0000000000
10
44.6689955628
20
-2.8401977357
30
0.0000000000
10
44.6905006738
20
-2.7687701822
30
0.0000000000
10
44.6905006738
20
-2.7361812824
30
0.0000000000
11
44.5239629437
21
-2.9360952184
31
0.0000000000
11
44.5817197569
21
-2.9070017863
31
0.0000000000
11
44.6631517836
21
-2.8300448309
31
0.0000000000
11
44.6905006738
21
-2.7361812824
31
0.0000000000
0
SPLINE
5
519
100
AcDbEntity
8
0
100
AcDbSpline
62
0
6
CONTINUOUS
70
0
71
3
72
9
73
5
74
3
42
0.0000001000
43
0.0000001000
44
0.0000000001
12
-0.0000000001
22
-0.2968658694
32
0.0000000000
13
0.1878743558
23
-0.2322072729
33
0.0000000000
40
0.0000000000
40
0.0000000000
40
0.0000000000
40
0.0000000000
40
0.5472352921
40
1.0000000000
40
1.0000000000
40
1.0000000000
40
1.0000000000
10
-74.2317745639
20
-50.1975965328
30
0.0000000000
10
-74.2317745640
20
-50.2517483598
30
0.0000000000
10
-74.2178398613
20
-50.3518929830
30
0.0000000000
10
-74.1691040193
20
-50.4408742042
30
0.0000000000
10
-74.1407497267
20
-50.4759192902
30
0.0000000000
11
-74.2317745639
21
-50.1975965328
31
0.0000000000
11
-74.2061016676
21
-50.3580106395
31
0.0000000000
11
-74.1407497267
21
-50.4759192902
31
0.0000000000
0
SPLINE
5
51A
100
AcDbEntity
8
0
100
AcDbSpline
62
0
6
CONTINUOUS
70
0
71
3
72
9
73
5
74
3
42
0.0000001000
43
0.0000001000
44
0.0000000001
12
0.1711261302
22
0.0523088124
32
0.0000000000
13
0.0000000000
23
0.1733698281
33
0.0000000000
40
0.0000000000
40
0.0000000000
40
0.0000000000
40
0.0000000000
40
0.1934797896
40
1.0000000000
40
1.0000000000
40
1.0000000000
40
1.0000000000
10
73.5530310558
20
8.9213407267
30
0.0000000000
10
73.5640675383
20
8.9247142927
30
0.0000000000
10
73.6161463079
20
8.9511315326
30
0.0000000000
10
73.6157491602
20
9.0258932067
30
0.0000000000
10
73.6157491602
20
9.0725019634
30
0.0000000000
11
73.5530310558
21
8.9213407267
31
0.0000000000
11
73.5822555111
21
8.9367464430
31
0.0000000000
11
73.6157491602
21
9.0725019634
31
0.0000000000
0
SPLINE
5
51B
100
AcDbEntity
8
0
100
AcDbSpline
62
0
6
CONTINUOUS
70
0
71
3
72
9
73
5
74
3
42
0.0000001000
43
0.0000001000
44
0.0000000001
12
-0.1701778328
22
0.2103348821
32
0.0000000000
13
-0.0134469749
23
0.2694280712
33
0.0000000000
40
0.0000000000
40
0.0000000000
40
0.0000000000
40
0.0000000000
40
0.4998469917
40
1.0000000000
40
1.0000000000
40
1.0000000000
40
1.0000000000
10
-73.9407497267
20
-50.7208682645
30
0.0000000000
10
-73.9691040193
20
-50.6858231785
30
0.0000000000
10
-74.0132492670
20
-50.6052234004
30
0.0000000000
10
-74.0288406807
20
-50.5154642115
30
0.0000000000
10
-74.0310825290
20
-50.4705457914
30
0.0000000000
11
-73.9407497267
21
-50.7208682645
31
0.0000000000
11
-74.0061016676
21
-50.6029596138
31
0.0000000000
11
-74.0310825290
21
-50.4705457914
31
0.0000000000
0
SPLINE
5
51C
100
AcDbEntity
8
0
100
AcDbSpline
62
0
6
CONTINUOUS
70
0
71
3
72
8
73
4
74
2
42
0.0000001000
43
0.0000001000
44
0.0000000001
12
-0.0013983296
22
0.0280173978
32
0.0000000000
13
0.0000000000
23
0.0279628034
33
0.0000000000
40
0.0000000000
40
0.0000000000
40
0.0000000000
40
0.0000000000
40
1.0000000000
40
1.0000000000
40
1.0000000000
40
1.0000000000
10
-74.0310825290
20
-50.4705457914
30
0.0000000000
10
-74.0315486389
20
-50.4612066588
30
0.0000000000
10
-74.0317745640
20
-50.4518664416
30
0.0000000000
10
-74.0317745639
20
-50.4425455071
30
0.0000000000
11
-74.0310825290
21
-50.4705457914
31
0.0000000000
11
-74.0317745639
21
-50.4425455071
31
0.0000000000
0
SPLINE
5
51D
100
AcDbEntity
8
0
100
AcDbSpline
62
0
6
CONTINUOUS
70
0
71
3
72
9
73
5
74
3
42
0.0000001000
43
0.0000001000
44
0.0000000001
12
0.0004926657
22
-0.4172474604
32
0.0000000000
13
-0.3825368711
23
-0.1561699782
33
0.0000000000
40
0.0000000000
40
0.0000000000
40
0.0000000000
40
0.0000000000
40
0.4575292764
40
1.0000000000
40
1.0000000000
40
1.0000000000
40
1.0000000000
10
74.2987618600
20
9.9090182418
30
0.0000000000
10
74.2988369963
20
9.8453839322
30
0.0000000000
10
74.2400233110
20
9.7078289522
30
0.0000000000
10
74.1179335465
20
9.6310712630
30
0.0000000000
10
74.0487618621
20
9.6028320493
30
0.0000000000
11
74.2987618600
21
9.9090182418
31
0.0000000000
11
74.2317732566
21
9.7322399529
31
0.0000000000
11
74.0487618621
21
9.6028320493
31
0.0000000000
0
SPLINE
5
51E
100
AcDbEntity
8
0
100
AcDbSpline
62
0
6
CONTINUOUS
70
0
71
3
72
12
73
8
74
6
42
0.0000001000
43
0.0000001000
44
0.0000000001
12
0.7672214262
22
0.3132168356
32
0.0000000000
13
0.5280880675
23
-0.6442194735
33
0.0000000000
40
0.0000000000
40
0.0000000000
40
0.0000000000
40
0.0000000000
40
0.2326187616
40
0.4607242600
40
0.6713372181
40
0.8601334653
40
1.0000000000
40
1.0000000000
40
1.0000000000
40
1.0000000000
10
73.0157491602
20
50.4659888045
30
0.0000000000
10
73.0752391928
20
50.4902755086
30
0.0000000000
10
73.1967650331
20
50.5300482646
30
0.0000000000
10
73.3815819973
20
50.5561233947
30
0.0000000000
10
73.5562260216
20
50.5406844862
30
0.0000000000
10
73.6967586337
20
50.4830612641
30
0.0000000000
10
73.7656929000
20
50.4213459821
30
0.0000000000
10
73.7903135160
20
50.3913110670
30
0.0000000000
11
73.0157491602
21
50.4659888045
31
0.0000000000
11
73.1993091530
21
50.5248607068
31
0.0000000000
11
73.3867550845
21
50.5492783592
31
0.0000000000
11
73.5603303802
21
50.5310131868
31
0.0000000000
11
73.7039943340
21
50.4690566444
31
0.0000000000
11
73.7903135160
21
50.3913110670
31
0.0000000000
0
SPLINE
5
51F
100
AcDbEntity
8
0
100
AcDbSpline
62
0
6
CONTINUOUS
70
0
71
3
72
9
73
5
74
3
42
0.0000001000
43
0.0000001000
44
0.0000000001
12
0.2634395531
22
0.1075487472
32
0.0000000000
13
0.1178833101
23
0.2603104932
33
0.0000000000
40
0.0000000000
40
0.0000000000
40
0.0000000000
40
0.0000000000
40
0.4726354278
40
1.0000000000
40
1.0000000000
40
1.0000000000
40
1.0000000000
10
74.0487618621
20
32.4423810816
30
0.0000000000
10
74.0902654840
20
32.4593248643
30
0.0000000000
10
74.1706349029
20
32.5155548012
30
0.0000000000
10
74.2225517299
20
32.5971344817
30
0.0000000000
10
74.2432742237
20
32.6428939923
30
0.0000000000
11
74.0487618621
21
32.4423810816
31
0.0000000000
11
74.1598804925
21
32.5181401183
31
0.0000000000
11
74.2432742237
21
32.6428939923
31
0.0000000000
0
SPLINE
5
520
100
AcDbEntity
8
0
100
AcDbSpline
62
0
6
CONTINUOUS
70
0
71
3
72
9
73
5
74
3
42
0.0000001000
43
0.0000001000
44
0.0000000001
12
0.1192781868
22
0.2633906667
32
0.0000000000
13
0.0003638747
23
0.2885529350
33
0.0000000000
40
0.0000000000
40
0.0000000000
40
0.0000000000
40
0.0000000000
40
0.5965345113
40
1.0000000000
40
1.0000000000
40
1.0000000000
40
1.0000000000
10
74.2432742237
20
32.6428939923
30
0.0000000000
10
74.2669920754
20
32.6952678665
30
0.0000000000
10
74.2921336162
20
32.7890757991
30
0.0000000000
10
74.2987247960
20
32.8853274737
30
0.0000000000
10
74.2987737330
20
32.9241345240
30
0.0000000000
11
74.2432742237
21
32.6428939923
31
0.0000000000
11
74.2903864595
21
32.8080568189
31
0.0000000000
11
74.2987737330
21
32.9241345240
31
0.0000000000
0
SPLINE
5
521
100
AcDbEntity
8
0
100
AcDbSpline
62
0
6
CONTINUOUS
70
0
71
3
72
11
73
7
74
5
42
0.0000001000
43
0.0000001000
44
0.0000000001
12
-2.1236212361
22
-0.8669647392
32
0.0000000000
13
0.0000000000
23
-2.2937730955
33
0.0000000000
40
0.0000000000
40
0.0000000000
40
0.0000000000
40
0.0000000000
40
0.2661672641
40
0.5370003761
40
0.7874407378
40
1.0000000000
40
1.0000000000
40
1.0000000000
40
1.0000000000
10
45.6663336987
20
21.3123843134
30
0.0000000000
10
45.4779208806
20
21.2354651025
30
0.0000000000
10
45.1184871624
20
21.0267304727
30
0.0000000000
10
44.6777434922
20
20.6086824415
30
0.0000000000
10
44.3723934692
20
20.1312595833
30
0.0000000000
10
44.2806930526
20
19.7778489441
30
0.0000000000
10
44.2806930526
20
19.6153280385
30
0.0000000000
11
45.6663336987
21
21.3123843134
31
0.0000000000
11
45.1360719802
21
21.0097853953
31
0.0000000000
11
44.6865378016
21
20.5810134635
31
0.0000000000
11
44.3861686664
21
20.0913451576
31
0.0000000000
11
44.2806930526
21
19.6153280385
31
0.0000000000
0
SPLINE
5
522
100
AcDbEntity
8
0
100
AcDbSpline
62
0
6
CONTINUOUS
70
0
71
3
72
10
73
6
74
4
42
0.0000001000
43
0.0000001000
44
0.0000000001
12
0.0000000000
22
-0.1377758584
32
0.0000000000
13
0.1163460072
23
0.0458533533
33
0.0000000000
40
0.0000000000
40
0.0000000000
40
0.0000000000
40
0.0000000000
40
0.6267686910
40
0.9126643970
40
1.0000000000
40
1.0000000000
40
1.0000000000
40
1.0000000000
10
43.8445714594
20
-3.3264794123
30
0.0000000000
10
43.8445714594
20
-3.3552639438
30
0.0000000000
10
43.8389115221
20
-3.3950483234
30
0.0000000000
10
43.8717664652
20
-3.4443348646
30
0.0000000000
10
43.8860693951
20
-3.4421649506
30
0.0000000000
10
43.8894564447
20
-3.4408300739
30
0.0000000000
11
43.8445714594
21
-3.3264794123
31
0.0000000000
11
43.8536087045
21
-3.4123588130
31
0.0000000000
11
43.8794873889
21
-3.4420544100
31
0.0000000000
11
43.8894564447
21
-3.4408300739
31
0.0000000000
0
SPLINE
5
523
100
AcDbEntity
8
0
100
AcDbSpline
62
0
6
CONTINUOUS
70
0
71
3
72
14
73
10
74
8
42
0.0000001000
43
0.0000001000
44
0.0000000001
12
-0.6073193026
22
0.7440210855
32
0.0000000000
13
-0.8871813390
23
-0.3588646285
33
0.0000000000
40
0.0000000000
40
0.0000000000
40
0.0000000000
40
0.0000000000
40
0.0707622630
40
0.2331518339
40
0.3178892525
40
0.4067961853
40
0.5373909416
40
0.6787115904
40
1.0000000000
40
1.0000000000
40
1.0000000000
40
1.0000000000
10
-28.5756351593
20
-14.1187653604
30
0.0000000000
10
-28.5899602554
20
-14.1012158218
30
0.0000000000
10
-28.6411215334
20
-14.0470243686
30
0.0000000000
10
-28.7318417455
20
-13.9965567437
30
0.0000000000
10
-28.8329371056
20
-13.9609967800
30
0.0000000000
10
-28.9284736098
20
-13.9416255354
30
0.0000000000
10
-29.0441868329
20
-13.9390069512
30
0.0000000000
10
-29.2323734814
20
-13.9624321172
30
0.0000000000
10
-29.3745610125
20
-14.0069947477
30
0.0000000000
10
-29.4695747063
20
-14.0454277629
30
0.0000000000
11
-28.5756351593
21
-14.1187653604
31
0.0000000000
11
-28.6224318239
21
-14.0699035000
31
0.0000000000
11
-28.7556526553
21
-13.9898774835
31
0.0000000000
11
-28.8322272752
21
-13.9631810273
31
0.0000000000
11
-28.9156232711
21
-13.9463113566
31
0.0000000000
11
-29.0405303905
21
-13.9420168110
31
0.0000000000
11
-29.1748544758
21
-13.9577791818
31
0.0000000000
11
-29.4695747063
21
-14.0454277629
31
0.0000000000
0
SPLINE
5
524
100
AcDbEntity
8
0
100
AcDbSpline
62
0
6
CONTINUOUS
70
0
71
3
72
14
73
10
74
8
42
0.0000001000
43
0.0000001000
44
0.0000000001
12
0.0460547728
22
-1.3747931386
32
0.0000000000
13
-1.2644378018
23
-0.5416404570
33
0.0000000000
40
0.0000000000
40
0.0000000000
40
0.0000000000
40
0.0000000000
40
0.1000083771
40
0.2311780469
40
0.3574695643
40
0.5616822320
40
0.7260199384
40
0.8525715233
40
1.0000000000
40
1.0000000000
40
1.0000000000
40
1.0000000000
10
-28.7741659976
20
-14.7868331791
30
0.0000000000
10
-28.7726307099
20
-14.8326634560
30
0.0000000000
10
-28.7775209290
20
-14.9389666970
30
0.0000000000
10
-28.8077033167
20
-15.1005012379
30
0.0000000000
10
-28.8716687209
20
-15.3031573656
30
0.0000000000
10
-28.9928376386
20
-15.4990036911
30
0.0000000000
10
-29.1528363906
20
-15.6616918247
30
0.0000000000
10
-29.3152773687
20
-15.7809671898
30
0.0000000000
10
-29.4267475249
20
-15.8403181404
30
0.0000000000
10
-29.4888855713
20
-15.8669358829
30
0.0000000000
11
-28.7741659976
21
-14.7868331791
31
0.0000000000
11
-28.7795995009
21
-14.9242937900
31
0.0000000000
11
-28.8117317399
21
-15.1018419265
31
0.0000000000
11
-28.8660031321
21
-15.2668691548
31
0.0000000000
11
-29.0114614313
21
-15.5071835261
31
0.0000000000
11
-29.1694517099
21
-15.6688649356
31
0.0000000000
11
-29.3096595769
21
-15.7720421942
31
0.0000000000
11
-29.4888855713
21
-15.8669358829
31
0.0000000000
0
SPLINE
5
525
100
AcDbEntity
8
0
100
AcDbSpline
62
0
6
CONTINUOUS
70
0
71
3
72
12
73
8
74
6
42
0.0000001000
43
0.0000001000
44
0.0000000001
12
1.3521157638
22
0.5519989491
32
0.0000000000
13
-0.0000000000
23
-1.4604519432
33
0.0000000000
40
0.0000000000
40
0.0000000000
40
0.0000000000
40
0.0000000000
40
0.2473080919
40
0.4622114337
40
0.6464190349
40
0.8169703243
40
1.0000000000
40
1.0000000000
40
1.0000000000
40
1.0000000000
10
-45.1163336987
20
-16.2065654640
30
0.0000000000
10
-45.0048706421
20
-16.1610608617
30
0.0000000000
10
-44.7866370092
20
-16.0968674066
30
0.0000000000
10
-44.4672386271
20
-16.0909153127
30
0.0000000000
10
-44.1981419806
20
-16.1906973731
30
0.0000000000
10
-44.0218308127
20
-16.4004947556
30
0.0000000000
10
-43.9905006738
20
-16.5770828566
30
0.0000000000
10
-43.9905006738
20
-16.6661848718
30
0.0000000000
11
-45.1163336987
21
-16.2065654640
31
0.0000000000
11
-44.7684321612
21
-16.1095260060
31
0.0000000000
11
-44.4545856501
21
-16.1119669463
31
0.0000000000
11
-44.2055156487
21
-16.2136493486
31
0.0000000000
11
-44.0456028641
21
-16.4046198309
31
0.0000000000
11
-43.9905006738
21
-16.6661848718
31
0.0000000000
0
SPLINE
5
526
100
AcDbEntity
8
0
100
AcDbSpline
62
0
6
CONTINUOUS
70
0
71
3
72
10
73
6
74
4
42
0.0000001000
43
0.0000001000
44
0.0000000001
12
-0.2300304836
22
-0.0939095517
32
0.0000000000
13
-0.2471900693
23
0.0358563244
33
0.0000000000
40
0.0000000000
40
0.0000000000
40
0.0000000000
40
0.0000000000
40
0.4344500698
40
0.8647467350
40
1.0000000000
40
1.0000000000
40
1.0000000000
40
1.0000000000
10
-72.9157491602
20
-50.7487317250
30
0.0000000000
10
-72.9490614134
20
-50.7623313954
30
0.0000000000
10
-73.0177244925
20
-50.7841658717
30
0.0000000000
10
-73.1008426355
20
-50.7928415787
30
0.0000000000
10
-73.1478352051
20
-50.7886235900
30
0.0000000000
10
-73.1589796265
20
-50.7870070283
30
0.0000000000
11
-72.9157491602
21
-50.7487317250
31
0.0000000000
11
-73.0188652840
21
-50.7806531950
31
0.0000000000
11
-73.1253574752
21
-50.7901192114
31
0.0000000000
11
-73.1589796265
21
-50.7870070283
31
0.0000000000
0
SPLINE
5
527
100
AcDbEntity
8
0
100
AcDbSpline
62
0
6
CONTINUOUS
70
0
71
3
72
11
73
7
74
5
42
0.0000001000
43
0.0000001000
44
0.0000000001
12
-0.2850749315
22
0.0413517390
32
0.0000000000
13
-0.0293186220
23
0.2864171321
33
0.0000000000
40
0.0000000000
40
0.0000000000
40
0.0000000000
40
0.0000000000
40
0.2240212173
40
0.5281317099
40
0.8137479629
40
1.0000000000
40
1.0000000000
40
1.0000000000
40
1.0000000000
10
-73.1589796265
20
-50.7870070283
30
0.0000000000
10
-73.1802672375
20
-50.7839191393
30
0.0000000000
10
-73.2296442138
20
-50.7714110863
30
0.0000000000
10
-73.2972262503
20
-50.7280174828
30
0.0000000000
10
-73.3362434290
20
-50.6621682214
30
0.0000000000
10
-73.3455501856
20
-50.6175086156
30
0.0000000000
10
-73.3473704033
20
-50.5997266908
30
0.0000000000
11
-73.1589796265
21
-50.7870070283
31
0.0000000000
11
-73.2211639978
21
-50.7704911664
31
0.0000000000
11
-73.2936232304
21
-50.7220859829
31
0.0000000000
11
-73.3359567087
21
-50.6520446489
31
0.0000000000
11
-73.3473704033
21
-50.5997266908
31
0.0000000000
0
SPLINE
5
528
100
AcDbEntity
8
0
100
AcDbSpline
62
0
6
CONTINUOUS
70
0
71
3
72
8
73
4
74
2
42
0.0000001000
43
0.0000001000
44
0.0000000001
12
-0.0028381264
22
0.0277259971
32
0.0000000000
13
0.0000000000
23
0.0277379894
33
0.0000000000
40
0.0000000000
40
0.0000000000
40
0.0000000000
40
0.0000000000
40
1.0000000000
40
1.0000000000
40
1.0000000000
40
1.0000000000
10
-73.3473704033
20
-50.5997266908
30
0.0000000000
10
-73.3483164455
20
-50.5904846918
30
0.0000000000
10
-73.3487618621
20
-50.5812010261
30
0.0000000000
10
-73.3487618621
20
-50.5719550297
30
0.0000000000
11
-73.3473704033
21
-50.5997266908
31
0.0000000000
11
-73.3487618621
21
-50.5719550297
31
0.0000000000
0
SPLINE
5
529
100
AcDbEntity
8
0
100
AcDbSpline
62
0
6
CONTINUOUS
70
0
71
3
72
12
73
8
74
6
42
0.0000001000
43
0.0000001000
44
0.0000000001
12
-1.7276711048
22
-0.7053187750
32
0.0000000000
13
0.0000000000
23
-1.8660980737
33
0.0000000000
40
0.0000000000
40
0.0000000000
40
0.0000000000
40
0.0000000000
40
0.2116630164
40
0.4296163438
40
0.6406525462
40
0.8330909670
40
1.0000000000
40
1.0000000000
40
1.0000000000
40
1.0000000000
10
45.8163336987
20
20.9165405483
30
0.0000000000
10
45.6944390062
20
20.8667772485
30
0.0000000000
10
45.4578778076
20
20.7377980662
30
0.0000000000
10
45.1486744311
20
20.4830014125
30
0.0000000000
10
44.9006579657
20
20.1829509876
30
0.0000000000
10
44.7364699340
20
19.8652033748
30
0.0000000000
10
44.6905006738
20
19.6415051999
30
0.0000000000
10
44.6905006738
20
19.5376823250
30
0.0000000000
11
45.8163336987
21
20.9165405483
31
0.0000000000
11
45.4684321612
21
20.7295195904
31
0.0000000000
11
45.1545856501
21
20.4708240469
31
0.0000000000
11
44.9055156487
21
20.1657768400
31
0.0000000000
11
44.7456028641
21
19.8442381159
31
0.0000000000
11
44.6905006738
21
19.5376823250
31
0.0000000000
0
SPLINE
5
52A
100
AcDbEntity
8
0
100
AcDbSpline
62
0
6
CONTINUOUS
70
0
71
3
72
10
73
6
74
4
42
0.0000001000
43
0.0000001000
44
0.0000000001
12
0.0000000000
22
-0.2872826771
32
0.0000000000
13
-0.1675301600
23
-0.2339691261
33
0.0000000000
40
0.0000000000
40
0.0000000000
40
0.0000000000
40
0.0000000000
40
0.3137930443
40
0.7036158386
40
1.0000000000
40
1.0000000000
40
1.0000000000
40
1.0000000000
10
74.0487618621
20
9.6028320493
30
0.0000000000
10
74.0487618621
20
9.5727829474
30
0.0000000000
10
74.0382640973
20
9.5053046024
30
0.0000000000
10
74.0011997302
20
9.4162215867
30
0.0000000000
10
73.9661920259
20
9.3603519216
30
0.0000000000
10
73.9496409305
20
9.3372370072
30
0.0000000000
11
74.0487618621
21
9.6028320493
31
0.0000000000
11
74.0362994568
21
9.5135503311
31
0.0000000000
11
73.9946468163
21
9.4095952018
31
0.0000000000
11
73.9496409305
21
9.3372370072
31
0.0000000000
0
SPLINE
5
52B
100
AcDbEntity
8
0
100
AcDbSpline
62
0
6
CONTINUOUS
70
0
71
3
72
11
73
7
74
5
42
0.0000001000
43
0.0000001000
44
0.0000000001
12
-0.2513194782
22
-0.3509875398
32
0.0000000000
13
-0.3989965959
23
-0.1628896782
33
0.0000000000
40
0.0000000000
40
0.0000000000
40
0.0000000000
40
0.0000000000
40
0.1027601047
40
0.4205530831
40
0.7280147019
40
1.0000000000
40
1.0000000000
40
1.0000000000
40
1.0000000000
10
73.9496409305
20
9.3372370072
30
0.0000000000
10
73.9410323919
20
9.3252145018
30
0.0000000000
10
73.9042173634
20
9.2771365229
30
0.0000000000
10
73.8307151403
20
9.2020217668
30
0.0000000000
10
73.7263431786
20
9.1254852805
30
0.0000000000
10
73.6519228962
20
9.0872698293
30
0.0000000000
10
73.6157491602
20
9.0725019634
30
0.0000000000
11
73.9496409305
21
9.3372370072
31
0.0000000000
11
73.9227042076
21
9.3019990567
31
0.0000000000
11
73.8271905910
21
9.2038430704
31
0.0000000000
11
73.7202410873
21
9.1256159780
31
0.0000000000
11
73.6157491602
21
9.0725019634
31
0.0000000000
0
SPLINE
5
52C
100
AcDbEntity
8
0
100
AcDbSpline
62
0
6
CONTINUOUS
70
0
71
3
72
14
73
10
74
8
42
0.0000001000
43
0.0000001000
44
0.0000000001
12
-0.6652390340
22
-0.2715826984
32
0.0000000000
13
0.0000000000
23
-0.7185402803
33
0.0000000000
40
0.0000000000
40
0.0000000000
40
0.0000000000
40
0.0000000000
40
0.1328950069
40
0.2843682289
40
0.4457016899
40
0.6064134429
40
0.7567192646
40
0.8891412844
40
1.0000000000
40
1.0000000000
40
1.0000000000
40
1.0000000000
10
-72.7657491602
20
-10.6273569280
30
0.0000000000
10
-72.7952181422
20
-10.6393875896
30
0.0000000000
10
-72.8565033806
20
-10.6696360770
30
0.0000000000
10
-72.9453965555
20
-10.7293047749
30
0.0000000000
10
-73.0303446901
20
-10.8050256313
30
0.0000000000
10
-73.1032951258
20
-10.8920668117
30
0.0000000000
10
-73.1579119292
20
-10.9837830180
30
0.0000000000
10
-73.1907321378
20
-11.0727742916
30
0.0000000000
10
-73.1987618621
20
-11.1311348631
30
0.0000000000
10
-73.1987618621
20
-11.1576870139
30
0.0000000000
11
-72.7657491602
21
-10.6273569280
31
0.0000000000
11
-72.8515015830
21
-10.6693681341
31
0.0000000000
11
-72.9419594906
21
-10.7298943925
31
0.0000000000
11
-73.0284391704
21
-10.8070939756
31
0.0000000000
11
-73.1023050269
21
-10.8958575562
31
0.0000000000
11
-73.1569360229
21
-10.9890220576
31
0.0000000000
11
-73.1888987656
21
-11.0786435464
31
0.0000000000
11
-73.1987618621
21
-11.1576870139
31
0.0000000000
0
SPLINE
5
52D
100
AcDbEntity
8
0
100
AcDbSpline
62
0
6
CONTINUOUS
70
0
71
3
72
17
73
13
74
11
42
0.0000001000
43
0.0000001000
44
0.0000000001
12
-1.2540531484
22
-1.7322374387
32
0.0000000000
13
-1.9798908721
23
-0.8082870639
33
0.0000000000
40
0.0000000000
40
0.0000000000
40
0.0000000000
40
0.0000000000
40
0.0899536720
40
0.1879540837
40
0.2921163672
40
0.4002727417
40
0.5100344121
40
0.6188888743
40
0.7245459304
40
0.8225897214
40
0.9153247375
40
1.0000000000
40
1.0000000000
40
1.0000000000
40
1.0000000000
10
-65.0843647256
20
-6.8599766055
30
0.0000000000
10
-65.1219669541
20
-6.9119169782
30
0.0000000000
10
-65.2035360984
20
-7.0183014743
30
0.0000000000
10
-65.3391023694
20
-7.1764947677
30
0.0000000000
10
-65.4922848699
20
-7.3362482395
30
0.0000000000
10
-65.6604245855
20
-7.4927700484
30
0.0000000000
10
-65.8398138965
20
-7.6415619111
30
0.0000000000
10
-66.0259875815
20
-7.7787871604
30
0.0000000000
10
-66.2126734843
20
-7.9006193366
30
0.0000000000
10
-66.3958858666
20
-8.0061220463
30
0.0000000000
10
-66.5712067206
20
-8.0947469210
30
0.0000000000
10
-66.6870170029
20
-8.1457249167
30
0.0000000000
10
-66.7428995960
20
-8.1685388898
30
0.0000000000
11
-65.0843647256
21
-6.8599766055
31
0.0000000000
11
-65.2013397254
21
-7.0126933977
31
0.0000000000
11
-65.3376463778
21
-7.1718876153
31
0.0000000000
11
-65.4917652542
21
-7.3327186808
31
0.0000000000
11
-65.6610321653
21
-7.4903455157
31
0.0000000000
11
-65.8416980736
21
-7.6402027133
31
0.0000000000
11
-66.0291027918
21
-7.7782961538
31
0.0000000000
11
-66.2183585966
21
-7.9017296699
31
0.0000000000
11
-66.4000955115
21
-8.0062901241
31
0.0000000000
11
-66.5771268504
21
-8.0956727727
31
0.0000000000
11
-66.7428995960
21
-8.1685388898
31
0.0000000000
0
SPLINE
5
52E
100
AcDbEntity
8
0
100
AcDbSpline
62
0
6
CONTINUOUS
70
0
71
3
72
12
73
8
74
6
42
0.0000001000
43
0.0000001000
44
0.0000000001
12
-0.3958251933
22
-0.1615949585
32
0.0000000000
13
-0.2507137322
23
-0.3463136422
33
0.0000000000
40
0.0000000000
40
0.0000000000
40
0.0000000000
40
0.0000000000
40
0.1845139589
40
0.3859588004
40
0.5955996042
40
0.8034767672
40
1.0000000000
40
1.0000000000
40
1.0000000000
40
1.0000000000
10
-59.7179439870
20
0.3562414777
30
0.0000000000
10
-59.7422890781
20
0.3463026359
30
0.0000000000
10
-59.7920254900
20
0.3225039026
30
0.0000000000
10
-59.8642743809
20
0.2776477053
30
0.0000000000
10
-59.9338706077
20
0.2231551451
30
0.0000000000
10
-59.9966070866
20
0.1619071176
30
0.0000000000
10
-60.0332272700
20
0.1172152464
30
0.0000000000
10
-60.0496509611
20
0.0945290209
30
0.0000000000
11
-59.7179439870
21
0.3562414777
31
0.0000000000
11
-59.7891768235
21
0.3223436995
31
0.0000000000
11
-59.8624051326
21
0.2770087436
31
0.0000000000
11
-59.9329878316
21
0.2217675303
31
0.0000000000
11
-59.9965259158
21
0.1596239643
31
0.0000000000
11
-60.0496509611
21
0.0945290209
31
0.0000000000
0
ENDSEC
0
SECTION
2
OBJECTS
0
DICTIONARY
5
C
100
AcDbDictionary
280
0
281
1
3
ACAD_GROUP
350
D
3
ACAD_MLINESTYLE
350
17
3
ACAD_LAYOUT
350
1A
3
ACAD_PLOTSETTINGS
350
19
3
ACAD_PLOTSTYLENAME
350
E
0
DICTIONARY
5
D
102
{ACAD_REACTORS
330
C
102
}
100
AcDbDictionary
280
0
281
1
0
ACDBDICTIONARYWDFLT
5
E
102
{ACAD_REACTORS
330
C
102
}
100
AcDbDictionary
281
1
3
Normal
350
F
100
AcDbDictionaryWithDefault
340
F
0
DICTIONARY
5
17
102
{ACAD_REACTORS
330
C
102
}
100
AcDbDictionary
280
0
281
1
3
Standard
350
18
0
DICTIONARY
5
19
102
{ACAD_REACTORS
330
C
102
}
100
AcDbDictionary
281
1
0
DICTIONARY
5
1A
102
{ACAD_REACTORS
330
C
102
}
100
AcDbDictionary
281
1
3
Layout1
350
1E
3
Model
350
22
0
ACDBPLACEHOLDER
5
F
102
{ACAD_REACTORS
330
E
102
}
0
MLINESTYLE
5
18
102
{ACAD_REACTORS
330
17
102
}
100
AcDbMlineStyle
2
STANDARD
70
0
3

62
256
51
90.0
52
90.0
71
2
49
0.5
62
256
6
BYLAYER
49
-0.5
62
256
6
BYLAYER
0
LAYOUT
5
1E
102
{ACAD_REACTORS
330
1A
102
}
100
AcDbPlotSettings
1

2

4

6

40
0.0
41
0.0
42
0.0
43
0.0
44
0.0
45
0.0
46
0.0
47
0.0
48
0.0
49
0.0
140
0.0
141
0.0
142
1.0
143
1.0
70
0
72
0
73
0
74
0
7

75
0
147
1.0
148
0.0
149
0.0
100
AcDbLayout
1
Layout1
70
0
71
0
10
0.0
20
0.0
11
0.0
21
0.0
12
0.0
22
0.0
32
0.0
14
0.0
24
0.0
34
0.0
15
0.0
25
0.0
35
0.0
146
0.0
13
0.0
23
0.0
33
0.0
16
0.0
26
0.0
36
0.0
17
0.0
27
0.0
37
0.0
76
0
330
1B
331
0
345
0
346
0
0
LAYOUT
5
22
102
{ACAD_REACTORS
330
1A
102
}
100
AcDbPlotSettings
1

2

4

6

40
0.0
41
0.0
42
0.0
43
0.0
44
0.0
45
0.0
46
0.0
47
0.0
48
0.0
49
0.0
140
0.0
141
0.0
142
1.0
143
1.0
70
0
72
0
73
0
74
0
7

75
0
147
1.0
148
0.0
149
0.0
100
AcDbLayout
1
Model
70
0
71
0
10
0.0
20
0.0
11
0.0
21
0.0
12
0.0
22
0.0
32
0.0
14
0.0
24
0.0
34
0.0
15
0.0
25
0.0
35
0.0
146
0.0
13
0.0
23
0.0
33
0.0
16
0.0
26
0.0
36
0.0
17
0.0
27
0.0
37
0.0
76
0
330
1F
331
0
345
0
346
0
0
ENDSEC
0
EOF
