0
SECTION
2
HEADER
9
$ACADVER
1
AC1014
9
$HANDSEED
5
       443
9
$EXTMAX
10
297.0000000000
20
210.0000000000
9
$EXTMIN
10
0.0000000000
20
0.0000000000
9
$LIMMIN
10
0.0000000000
20
0.0000000000
9
$LIMMAX
10
297.0000000000
20
210.0000000000
9
$VIEWCTR
10
148.5000000000
20
105.0000000000
9
$VIEWSIZE
40
210.0000000000
9
$CLAYER
8
0
9
$LTSCALE
40
16.3350000000
9
$CELTYPE
6
BYLAYER
9
$DIMSCALE
40
1
9
$DIMASZ
40
3.0000000000
9
$DIMEXO
40
1.8562500000
9
$DIMDLI
40
11.2860000000
9
$DIMEXE
40
5.3460000000
9
$DIMCEN
40
2.6730000000
9
$DIMLFAC
40
1.0000000000
9
$DIMTXT
40
3.0000000000
9
$DIMTOL
70
1
9
$DIMLIM
70
0
9
$DIMTFAC
40
1.0000000000
9
$DIMTP
40
0.0100000000
9
$DIMTM
40
0.0100000000
9
$MEASUREMENT
70
1
0
ENDSEC
0
SECTION
2
CLASSES
0
ENDSEC
0
SECTION
2
TABLES
0
TABLE
2
VPORT
5
8
100
AcDbSymbolTable
70
2
0
VPORT
5
1F4
100
AcDbSymbolTableRecord
100
AcDbViewportTableRecord
2
*ACTIVE
70
0
10
0.0
20
0.0
11
1.0
21
1.0
12
148.5000000000
22
105.0000000000
13
0.0
23
0.0
14
1.0
24
1.0
15
0.0
25
0.0
16
0.0
26
0.0
36
1.0
17
0.0
27
0.0
37
0.0
40
210.0000000000
41
1.4142857143
42
50.0
43
0.0
44
0.0
50
0.0
51
0.0
71
0
72
100
73
1
74
1
75
0
76
0
77
0
78
0
0
ENDTAB
0
TABLE
2
LTYPE
5
5
100
AcDbSymbolTable
70
6
0
LTYPE
5
14
100
AcDbSymbolTableRecord
100
AcDbLinetypeTableRecord
2
BYBLOCK
70
0
3

72
65
73
0
40
0.0
0
LTYPE
5
15
100
AcDbSymbolTableRecord
100
AcDbLinetypeTableRecord
2
BYLAYER
70
0
3

72
65
73
0
40
0.0
0
LTYPE
5
16
100
AcDbSymbolTableRecord
100
AcDbLinetypeTableRecord
2
CONTINUOUS
70
64
3
Solid line
72
65
73
0
40
0
0
LTYPE
5
1F5
100
AcDbSymbolTableRecord
100
AcDbLinetypeTableRecord
2
CENTER
70
64
3
____ _ ____ _ ____ _ ____ _ ____ _ ____ _ ____
72
65
73
4
40
0.6
49
0.375
74
0
49
-0.075
74
0
49
0.075
74
0
49
-0.075
74
0
0
LTYPE
5
1F6
100
AcDbSymbolTableRecord
100
AcDbLinetypeTableRecord
2
HIDDEN
70
64
3
- - - - - - - - - - - - - - - - - - - -
72
65
73
2
40
0.2
49
0.1
74
0
49
-0.1
74
0
0
LTYPE
5
1F7
100
AcDbSymbolTableRecord
100
AcDbLinetypeTableRecord
2
PHANTOM
70
64
3
_____ _ _ _____ _ _ _____ _ _ _____
72
65
73
6
40
0.8
49
0.45
74
0
49
-0.05
74
0
49
0.1
74
0
49
-0.05
74
0
49
0.1
74
0
49
-0.05
74
0
0
LTYPE
5
1F8
100
AcDbSymbolTableRecord
100
AcDbLinetypeTableRecord
2
DOT
70
64
3
. . . . . . . . . . . . . . . . . . . .
72
65
73
2
40
0.2
49
0.1
74
0
49
-0.1
74
0
0
LTYPE
5
1F9
100
AcDbSymbolTableRecord
100
AcDbLinetypeTableRecord
2
DASHED
70
64
3
- - - - - - - - - - - - - - - - - - - -
72
65
73
2
40
0.2
49
0.1
74
0
49
-0.1
74
0
0
ENDTAB
0
TABLE
2
LAYER
5
2
100
AcDbSymbolTable
70
36
0
LAYER
5
10
100
AcDbSymbolTableRecord
100
AcDbLayerTableRecord
2
0
70
0
62
7
6
CONTINUOUS
0
LAYER
5
1FA
100
AcDbSymbolTableRecord
100
AcDbLayerTableRecord
2
DEFAULT_1
70
0
62
7
6
CENTER
0
LAYER
5
1FB
100
AcDbSymbolTableRecord
100
AcDbLayerTableRecord
2
DEFAULT_2
70
0
62
8
6
HIDDEN
0
LAYER
5
1FC
100
AcDbSymbolTableRecord
100
AcDbLayerTableRecord
2
DEFAULT_3
70
0
62
7
6
PHANTOM
0
LAYER
5
1FD
100
AcDbSymbolTableRecord
100
AcDbLayerTableRecord
2
_BLACK_HOLE
70
0
62
7
6
CONTINUOUS
0
LAYER
5
1FE
100
AcDbSymbolTableRecord
100
AcDbLayerTableRecord
2
ASSI
70
0
62
7
6
CONTINUOUS
0
LAYER
5
1FF
100
AcDbSymbolTableRecord
100
AcDbLayerTableRecord
2
COLOR9
70
0
62
7
6
CONTINUOUS
0
LAYER
5
200
100
AcDbSymbolTableRecord
100
AcDbLayerTableRecord
2
COORDINATE
70
0
62
7
6
CONTINUOUS
0
LAYER
5
201
100
AcDbSymbolTableRecord
100
AcDbLayerTableRecord
2
COORD_ORIGINE
70
0
62
7
6
CONTINUOUS
0
LAYER
5
202
100
AcDbSymbolTableRecord
100
AcDbLayerTableRecord
2
COPY
70
0
62
7
6
CONTINUOUS
0
LAYER
5
203
100
AcDbSymbolTableRecord
100
AcDbLayerTableRecord
2
COPY-PUBBLISH
70
0
62
7
6
CONTINUOUS
0
LAYER
5
204
100
AcDbSymbolTableRecord
100
AcDbLayerTableRecord
2
COSMETICHE
70
0
62
7
6
CONTINUOUS
0
LAYER
5
205
100
AcDbSymbolTableRecord
100
AcDbLayerTableRecord
2
COSMETICI
70
0
62
7
6
CONTINUOUS
0
LAYER
5
206
100
AcDbSymbolTableRecord
100
AcDbLayerTableRecord
2
CURVE
70
0
62
7
6
CONTINUOUS
0
LAYER
5
207
100
AcDbSymbolTableRecord
100
AcDbLayerTableRecord
2
DRAFT
70
0
62
7
6
CONTINUOUS
0
LAYER
5
208
100
AcDbSymbolTableRecord
100
AcDbLayerTableRecord
2
IGES_SCRITTE
70
0
62
7
6
CONTINUOUS
0
LAYER
5
209
100
AcDbSymbolTableRecord
100
AcDbLayerTableRecord
2
INCISIONI_LASER
70
0
62
7
6
CONTINUOUS
0
LAYER
5
20A
100
AcDbSymbolTableRecord
100
AcDbLayerTableRecord
2
INTF_YELLOW
70
0
62
7
6
CONTINUOUS
0
LAYER
5
20B
100
AcDbSymbolTableRecord
100
AcDbLayerTableRecord
2
NOTE
70
0
62
7
6
CONTINUOUS
0
LAYER
5
20C
100
AcDbSymbolTableRecord
100
AcDbLayerTableRecord
2
PIANI
70
0
62
7
6
CONTINUOUS
0
LAYER
5
20D
100
AcDbSymbolTableRecord
100
AcDbLayerTableRecord
2
PIANI_ORIGINE
70
0
62
7
6
CONTINUOUS
0
LAYER
5
20E
100
AcDbSymbolTableRecord
100
AcDbLayerTableRecord
2
PIANI_RIFERIMENTO
70
0
62
7
6
CONTINUOUS
0
LAYER
5
20F
100
AcDbSymbolTableRecord
100
AcDbLayerTableRecord
2
PIANI_SFORMO
70
0
62
7
6
CONTINUOUS
0
LAYER
5
210
100
AcDbSymbolTableRecord
100
AcDbLayerTableRecord
2
PUNTI
70
0
62
7
6
CONTINUOUS
0
LAYER
5
211
100
AcDbSymbolTableRecord
100
AcDbLayerTableRecord
2
RACCORDO
70
0
62
7
6
CONTINUOUS
0
LAYER
5
212
100
AcDbSymbolTableRecord
100
AcDbLayerTableRecord
2
SMUSSO
70
0
62
7
6
CONTINUOUS
0
LAYER
5
213
100
AcDbSymbolTableRecord
100
AcDbLayerTableRecord
2
SUPERFICI
70
0
62
7
6
CONTINUOUS
0
LAYER
5
214
100
AcDbSymbolTableRecord
100
AcDbLayerTableRecord
2
TRASH
70
0
62
7
6
CONTINUOUS
0
LAYER
5
215
100
AcDbSymbolTableRecord
100
AcDbLayerTableRecord
2
XSEC_DATUMS
70
0
62
7
6
CONTINUOUS
0
ENDTAB
0
TABLE
2
STYLE
5
3
100
AcDbSymbolTable
70
1
0
STYLE
5
11
100
AcDbSymbolTableRecord
100
AcDbTextStyleTableRecord
2
STANDARD
70
0
40
0.0
41
0.8000000000
50
0.0
71
0
42
0.2
3
txt
4

0
ENDTAB
0
TABLE
2
VIEW
5
6
100
AcDbSymbolTable
70
0
0
ENDTAB
0
TABLE
2
UCS
5
7
100
AcDbSymbolTable
70
0
0
ENDTAB
0
TABLE
2
APPID
5
9
100
AcDbSymbolTable
70
1
0
APPID
5
216
100
AcDbSymbolTableRecord
100
AcDbRegAppTableRecord
2
ACAD
70
0
0
ENDTAB
0
TABLE
2
DIMSTYLE
5
A
100
AcDbSymbolTable
70
1
0
DIMSTYLE
105
217
100
AcDbSymbolTableRecord
100
AcDbDimStyleTableRecord
2
STANDARD
70
0
3

4

5

6

7

40
1.0
41
3.0000000000
42
0.0625
43
0.38
44
0.18
45
0.0
46
0.0
47
0.0100000000
48
0.0100000000
140
3.0000000000
141
0.09
142
0.0
143
25.4
144
1.0000000000
145
0.0
146
1.0000000000
147
0.09
71
1
72
0
73
0
74
0
75
0
76
0
77
1
78
8
170
0
171
2
172
0
173
0
174
0
175
0
176
0
177
0
178
0
270
2
271
2
272
2
273
2
274
2
340
11
275
0
280
0
281
0
282
0
283
1
284
8
285
0
286
0
287
3
288
0
0
ENDTAB
0
TABLE
2
BLOCK_RECORD
5
1
100
AcDbSymbolTable
70
0
0
BLOCK_RECORD
5
1B
100
AcDbSymbolTableRecord
100
AcDbBlockTableRecord
2
*MODEL_SPACE
0
BLOCK_RECORD
5
1C
100
AcDbSymbolTableRecord
100
AcDbBlockTableRecord
2
*PAPER_SPACE
0
ENDTAB
0
ENDSEC
0
SECTION
2
BLOCKS
0
BLOCK
5
1E
100
AcDbEntity
8
0
100
AcDbBlockBegin
2
*MODEL_SPACE
70
0
10
0.0
20
0.0
30
0.0
3
*MODEL_SPACE
1

0
ENDBLK
5
1F
100
AcDbEntity
8
0
100
AcDbBlockEnd
0
BLOCK
5
20
100
AcDbEntity
8
0
100
AcDbBlockBegin
2
*PAPER_SPACE
70
0
10
0.0
20
0.0
30
0.0
3
*PAPER_SPACE
1

0
ENDBLK
5
21
100
AcDbEntity
8
0
100
AcDbBlockEnd
0
ENDSEC
0
SECTION
2
ENTITIES
0
LINE
5
218
100
AcDbEntity
8
0
100
AcDbLine
62
7
6
CONTINUOUS
10
-13.7331458661
20
21.4020103576
11
-13.1629453521
21
21.7344894836
0
LINE
5
219
100
AcDbEntity
8
0
100
AcDbLine
62
9
6
CONTINUOUS
10
-13.4992419036
20
21.3935636152
11
-13.0558517444
21
21.6521006895
0
LINE
5
21A
100
AcDbEntity
8
0
100
AcDbLine
62
7
6
CONTINUOUS
10
-13.6229588041
20
22.7493580307
11
-12.0397871092
21
23.5615550780
0
LINE
5
21B
100
AcDbEntity
8
0
100
AcDbLine
62
9
6
CONTINUOUS
10
-13.5098731380
20
22.7429100556
11
-11.9271165348
21
23.5548941529
0
LINE
5
21C
100
AcDbEntity
8
0
100
AcDbLine
62
9
6
CONTINUOUS
10
-11.8313350676
20
21.9036410203
11
-10.2300542768
21
22.7063630238
0
LINE
5
21D
100
AcDbEntity
8
0
100
AcDbLine
62
9
6
CONTINUOUS
10
-11.6545613639
20
21.5987514815
11
-10.0532805731
21
22.4014734850
0
LINE
5
21E
100
AcDbEntity
8
0
100
AcDbLine
62
7
6
CONTINUOUS
10
-12.0397851395
20
23.5615560885
11
-12.0380487220
21
23.5624243116
0
LINE
5
21F
100
AcDbEntity
8
0
100
AcDbLine
62
9
6
CONTINUOUS
10
-10.2300542768
20
22.7063630238
11
-9.7017871050
21
22.9698018439
0
LINE
5
220
100
AcDbEntity
8
0
100
AcDbLine
62
9
6
CONTINUOUS
10
-10.0532805731
20
22.4014734850
11
-9.5250134013
21
22.6649123051
0
LINE
5
221
100
AcDbEntity
8
0
100
AcDbLine
62
7
6
CONTINUOUS
10
-17.1144103854
20
19.3193471063
11
-14.3792569885
21
20.6703941686
0
LINE
5
222
100
AcDbEntity
8
0
100
AcDbLine
62
9
6
CONTINUOUS
10
-16.8837186334
20
19.3085468721
11
-14.1521655851
21
20.6578155186
0
LINE
5
223
100
AcDbEntity
8
0
100
AcDbLine
62
7
6
CONTINUOUS
10
-12.0380459581
20
23.5624256580
11
-11.5031787673
21
23.8229764105
0
LINE
5
224
100
AcDbEntity
8
0
100
AcDbLine
62
9
6
CONTINUOUS
10
-11.9271165348
20
23.5548941529
11
-11.3926666562
21
23.8152416195
0
LINE
5
225
100
AcDbEntity
8
0
100
AcDbLine
62
9
6
CONTINUOUS
10
2.7786445913
20
-25.1340523474
11
2.2503774196
21
-25.0255500703
0
LINE
5
226
100
AcDbEntity
8
0
100
AcDbLine
62
7
6
CONTINUOUS
10
-18.8982506462
20
-19.5576036231
11
-4.2060923831
21
-26.9036827547
0
LINE
5
227
100
AcDbEntity
8
0
100
AcDbLine
62
9
6
CONTINUOUS
10
-19.1511639982
20
-19.1004331674
11
-4.4664091074
21
-26.4428106128
0
LINE
5
228
100
AcDbEntity
8
0
100
AcDbLine
62
7
6
CONTINUOUS
10
-4.2069085779
20
-26.9032735491
11
-4.2061283321
21
-26.9036647802
0
LINE
5
229
100
AcDbEntity
8
0
100
AcDbLine
62
7
6
CONTINUOUS
10
-10.0532805731
20
20.7993228241
11
-10.9433407558
21
20.3026419028
0
LINE
5
22A
100
AcDbEntity
8
0
100
AcDbLine
62
7
6
CONTINUOUS
10
-8.0733815858
20
21.1950139765
11
-9.1278710172
21
20.6540409378
0
LINE
5
22B
100
AcDbEntity
8
0
100
AcDbLine
62
7
6
CONTINUOUS
10
-2.3162682519
20
24.6576534293
11
-9.3502876188
21
21.1498947397
0
LINE
5
22C
100
AcDbEntity
8
0
100
AcDbLine
62
7
6
CONTINUOUS
10
-2.7371581798
20
23.7944574419
11
-8.0733815858
21
21.1950139765
0
LINE
5
22D
100
AcDbEntity
8
0
100
AcDbLine
62
9
6
CONTINUOUS
10
2.6892307960
20
-24.8144855414
11
2.2503774196
21
-24.7243482147
0
LINE
5
22E
100
AcDbEntity
8
0
100
AcDbLine
62
7
6
CONTINUOUS
10
-1.0596214424
20
-25.9567505447
11
0.3615479655
21
-26.6673352487
0
LINE
5
22F
100
AcDbEntity
8
0
100
AcDbLine
62
9
6
CONTINUOUS
10
-0.9429458129
20
-25.9123565576
11
0.2965746691
21
-26.5321167986
0
LINE
5
230
100
AcDbEntity
8
0
100
AcDbLine
62
9
6
CONTINUOUS
10
0.2965746691
20
-26.1921428644
11
-0.6181802653
21
-25.7347653973
0
LINE
5
231
100
AcDbEntity
8
0
100
AcDbLine
62
9
6
CONTINUOUS
10
0.3849630167
20
-25.9604486906
11
-0.5639580336
21
-25.4859881655
0
LINE
5
232
100
AcDbEntity
8
0
100
AcDbLine
62
7
6
CONTINUOUS
10
1.0077952772
20
-25.2156463873
11
-0.5206162588
21
-24.4514406193
0
LINE
5
233
100
AcDbEntity
8
0
100
AcDbLine
62
7
6
CONTINUOUS
10
-19.2976984267
20
-18.9221882652
11
-19.2976789478
21
-18.9224318753
0
LINE
5
234
100
AcDbEntity
8
0
100
AcDbLine
62
7
6
CONTINUOUS
10
-17.7341423060
20
18.4169288784
11
-17.7341573483
21
18.4168283918
0
LINE
5
235
100
AcDbEntity
8
0
100
AcDbLine
62
9
6
CONTINUOUS
10
-10.0532805731
20
21.6744286326
11
-9.5250134013
21
22.3173807883
0
LINE
5
236
100
AcDbEntity
8
0
100
AcDbLine
62
7
6
CONTINUOUS
10
-10.0532805731
20
21.5848981662
11
-9.5096528289
21
22.2465456217
0
LINE
5
237
100
AcDbEntity
8
0
100
AcDbLine
62
7
6
CONTINUOUS
10
-8.4622903154
20
18.8750878211
11
-7.7551835342
21
19.2740276799
0
LINE
5
238
100
AcDbEntity
8
0
100
AcDbLine
62
7
6
CONTINUOUS
10
-8.4622903154
20
20.3212505869
11
-7.6145849294
21
20.7511434836
0
LINE
5
239
100
AcDbEntity
8
0
100
AcDbLine
62
9
6
CONTINUOUS
10
-5.9882393327
20
19.9379706852
11
-5.7752845469
21
20.0459654570
0
LINE
5
23A
100
AcDbEntity
8
0
100
AcDbLine
62
9
6
CONTINUOUS
10
-5.8459952250
20
19.6944692332
11
-5.6338631907
21
19.8020467669
0
LINE
5
23B
100
AcDbEntity
8
0
100
AcDbLine
62
7
6
CONTINUOUS
10
-2.0962724061
20
23.4740145551
11
-6.6945233624
21
21.2076532576
0
LINE
5
23C
100
AcDbEntity
8
0
100
AcDbLine
62
7
6
CONTINUOUS
10
-2.3811719972
20
21.9479541248
11
-2.0651254665
21
22.1037254458
0
LINE
5
23D
100
AcDbEntity
8
0
100
AcDbLine
62
9
6
CONTINUOUS
10
-5.7752845469
20
20.0459654570
11
-5.0681777657
21
20.3944804592
0
LINE
5
23E
100
AcDbEntity
8
0
100
AcDbLine
62
7
6
CONTINUOUS
10
0.7342115973
20
23.1324135047
11
-1.4152461709
21
22.0730002750
0
LINE
5
23F
100
AcDbEntity
8
0
100
AcDbLine
62
9
6
CONTINUOUS
10
-5.6338631907
20
19.8020467669
11
-4.9267564095
21
20.1505617691
0
LINE
5
240
100
AcDbEntity
8
0
100
AcDbLine
62
7
6
CONTINUOUS
10
1.5244087411
20
-24.7800403920
11
1.0077952772
21
-24.5217336601
0
LINE
5
241
100
AcDbEntity
8
0
100
AcDbLine
62
9
6
CONTINUOUS
10
2.2503774196
20
-24.5950588532
11
2.6892307960
21
-24.8144855414
0
LINE
5
242
100
AcDbEntity
8
0
100
AcDbLine
62
7
6
CONTINUOUS
10
2.2503774196
20
-24.5914387036
11
2.7126458472
21
-24.8225729175
0
LINE
5
243
100
AcDbEntity
8
0
100
AcDbLine
62
7
6
CONTINUOUS
10
-5.6338631907
20
18.5896141329
11
-5.8459952250
21
18.4699321752
0
LINE
5
244
100
AcDbEntity
8
0
100
AcDbLine
62
7
6
CONTINUOUS
10
-4.1680518620
20
19.2029252191
11
-4.3808183643
21
19.0950259306
0
LINE
5
245
100
AcDbEntity
8
0
100
AcDbLine
62
9
6
CONTINUOUS
10
-4.0782282720
20
19.1974373196
11
-4.2911830579
21
19.0894425478
0
LINE
5
246
100
AcDbEntity
8
0
100
AcDbLine
62
7
6
CONTINUOUS
10
-1.4152461709
20
21.5069184225
11
-0.3112793018
21
22.0589018570
0
LINE
5
247
100
AcDbEntity
8
0
100
AcDbLine
62
7
6
CONTINUOUS
10
-2.3954171600
20
20.8622458396
11
-2.3338675217
21
20.8930206588
0
LINE
5
248
100
AcDbEntity
8
0
100
AcDbLine
62
9
6
CONTINUOUS
10
-2.3104613191
20
20.8543220431
11
-2.2444248027
21
20.8873403013
0
LINE
5
249
100
AcDbEntity
8
0
100
AcDbLine
62
7
6
CONTINUOUS
10
-4.1672860418
20
19.2033081210
11
-4.1680508274
21
19.2029257438
0
LINE
5
24A
100
AcDbEntity
8
0
100
AcDbLine
62
7
6
CONTINUOUS
10
-4.9267564095
20
18.9386329836
11
-5.6338631907
21
18.5896141329
0
LINE
5
24B
100
AcDbEntity
8
0
100
AcDbLine
62
7
6
CONTINUOUS
10
-3.4601775394
20
19.5518239713
11
-4.1672851862
21
19.2033085425
0
LINE
5
24C
100
AcDbEntity
8
0
100
AcDbLine
62
9
6
CONTINUOUS
10
-3.3711214909
20
19.5459523218
11
-4.0782282720
21
19.1974373196
0
LINE
5
24D
100
AcDbEntity
8
0
100
AcDbLine
62
7
6
CONTINUOUS
10
-7.5980371890
20
17.5330930235
11
-7.7636732159
21
17.4635693339
0
LINE
5
24E
100
AcDbEntity
8
0
100
AcDbLine
62
7
6
CONTINUOUS
10
-14.6499458308
20
-14.5643149944
11
-13.7660623343
21
-15.0062567427
0
LINE
5
24F
100
AcDbEntity
8
0
100
AcDbLine
62
7
6
CONTINUOUS
10
-12.6346914040
20
-15.5719422078
11
-11.5740312065
21
-16.1022723066
0
LINE
5
250
100
AcDbEntity
8
0
100
AcDbLine
62
7
6
CONTINUOUS
10
-10.4426604559
20
-16.6679576819
11
-9.5587769593
21
-17.1098994302
0
LINE
5
251
100
AcDbEntity
8
0
100
AcDbLine
62
7
6
CONTINUOUS
10
-14.6499445535
20
-13.6971005341
11
-13.7660610405
21
-14.1390422906
0
LINE
5
252
100
AcDbEntity
8
0
100
AcDbLine
62
7
6
CONTINUOUS
10
-12.6346901268
20
-14.7047277475
11
-11.5740299128
21
-15.2350578544
0
LINE
5
253
100
AcDbEntity
8
0
100
AcDbLine
62
7
6
CONTINUOUS
10
-10.4426591786
20
-15.8007432215
11
-9.5587756656
21
-16.2426849780
0
LINE
5
254
100
AcDbEntity
8
0
100
AcDbLine
62
7
6
CONTINUOUS
10
-2.4071280168
20
20.8544974648
11
-4.6793882275
21
18.9203724310
0
LINE
5
255
100
AcDbEntity
8
0
100
AcDbLine
62
9
6
CONTINUOUS
10
-2.3104613191
20
20.8543220431
11
-4.3721834220
21
19.0994049288
0
LINE
5
256
100
AcDbEntity
8
0
100
AcDbLine
62
9
6
CONTINUOUS
10
-4.4558615226
20
19.0281789713
11
-4.6183626530
21
18.8898596438
0
LINE
5
257
100
AcDbEntity
8
0
100
AcDbLine
62
7
6
CONTINUOUS
10
-2.6648374611
20
18.2762697494
11
-3.5125428471
21
17.8463768527
0
LINE
5
258
100
AcDbEntity
8
0
100
AcDbLine
62
7
6
CONTINUOUS
10
-1.7801312332
20
18.0483888002
11
-2.8469621453
21
17.5135865019
0
LINE
5
259
100
AcDbEntity
8
0
100
AcDbLine
62
7
6
CONTINUOUS
10
3.4943608359
20
20.6786979341
11
-1.7801312332
21
18.0483888002
0
LINE
5
25A
100
AcDbEntity
8
0
100
AcDbLine
62
7
6
CONTINUOUS
10
-1.7801312332
20
16.6627481541
11
3.5271794330
21
19.3094234242
0
LINE
5
25B
100
AcDbEntity
8
0
100
AcDbLine
62
7
6
CONTINUOUS
10
2.8534750622
20
20.9991408209
11
-1.7447758941
21
18.7327795234
0
LINE
5
25C
100
AcDbEntity
8
0
100
AcDbLine
62
7
6
CONTINUOUS
10
3.6580142841
20
20.3610713528
11
4.9768522844
21
21.0110931611
0
LINE
5
25D
100
AcDbEntity
8
0
100
AcDbLine
62
7
6
CONTINUOUS
10
11.2587393557
20
23.6571849982
11
5.4998133368
21
20.9975221185
0
LINE
5
25E
100
AcDbEntity
8
0
100
AcDbLine
62
9
6
CONTINUOUS
10
11.6903587808
20
23.6213912919
11
5.7442734731
21
20.8752920504
0
LINE
5
25F
100
AcDbEntity
8
0
100
AcDbLine
62
7
6
CONTINUOUS
10
0.1290570760
20
-19.1274969199
11
1.8776930071
21
-20.0018148854
0
LINE
5
260
100
AcDbEntity
8
0
100
AcDbLine
62
9
6
CONTINUOUS
10
-19.3942697475
20
-9.1246920107
11
-4.7456092623
21
-16.4490222533
0
LINE
5
261
100
AcDbEntity
8
0
100
AcDbLine
62
7
6
CONTINUOUS
10
-13.8525261696
20
21.1369948546
11
-13.8525261696
21
20.5079958108
0
LINE
5
262
100
AcDbEntity
8
0
100
AcDbLine
62
7
6
CONTINUOUS
10
-13.7588446987
20
22.5269215882
11
-13.7588446987
21
22.1869476541
0
LINE
5
263
100
AcDbEntity
8
0
100
AcDbLine
62
9
6
CONTINUOUS
10
-13.6856213940
20
22.4385332406
11
-13.6856213940
21
22.0985593065
0
LINE
5
264
100
AcDbEntity
8
0
100
AcDbLine
62
7
6
CONTINUOUS
10
-1.7801312332
20
16.6627481541
11
-2.8469621453
21
16.0674237361
0
LINE
5
265
100
AcDbEntity
8
0
100
AcDbLine
62
7
6
CONTINUOUS
10
-1.3193008115
20
16.5975290344
11
0.2638708835
21
17.4097260817
0
LINE
5
266
100
AcDbEntity
8
0
100
AcDbLine
62
9
6
CONTINUOUS
10
-1.2062151453
20
16.5910810592
11
0.3765414578
21
17.4030651566
0
LINE
5
267
100
AcDbEntity
8
0
100
AcDbLine
62
9
6
CONTINUOUS
10
0.4723229251
20
15.7518120240
11
2.0736037159
21
16.5545340275
0
LINE
5
268
100
AcDbEntity
8
0
100
AcDbLine
62
9
6
CONTINUOUS
10
0.6490966287
20
15.4469224852
11
2.2503774196
21
16.2496444887
0
LINE
5
269
100
AcDbEntity
8
0
100
AcDbLine
62
7
6
CONTINUOUS
10
0.2638728532
20
17.4097270922
11
0.2656092706
21
17.4105953152
0
LINE
5
26A
100
AcDbEntity
8
0
100
AcDbLine
62
9
6
CONTINUOUS
10
2.0736037159
20
16.5545340275
11
2.6018708876
21
16.8179728476
0
LINE
5
26B
100
AcDbEntity
8
0
100
AcDbLine
62
9
6
CONTINUOUS
10
2.2503774196
20
16.2496444887
11
2.7786445913
21
16.5130833087
0
LINE
5
26C
100
AcDbEntity
8
0
100
AcDbLine
62
7
6
CONTINUOUS
10
0.2656120346
20
17.4105966616
11
0.8004792254
21
17.6711474142
0
LINE
5
26D
100
AcDbEntity
8
0
100
AcDbLine
62
9
6
CONTINUOUS
10
0.3765414578
20
17.4030651566
11
0.9109913365
21
17.6634126231
0
LINE
5
26E
100
AcDbEntity
8
0
100
AcDbLine
62
7
6
CONTINUOUS
10
8.0273321336
20
19.4858532365
11
2.6393643923
21
16.8612034661
0
LINE
5
26F
100
AcDbEntity
8
0
100
AcDbLine
62
7
6
CONTINUOUS
10
-3.3998298431
20
15.4339893505
11
-3.5597750296
21
15.3616202408
0
LINE
5
270
100
AcDbEntity
8
0
100
AcDbLine
62
7
6
CONTINUOUS
10
-13.0558517444
20
21.6809426798
11
-13.0558517444
21
21.2269889378
0
LINE
5
271
100
AcDbEntity
8
0
100
AcDbLine
62
9
6
CONTINUOUS
10
-12.9826284397
20
21.6443310274
11
-12.9826284397
21
21.1352568833
0
LINE
5
272
100
AcDbEntity
8
0
100
AcDbLine
62
9
6
CONTINUOUS
10
-12.0070833236
20
21.2592902713
11
-12.0070833236
21
21.5992642054
0
LINE
5
273
100
AcDbEntity
8
0
100
AcDbLine
62
9
6
CONTINUOUS
10
-11.6545613639
20
21.2587775474
11
-11.6545613639
21
21.5987514815
0
LINE
5
274
100
AcDbEntity
8
0
100
AcDbLine
62
9
6
CONTINUOUS
10
-11.2958627155
20
20.2918740212
11
-11.2958627155
21
20.9726020880
0
LINE
5
275
100
AcDbEntity
8
0
100
AcDbLine
62
7
6
CONTINUOUS
10
2.2503774196
20
14.6474938277
11
1.3603172368
21
14.1508129065
0
LINE
5
276
100
AcDbEntity
8
0
100
AcDbLine
62
9
6
CONTINUOUS
10
2.6035828051
20
14.4708911350
11
1.5244087411
21
13.8817382929
0
LINE
5
277
100
AcDbEntity
8
0
100
AcDbLine
62
7
6
CONTINUOUS
10
2.3822851910
20
15.5936136644
11
8.7506338268
21
19.0294838540
0
LINE
5
278
100
AcDbEntity
8
0
100
AcDbLine
62
7
6
CONTINUOUS
10
2.7209600842
20
15.1142708882
11
8.7506338268
21
18.2362258596
0
LINE
5
279
100
AcDbEntity
8
0
100
AcDbLine
62
9
6
CONTINUOUS
10
3.3051797927
20
14.8221610340
11
2.6042438389
21
14.4705606181
0
LINE
5
27A
100
AcDbEntity
8
0
100
AcDbLine
62
7
6
CONTINUOUS
10
3.3462878112
20
14.7986360752
11
9.7299399377
21
17.8994892705
0
LINE
5
27B
100
AcDbEntity
8
0
100
AcDbLine
62
9
6
CONTINUOUS
10
0.6973191277
20
13.2330731622
11
-2.1811371858
21
11.9572561483
0
LINE
5
27C
100
AcDbEntity
8
0
100
AcDbLine
62
9
6
CONTINUOUS
10
-10.9433407558
20
20.3026419028
11
-10.9433407558
21
21.1102740245
0
LINE
5
27D
100
AcDbEntity
8
0
100
AcDbLine
62
7
6
CONTINUOUS
10
-10.0532805731
20
20.7993228241
11
-10.0532805731
21
22.4014734850
0
LINE
5
27E
100
AcDbEntity
8
0
100
AcDbLine
62
9
6
CONTINUOUS
10
-9.5250134013
20
22.6649123051
11
-9.5250134013
21
22.3173807883
0
LINE
5
27F
100
AcDbEntity
8
0
100
AcDbLine
62
7
6
CONTINUOUS
10
-9.4528155443
20
22.7527849372
11
-9.4528155443
21
22.4052534205
0
LINE
5
280
100
AcDbEntity
8
0
100
AcDbLine
62
7
6
CONTINUOUS
10
-9.1693970966
20
18.1664312743
11
-9.1693970966
21
18.3857029254
0
LINE
5
281
100
AcDbEntity
8
0
100
AcDbLine
62
7
6
CONTINUOUS
10
-9.1278710172
20
20.6540409378
11
-9.1278710172
21
19.2078781720
0
LINE
5
282
100
AcDbEntity
8
0
100
AcDbLine
62
9
6
CONTINUOUS
10
2.9568835057
20
13.8610470806
11
1.8776930071
21
13.2718852663
0
LINE
5
283
100
AcDbEntity
8
0
100
AcDbLine
62
9
6
CONTINUOUS
10
18.5597205091
20
19.7667483802
11
3.9575472875
21
12.3378520524
0
LINE
5
284
100
AcDbEntity
8
0
100
AcDbLine
62
9
6
CONTINUOUS
10
3.6587286959
20
14.2123885362
11
2.9577927421
21
13.8607881203
0
LINE
5
285
100
AcDbEntity
8
0
100
AcDbLine
62
7
6
CONTINUOUS
10
18.2168229331
20
20.3581592158
11
10.4826340217
21
16.6012840095
0
LINE
5
286
100
AcDbEntity
8
0
100
AcDbLine
62
9
6
CONTINUOUS
10
1.0322541503
20
12.6148373431
11
-1.8462021632
21
11.3390203292
0
LINE
5
287
100
AcDbEntity
8
0
100
AcDbLine
62
7
6
CONTINUOUS
10
-8.4622903154
20
18.8750878211
11
-8.4622903154
21
20.3212505869
0
LINE
5
288
100
AcDbEntity
8
0
100
AcDbLine
62
7
6
CONTINUOUS
10
-8.1621679702
20
17.6628167111
11
-8.1621679702
21
17.8820883622
0
LINE
5
289
100
AcDbEntity
8
0
100
AcDbLine
62
7
6
CONTINUOUS
10
-7.7551835342
20
20.5076420316
11
-7.7551835342
21
19.2740276799
0
LINE
5
28A
100
AcDbEntity
8
0
100
AcDbLine
62
9
6
CONTINUOUS
10
2.2503774196
20
15.5225996362
11
2.7786445913
21
16.1655517920
0
LINE
5
28B
100
AcDbEntity
8
0
100
AcDbLine
62
7
6
CONTINUOUS
10
2.2503774196
20
15.4330691699
11
2.7940051637
21
16.0947166254
0
LINE
5
28C
100
AcDbEntity
8
0
100
AcDbLine
62
7
6
CONTINUOUS
10
3.6587286959
20
11.2801057007
11
4.3596646497
21
11.6443021942
0
LINE
5
28D
100
AcDbEntity
8
0
100
AcDbLine
62
9
6
CONTINUOUS
10
18.9738709847
20
18.3351148056
11
4.3716977631
21
10.9062184778
0
LINE
5
28E
100
AcDbEntity
8
0
100
AcDbLine
62
9
6
CONTINUOUS
10
-6.1288379375
20
18.4608548816
11
-6.1288379375
21
19.6944692332
0
LINE
5
28F
100
AcDbEntity
8
0
100
AcDbLine
62
9
6
CONTINUOUS
10
-5.8459952250
20
18.4699321752
11
-5.8459952250
21
19.6944692332
0
LINE
5
290
100
AcDbEntity
8
0
100
AcDbLine
62
7
6
CONTINUOUS
10
-4.9267564095
20
20.1505617691
11
-4.9267564095
21
18.9386329836
0
LINE
5
291
100
AcDbEntity
8
0
100
AcDbLine
62
7
6
CONTINUOUS
10
-4.4903603064
20
18.9166517739
11
-4.4903603064
21
17.6856962887
0
LINE
5
292
100
AcDbEntity
8
0
100
AcDbLine
62
9
6
CONTINUOUS
10
-4.4317816626
20
18.8459410958
11
-4.4317816626
21
17.6123267441
0
LINE
5
293
100
AcDbEntity
8
0
100
AcDbLine
62
7
6
CONTINUOUS
10
0.2546730323
20
-5.9456540451
11
0.7265740055
21
-6.1816045317
0
LINE
5
294
100
AcDbEntity
8
0
100
AcDbLine
62
7
6
CONTINUOUS
10
-3.5125428471
20
17.8463768527
11
-3.5125428471
21
16.4002140870
0
LINE
5
295
100
AcDbEntity
8
0
100
AcDbLine
62
7
6
CONTINUOUS
10
-2.8469621453
20
16.0674237361
11
-2.8469621453
21
17.5135865019
0
LINE
5
296
100
AcDbEntity
8
0
100
AcDbLine
62
7
6
CONTINUOUS
10
-2.8054360659
20
15.2037224101
11
-2.8054360659
21
14.9844507590
0
LINE
5
297
100
AcDbEntity
8
0
100
AcDbLine
62
9
6
CONTINUOUS
10
-2.3811719972
20
20.8693684210
11
-2.3811719972
21
21.9479541248
0
LINE
5
298
100
AcDbEntity
8
0
100
AcDbLine
62
7
6
CONTINUOUS
10
-3.4060811634
20
15.2847733077
11
-3.3998298431
21
15.4339893505
0
LINE
5
299
100
AcDbEntity
8
0
100
AcDbLine
62
7
6
CONTINUOUS
10
-0.1547988570
20
-15.7195532584
11
0.1290570760
21
-19.1274969199
0
LINE
5
29A
100
AcDbEntity
8
0
100
AcDbLine
62
7
6
CONTINUOUS
10
0.1199955585
20
-9.1603412801
11
0.1592798806
21
-9.6319846071
0
LINE
5
29B
100
AcDbEntity
8
0
100
AcDbLine
62
9
6
CONTINUOUS
10
-2.0651254665
20
22.1037254458
11
-2.0651254665
21
23.4876815487
0
LINE
5
29C
100
AcDbEntity
8
0
100
AcDbLine
62
7
6
CONTINUOUS
10
-1.9324323289
20
22.2622886865
11
-1.9324323289
21
23.5101525603
0
LINE
5
29D
100
AcDbEntity
8
0
100
AcDbLine
62
7
6
CONTINUOUS
10
-1.7801312332
20
16.6627481541
11
-1.7801312332
21
18.0483888002
0
LINE
5
29E
100
AcDbEntity
8
0
100
AcDbLine
62
7
6
CONTINUOUS
10
-1.4551867060
20
16.3750925919
11
-1.4551867060
21
16.0351186578
0
LINE
5
29F
100
AcDbEntity
8
0
100
AcDbLine
62
7
6
CONTINUOUS
10
-1.4152461709
20
22.0730002750
11
-1.4152461709
21
21.5069184225
0
LINE
5
2A0
100
AcDbEntity
8
0
100
AcDbLine
62
9
6
CONTINUOUS
10
-1.3819634013
20
16.2867042443
11
-1.3819634013
21
15.9467303101
0
LINE
5
2A1
100
AcDbEntity
8
0
100
AcDbLine
62
9
6
CONTINUOUS
10
-0.9669584348
20
20.8693684210
11
-0.9669584348
21
21.3775088999
0
LINE
5
2A2
100
AcDbEntity
8
0
100
AcDbLine
62
7
6
CONTINUOUS
10
-0.7521937518
20
15.5291136835
11
-0.7521937518
21
15.0751599415
0
LINE
5
2A3
100
AcDbEntity
8
0
100
AcDbLine
62
9
6
CONTINUOUS
10
-0.6789704470
20
15.4925020311
11
-0.6789704470
21
14.9834278869
0
LINE
5
2A4
100
AcDbEntity
8
0
100
AcDbLine
62
7
6
CONTINUOUS
10
0.1290570760
20
-19.1274969199
11
0.1290570760
21
-19.4739994113
0
LINE
5
2A5
100
AcDbEntity
8
0
100
AcDbLine
62
9
6
CONTINUOUS
10
-18.6911346658
20
7.6588079054
11
-4.0424741806
21
0.3344776628
0
LINE
5
2A6
100
AcDbEntity
8
0
100
AcDbLine
62
7
6
CONTINUOUS
10
0.7265740055
20
-6.1816045317
11
1.8776930071
21
-20.0018148854
0
LINE
5
2A7
100
AcDbEntity
8
0
100
AcDbLine
62
9
6
CONTINUOUS
10
0.2965746691
20
-26.5321167986
11
0.2965746691
21
-26.1921428644
0
LINE
5
2A8
100
AcDbEntity
8
0
100
AcDbLine
62
9
6
CONTINUOUS
10
0.2965746691
20
15.1074612749
11
0.2965746691
21
15.4474352091
0
LINE
5
2A9
100
AcDbEntity
8
0
100
AcDbLine
62
9
6
CONTINUOUS
10
0.6490966287
20
-26.5326295224
11
0.6490966287
21
-26.1926555883
0
LINE
5
2AA
100
AcDbEntity
8
0
100
AcDbLine
62
9
6
CONTINUOUS
10
0.6490966287
20
15.1069485511
11
0.6490966287
21
15.4469224852
0
LINE
5
2AB
100
AcDbEntity
8
0
100
AcDbLine
62
9
6
CONTINUOUS
10
1.0077952772
20
-25.2156463873
11
1.0077952772
21
-24.5217336601
0
LINE
5
2AC
100
AcDbEntity
8
0
100
AcDbLine
62
9
6
CONTINUOUS
10
1.0077952772
20
14.1400450248
11
1.0077952772
21
14.8207734125
0
LINE
5
2AD
100
AcDbEntity
8
0
100
AcDbLine
62
9
6
CONTINUOUS
10
1.3603172368
20
-25.3411591112
11
1.3603172368
21
-24.6979946399
0
LINE
5
2AE
100
AcDbEntity
8
0
100
AcDbLine
62
9
6
CONTINUOUS
10
1.3603172368
20
14.1508129065
11
1.3603172368
21
14.9584450282
0
LINE
5
2AF
100
AcDbEntity
8
0
100
AcDbLine
62
7
6
CONTINUOUS
10
1.4372046212
20
22.6178992687
11
1.4372046212
21
22.1537209551
0
LINE
5
2B0
100
AcDbEntity
8
0
100
AcDbLine
62
7
6
CONTINUOUS
10
1.8776930071
20
13.2718852663
11
1.8776930071
21
8.7502285203
0
LINE
5
2B1
100
AcDbEntity
8
0
100
AcDbLine
62
7
6
CONTINUOUS
10
1.8776930071
20
-20.0018148854
11
1.8776930071
21
-24.5234716314
0
LINE
5
2B2
100
AcDbEntity
8
0
100
AcDbLine
62
7
6
CONTINUOUS
10
2.2503774196
20
-24.5836675172
11
2.2503774196
21
-25.7525949228
0
LINE
5
2B3
100
AcDbEntity
8
0
100
AcDbLine
62
7
6
CONTINUOUS
10
2.2503774196
20
14.6474938277
11
2.2503774196
21
16.2496444887
0
LINE
5
2B4
100
AcDbEntity
8
0
100
AcDbLine
62
7
6
CONTINUOUS
10
-0.5664656641
20
-25.5458441128
11
1.0322541503
21
12.6148373431
0
LINE
5
2B5
100
AcDbEntity
8
0
100
AcDbLine
62
7
6
CONTINUOUS
10
1.8776930071
20
8.7502285203
11
0.7265740055
21
-6.1816045317
0
LINE
5
2B6
100
AcDbEntity
8
0
100
AcDbLine
62
9
6
CONTINUOUS
10
2.7786445913
20
16.5130833087
11
2.7786445913
21
16.1655517920
0
LINE
5
2B7
100
AcDbEntity
8
0
100
AcDbLine
62
9
6
CONTINUOUS
10
2.7786445913
20
-25.1340523474
11
2.7786445913
21
-25.4815838641
0
LINE
5
2B8
100
AcDbEntity
8
0
100
AcDbLine
62
7
6
CONTINUOUS
10
2.8508424483
20
16.6009559409
11
2.8508424483
21
16.2534244242
0
LINE
5
2B9
100
AcDbEntity
8
0
100
AcDbLine
62
7
6
CONTINUOUS
10
2.8508424483
20
-25.0461797152
11
2.8508424483
21
-25.3937112319
0
LINE
5
2BA
100
AcDbEntity
8
0
100
AcDbLine
62
7
6
CONTINUOUS
10
2.9577927421
20
13.8607881203
11
2.9577927421
21
-24.0711538770
0
LINE
5
2BB
100
AcDbEntity
8
0
100
AcDbLine
62
9
6
CONTINUOUS
10
3.5271794330
20
19.3094234242
11
3.5271794330
21
19.7838247995
0
LINE
5
2BC
100
AcDbEntity
8
0
100
AcDbLine
62
9
6
CONTINUOUS
10
3.5271794330
20
20.1400006660
11
3.5271794330
21
20.6931713891
0
LINE
5
2BD
100
AcDbEntity
8
0
100
AcDbLine
62
7
6
CONTINUOUS
10
3.5886351005
20
10.6035019612
11
3.5886351005
21
9.7925611008
0
LINE
5
2BE
100
AcDbEntity
8
0
100
AcDbLine
62
7
6
CONTINUOUS
10
3.5886351005
20
-20.1719178701
11
3.5886351005
21
-19.3609770097
0
LINE
5
2BF
100
AcDbEntity
8
0
100
AcDbLine
62
7
6
CONTINUOUS
10
3.6580142841
20
19.4670650741
11
3.6580142841
21
20.7149577693
0
LINE
5
2C0
100
AcDbEntity
8
0
100
AcDbLine
62
7
6
CONTINUOUS
10
3.6587286959
20
14.2123885362
11
3.6587286959
21
11.2801057007
0
LINE
5
2C1
100
AcDbEntity
8
0
100
AcDbLine
62
7
6
CONTINUOUS
10
3.6587286959
20
-20.7771938488
11
3.6587286959
21
-23.7094766843
0
LINE
5
2C2
100
AcDbEntity
8
0
100
AcDbLine
62
7
6
CONTINUOUS
10
4.3596646497
20
-20.4281127337
11
4.3596646497
21
11.6443021942
0
LINE
5
2C3
100
AcDbEntity
8
0
100
AcDbLine
62
7
6
CONTINUOUS
10
4.3716977631
20
10.9062184778
11
4.3716977631
21
-19.7020621307
0
LINE
5
2C4
100
AcDbEntity
8
0
100
AcDbLine
62
9
6
CONTINUOUS
10
2.8508424483
20
-25.3937112143
11
2.8508423033
21
-25.3938458557
0
LINE
5
2C5
100
AcDbEntity
8
0
100
AcDbLine
62
9
6
CONTINUOUS
10
8.7506338268
20
-18.4293126774
11
8.7506338268
21
-18.7568940131
0
LINE
5
2C6
100
AcDbEntity
8
0
100
AcDbLine
62
9
6
CONTINUOUS
10
8.7506338268
20
18.2362258596
11
8.7506338268
21
19.0294838540
0
LINE
5
2C7
100
AcDbEntity
8
0
100
AcDbLine
62
7
6
CONTINUOUS
10
8.8909639266
20
19.2374805704
11
8.8909639266
21
18.4098904522
0
LINE
5
2C8
100
AcDbEntity
8
0
100
AcDbLine
62
7
6
CONTINUOUS
10
8.8909639266
20
-18.6175389652
11
8.8909639266
21
-18.3551038090
0
LINE
5
2C9
100
AcDbEntity
8
0
100
AcDbLine
62
9
6
CONTINUOUS
10
0.1592798806
20
-9.6319846071
11
0.0990714047
21
-9.6597908765
0
LINE
5
2CA
100
AcDbEntity
8
0
100
AcDbLine
62
9
6
CONTINUOUS
10
-17.5861441675
20
18.2558457104
11
-2.9013892766
21
10.9134682650
0
LINE
5
2CB
100
AcDbEntity
8
0
100
AcDbLine
62
7
6
CONTINUOUS
10
0.8910167033
20
9.2435666721
11
1.8776930071
21
8.7502285203
0
LINE
5
2CC
100
AcDbEntity
8
0
100
AcDbLine
62
9
6
CONTINUOUS
10
-16.8837186334
20
19.3085468721
11
-2.1811371858
21
11.9572561483
0
LINE
5
2CD
100
AcDbEntity
8
0
100
AcDbLine
62
7
6
CONTINUOUS
10
4.3596646497
20
11.6443021942
11
3.6587286959
21
12.8532378857
0
LINE
5
2CE
100
AcDbEntity
8
0
100
AcDbLine
62
7
6
CONTINUOUS
10
-14.1521655851
20
20.6578155186
11
0.6973191277
21
13.2330731622
0
LINE
5
2CF
100
AcDbEntity
8
0
100
AcDbLine
62
7
6
CONTINUOUS
10
-3.3998298431
20
15.4339893505
11
-7.5980371890
21
17.5330930235
0
LINE
5
2D0
100
AcDbEntity
8
0
100
AcDbLine
62
7
6
CONTINUOUS
10
-9.1693970966
20
18.3857029254
11
-2.8054360659
21
15.2037224101
0
LINE
5
2D1
100
AcDbEntity
8
0
100
AcDbLine
62
7
6
CONTINUOUS
10
1.5244087411
20
13.8817382929
11
1.0077952772
21
14.1400450248
0
LINE
5
2D2
100
AcDbEntity
8
0
100
AcDbLine
62
7
6
CONTINUOUS
10
-0.6789704470
20
14.9834278869
11
-2.8469621453
21
16.0674237361
0
LINE
5
2D3
100
AcDbEntity
8
0
100
AcDbLine
62
7
6
CONTINUOUS
10
-3.5125428471
20
16.4002140870
11
-8.4622903154
21
18.8750878211
0
LINE
5
2D4
100
AcDbEntity
8
0
100
AcDbLine
62
7
6
CONTINUOUS
10
-9.1278710172
20
19.2078781720
11
-11.2958627155
21
20.2918740212
0
LINE
5
2D5
100
AcDbEntity
8
0
100
AcDbLine
62
7
6
CONTINUOUS
10
-12.9826284397
20
21.1352568833
11
-13.4992419036
21
21.3935636152
0
LINE
5
2D6
100
AcDbEntity
8
0
100
AcDbLine
62
7
6
CONTINUOUS
10
-13.6206480975
20
21.9633408564
11
-11.9421100271
21
21.1240718212
0
LINE
5
2D7
100
AcDbEntity
8
0
100
AcDbLine
62
7
6
CONTINUOUS
10
-1.3169901049
20
15.8115118600
11
0.3615479655
21
14.9722428248
0
LINE
5
2D8
100
AcDbEntity
8
0
100
AcDbLine
62
9
6
CONTINUOUS
10
-13.6856213940
20
22.0985593065
11
-12.0070833236
21
21.2592902713
0
LINE
5
2D9
100
AcDbEntity
8
0
100
AcDbLine
62
9
6
CONTINUOUS
10
-1.3819634013
20
15.9467303101
11
0.2965746691
21
15.1074612749
0
LINE
5
2DA
100
AcDbEntity
8
0
100
AcDbLine
62
7
6
CONTINUOUS
10
-3.5125428471
20
17.1527073364
11
-4.4317816626
21
17.6123267441
0
LINE
5
2DB
100
AcDbEntity
8
0
100
AcDbLine
62
7
6
CONTINUOUS
10
-6.1288379375
20
18.4608548816
11
-7.7551835342
21
19.2740276799
0
LINE
5
2DC
100
AcDbEntity
8
0
100
AcDbLine
62
7
6
CONTINUOUS
10
0.4222531352
20
14.9511273903
11
1.0465510211
21
14.8207734125
0
LINE
5
2DD
100
AcDbEntity
8
0
100
AcDbLine
62
9
6
CONTINUOUS
10
0.6490966287
20
15.1069485511
11
1.3603172368
21
14.9584450282
0
LINE
5
2DE
100
AcDbEntity
8
0
100
AcDbLine
62
9
6
CONTINUOUS
10
0.2965746691
20
15.4474352091
11
-1.3819634013
21
16.2867042443
0
LINE
5
2DF
100
AcDbEntity
8
0
100
AcDbLine
62
9
6
CONTINUOUS
10
-12.0070833236
20
21.5992642054
11
-13.6856213940
21
22.4385332406
0
LINE
5
2E0
100
AcDbEntity
8
0
100
AcDbLine
62
7
6
CONTINUOUS
10
-5.6338631907
20
18.5896141329
11
-4.4903603064
21
18.0178626907
0
LINE
5
2E1
100
AcDbEntity
8
0
100
AcDbLine
62
7
6
CONTINUOUS
10
2.6042438389
20
14.4705606181
11
2.2503774196
21
14.6474938277
0
LINE
5
2E2
100
AcDbEntity
8
0
100
AcDbLine
62
7
6
CONTINUOUS
10
-1.4283156344
20
16.4868403547
11
-1.7801312332
21
16.6627481541
0
LINE
5
2E3
100
AcDbEntity
8
0
100
AcDbLine
62
7
6
CONTINUOUS
10
-9.1278710172
20
20.3366180461
11
-10.0532805731
21
20.7993228241
0
LINE
5
2E4
100
AcDbEntity
8
0
100
AcDbLine
62
9
6
CONTINUOUS
10
0.4723229251
20
15.7518120240
11
-1.2062151453
21
16.5910810592
0
LINE
5
2E5
100
AcDbEntity
8
0
100
AcDbLine
62
9
6
CONTINUOUS
10
-11.8313350676
20
21.9036410203
11
-13.5098731380
21
22.7429100556
0
LINE
5
2E6
100
AcDbEntity
8
0
100
AcDbLine
62
7
6
CONTINUOUS
10
-9.1278710172
20
20.6540409378
11
-8.4622903154
21
20.3212505869
0
LINE
5
2E7
100
AcDbEntity
8
0
100
AcDbLine
62
7
6
CONTINUOUS
10
-3.5125428471
20
17.8463768527
11
-2.8469621453
21
17.5135865019
0
LINE
5
2E8
100
AcDbEntity
8
0
100
AcDbLine
62
7
6
CONTINUOUS
10
3.3051797927
20
14.8221610340
11
2.2503774196
21
15.3495622205
0
LINE
5
2E9
100
AcDbEntity
8
0
100
AcDbLine
62
7
6
CONTINUOUS
10
-9.3502876188
20
21.1498947397
11
-10.0532805731
21
21.5013912168
0
LINE
5
2EA
100
AcDbEntity
8
0
100
AcDbLine
62
7
6
CONTINUOUS
10
-4.4903603064
20
18.7204349321
11
-4.9267564095
21
18.9386329836
0
LINE
5
2EB
100
AcDbEntity
8
0
100
AcDbLine
62
7
6
CONTINUOUS
10
-4.9267564095
20
19.0440565220
11
-4.4903603064
21
18.8258584705
0
LINE
5
2EC
100
AcDbEntity
8
0
100
AcDbLine
62
9
6
CONTINUOUS
10
-2.9764180922
20
18.1182593106
11
-4.4317816626
21
18.8459410958
0
LINE
5
2ED
100
AcDbEntity
8
0
100
AcDbLine
62
9
6
CONTINUOUS
10
-6.1288379375
20
19.6944692332
11
-7.7551835342
21
20.5076420316
0
LINE
5
2EE
100
AcDbEntity
8
0
100
AcDbLine
62
9
6
CONTINUOUS
10
-2.6648374611
20
18.2762697494
11
-4.2911830579
21
19.0894425478
0
LINE
5
2EF
100
AcDbEntity
8
0
100
AcDbLine
62
9
6
CONTINUOUS
10
-5.9882393327
20
19.9379706852
11
-7.6145849294
21
20.7511434836
0
LINE
5
2F0
100
AcDbEntity
8
0
100
AcDbLine
62
7
6
CONTINUOUS
10
-8.0733815858
20
21.1950139765
11
-5.7752845469
21
20.0459654570
0
LINE
5
2F1
100
AcDbEntity
8
0
100
AcDbLine
62
7
6
CONTINUOUS
10
-4.0782282720
20
19.1974373196
11
-1.7801312332
21
18.0483888002
0
LINE
5
2F2
100
AcDbEntity
8
0
100
AcDbLine
62
7
6
CONTINUOUS
10
2.0736037159
20
16.5545340275
11
0.3765414578
21
17.4030651566
0
LINE
5
2F3
100
AcDbEntity
8
0
100
AcDbLine
62
7
6
CONTINUOUS
10
-10.2300542768
20
22.7063630238
11
-11.9271165348
21
23.5548941529
0
LINE
5
2F4
100
AcDbEntity
8
0
100
AcDbLine
62
7
6
CONTINUOUS
10
-1.7447758941
20
18.7327795234
11
-3.3711214909
21
19.5459523218
0
LINE
5
2F5
100
AcDbEntity
8
0
100
AcDbLine
62
7
6
CONTINUOUS
10
-5.0681777657
20
20.3944804592
11
-6.6945233624
21
21.2076532576
0
LINE
5
2F6
100
AcDbEntity
8
0
100
AcDbLine
62
9
6
CONTINUOUS
10
1.0072810488
20
-25.2153892731
11
0.3849630167
21
-25.9604486906
0
LINE
5
2F7
100
AcDbEntity
8
0
100
AcDbLine
62
9
6
CONTINUOUS
10
1.3603172368
20
-25.3411591112
11
0.6490966287
21
-26.1926555883
0
LINE
5
2F8
100
AcDbEntity
8
0
100
AcDbLine
62
9
6
CONTINUOUS
10
0.1290570760
20
-19.4739994113
11
-0.3207930255
21
-19.6817550957
0
LINE
5
2F9
100
AcDbEntity
8
0
100
AcDbLine
62
7
6
CONTINUOUS
10
-11.8814048574
20
21.1029563866
11
-11.2571054352
21
20.9726020880
0
LINE
5
2FA
100
AcDbEntity
8
0
100
AcDbLine
62
9
6
CONTINUOUS
10
-11.3926666562
20
23.8152416195
11
-9.7017871050
21
22.9698018439
0
LINE
5
2FB
100
AcDbEntity
8
0
100
AcDbLine
62
9
6
CONTINUOUS
10
0.9109913365
20
17.6634126231
11
2.6018708876
21
16.8179728476
0
LINE
5
2FC
100
AcDbEntity
8
0
100
AcDbLine
62
7
6
CONTINUOUS
10
-11.2818916966
20
23.8218315106
11
-9.5910121455
21
22.9763917350
0
LINE
5
2FD
100
AcDbEntity
8
0
100
AcDbLine
62
7
6
CONTINUOUS
10
1.0217662960
20
17.6700025142
11
2.7126458472
21
16.8245627387
0
LINE
5
2FE
100
AcDbEntity
8
0
100
AcDbLine
62
7
6
CONTINUOUS
10
0.1071193281
20
19.6455317195
11
-2.3104613191
21
20.8543220431
0
LINE
5
2FF
100
AcDbEntity
8
0
100
AcDbLine
62
9
6
CONTINUOUS
10
0.7480825229
20
19.9614462252
11
-1.1754561688
21
20.9232155710
0
LINE
5
300
100
AcDbEntity
8
0
100
AcDbLine
62
7
6
CONTINUOUS
10
0.7988459474
20
19.9864662299
11
-1.0912072962
21
20.9314928517
0
LINE
5
301
100
AcDbEntity
8
0
100
AcDbLine
62
7
6
CONTINUOUS
10
10.4826340217
20
16.6012840095
11
9.7299399377
21
17.8994892705
0
LINE
5
302
100
AcDbEntity
8
0
100
AcDbLine
62
9
6
CONTINUOUS
10
18.9738709847
20
-12.0099654403
11
18.9738709847
21
18.3351148056
0
LINE
5
303
100
AcDbEntity
8
0
100
AcDbLine
62
7
6
CONTINUOUS
10
19.2545311844
20
-11.6626362550
11
19.2545311844
21
18.6824439908
0
LINE
5
304
100
AcDbEntity
8
0
100
AcDbLine
62
7
6
CONTINUOUS
10
3.6587286959
20
-20.9361124714
11
4.3596646497
21
-20.4281127337
0
LINE
5
305
100
AcDbEntity
8
0
100
AcDbLine
62
9
6
CONTINUOUS
10
4.3716977631
20
-19.7020621307
11
18.9738709847
21
-12.0099654403
0
LINE
5
306
100
AcDbEntity
8
0
100
AcDbLine
62
7
6
CONTINUOUS
10
-0.0602154095
20
-19.8561174676
11
-0.3333831502
21
-19.9822753827
0
LINE
5
307
100
AcDbEntity
8
0
100
AcDbLine
62
9
6
CONTINUOUS
10
-11.6545613639
20
21.2587775474
11
-10.9433407558
21
21.1102740245
0
LINE
5
308
100
AcDbEntity
8
0
100
AcDbLine
62
7
6
CONTINUOUS
10
-0.9669584348
20
21.3775088999
11
1.3106330925
21
20.2387131362
0
LINE
5
309
100
AcDbEntity
8
0
100
AcDbLine
62
7
6
CONTINUOUS
10
-0.3112793018
20
22.0589018570
11
2.3271083655
21
20.7397080233
0
LINE
5
30A
100
AcDbEntity
8
0
100
AcDbLine
62
9
6
CONTINUOUS
10
3.4943608359
20
20.6786979341
11
2.8534750622
21
20.9991408209
0
LINE
5
30B
100
AcDbEntity
8
0
100
AcDbLine
62
9
6
CONTINUOUS
10
-2.0962724061
20
23.4740145551
11
-2.7371581798
21
23.7944574419
0
LINE
5
30C
100
AcDbEntity
8
0
100
AcDbLine
62
7
6
CONTINUOUS
10
3.6529941518
20
20.7233360179
11
3.1377957358
21
20.9809352259
0
LINE
5
30D
100
AcDbEntity
8
0
100
AcDbLine
62
7
6
CONTINUOUS
10
-1.9374926525
20
23.5185794201
11
-2.4526922064
21
23.7761791970
0
LINE
5
30E
100
AcDbEntity
8
0
100
AcDbLine
62
7
6
CONTINUOUS
10
8.8654533201
20
18.3317325793
11
9.7299399377
21
17.8994892705
0
LINE
5
30F
100
AcDbEntity
8
0
100
AcDbLine
62
7
6
CONTINUOUS
10
4.3451551793
20
20.6997456761
11
1.4372046212
21
22.1537209551
0
LINE
5
310
100
AcDbEntity
8
0
100
AcDbLine
62
7
6
CONTINUOUS
10
10.4826340217
20
-17.3659282972
11
9.7299399377
21
-17.9114394742
0
LINE
5
311
100
AcDbEntity
8
0
100
AcDbLine
62
9
6
CONTINUOUS
10
18.2168229331
20
-13.2759617989
11
18.5597205091
21
-13.0274485393
0
LINE
5
312
100
AcDbEntity
8
0
100
AcDbLine
62
7
6
CONTINUOUS
10
18.2931722293
20
-13.2283083866
11
18.6342881031
21
-12.9810864065
0
LINE
5
313
100
AcDbEntity
8
0
100
AcDbLine
62
7
6
CONTINUOUS
10
18.2168229331
20
-13.2759617989
11
10.4826340217
21
-17.3659282972
0
LINE
5
314
100
AcDbEntity
8
0
100
AcDbLine
62
7
6
CONTINUOUS
10
3.6587286959
20
-21.1219959873
11
9.7299399377
21
-17.9114394742
0
LINE
5
315
100
AcDbEntity
8
0
100
AcDbLine
62
9
6
CONTINUOUS
10
3.9575472875
20
-20.7195452297
11
18.5597205091
21
-13.0274485393
0
LINE
5
316
100
AcDbEntity
8
0
100
AcDbLine
62
7
6
CONTINUOUS
10
8.0273321336
20
-19.2011816840
11
3.6587286959
21
-21.3911624320
0
LINE
5
317
100
AcDbEntity
8
0
100
AcDbLine
62
7
6
CONTINUOUS
10
3.6587286959
20
-20.7771938488
11
4.3596646497
21
-20.4281127337
0
LINE
5
318
100
AcDbEntity
8
0
100
AcDbLine
62
7
6
CONTINUOUS
10
8.7506338268
20
-18.7568940131
11
3.6587286959
21
-21.2825164960
0
LINE
5
319
100
AcDbEntity
8
0
100
AcDbLine
62
7
6
CONTINUOUS
10
1.4372046212
20
22.1537209551
11
-0.3112793018
21
22.0589018570
0
LINE
5
31A
100
AcDbEntity
8
0
100
AcDbLine
62
7
6
CONTINUOUS
10
4.4677706046
20
20.7601797100
11
1.4372046212
21
22.2754627017
0
LINE
5
31B
100
AcDbEntity
8
0
100
AcDbLine
62
9
6
CONTINUOUS
10
-2.3162682519
20
24.6576534293
11
0.7342115973
21
23.1324135047
0
LINE
5
31C
100
AcDbEntity
8
0
100
AcDbLine
62
9
6
CONTINUOUS
10
4.9768522844
20
21.0110931611
11
8.0273321336
21
19.4858532365
0
LINE
5
31D
100
AcDbEntity
8
0
100
AcDbLine
62
7
6
CONTINUOUS
10
-2.0330681095
20
24.7639628417
11
1.1773114355
21
23.1587730691
0
LINE
5
31E
100
AcDbEntity
8
0
100
AcDbLine
62
7
6
CONTINUOUS
10
5.4199521226
20
21.0374527256
11
8.6303316677
21
19.4322629531
0
LINE
5
31F
100
AcDbEntity
8
0
100
AcDbLine
62
9
6
CONTINUOUS
10
2.9577927421
20
-24.0711538770
11
3.6587286959
21
-23.7094766843
0
LINE
5
320
100
AcDbEntity
8
0
100
AcDbLine
62
7
6
CONTINUOUS
10
2.8299804893
20
-24.3404992684
11
3.5309164431
21
-23.9788220757
0
LINE
5
321
100
AcDbEntity
8
0
100
AcDbLine
62
9
6
CONTINUOUS
10
2.2503774196
20
-25.7525949228
11
2.7786445913
21
-25.4815838641
0
LINE
5
322
100
AcDbEntity
8
0
100
AcDbLine
62
7
6
CONTINUOUS
10
2.1862742902
20
-25.8873716830
11
2.7149565538
21
-25.6161476744
0
LINE
5
323
100
AcDbEntity
8
0
100
AcDbLine
62
7
6
CONTINUOUS
10
2.1862723165
20
-25.8873726956
11
2.1845359047
21
-25.8882409158
0
LINE
5
324
100
AcDbEntity
8
0
100
AcDbLine
62
9
6
CONTINUOUS
10
0.6490966287
20
-26.5326295224
11
2.2503774196
21
-25.7525949228
0
LINE
5
325
100
AcDbEntity
8
0
100
AcDbLine
62
7
6
CONTINUOUS
10
0.5828350362
20
-26.6684801486
11
2.1845331391
21
-25.8882422630
0
LINE
5
326
100
AcDbEntity
8
0
100
AcDbLine
62
9
6
CONTINUOUS
10
1.8776930071
20
-24.5234716314
11
2.9568835057
21
-24.0704712953
0
LINE
5
327
100
AcDbEntity
8
0
100
AcDbLine
62
7
6
CONTINUOUS
10
1.7363971279
20
-24.7994155664
11
2.8156034190
21
-24.3464086013
0
LINE
5
328
100
AcDbEntity
8
0
100
AcDbLine
62
9
6
CONTINUOUS
10
-3.4372336547
20
-26.6381445174
11
-0.5664656641
21
-25.5458441128
0
LINE
5
329
100
AcDbEntity
8
0
100
AcDbLine
62
7
6
CONTINUOUS
10
-0.7291421020
20
-25.8310062427
11
-3.6039783646
21
-26.9248541828
0
LINE
5
32A
100
AcDbEntity
8
0
100
AcDbLine
62
9
6
CONTINUOUS
10
18.2168229331
20
20.3581592158
11
11.6903587808
21
23.6213912919
0
LINE
5
32B
100
AcDbEntity
8
0
100
AcDbLine
62
7
6
CONTINUOUS
10
18.5856150061
20
20.4135629491
11
12.1252316613
21
23.6437546215
0
LINE
5
32C
100
AcDbEntity
8
0
100
AcDbLine
62
9
6
CONTINUOUS
10
18.5597205091
20
19.7667483802
11
18.2168229331
21
20.3581592158
0
LINE
5
32D
100
AcDbEntity
8
0
100
AcDbLine
62
7
6
CONTINUOUS
10
18.9125637578
20
19.8998467377
11
18.6495168215
21
20.3535355920
0
SPLINE
5
32E
100
AcDbEntity
8
0
100
AcDbSpline
62
7
6
CONTINUOUS
70
0
71
3
72
14
73
10
74
8
42
0.0000001000
43
0.0000001000
44
0.0000000001
12
-0.3729192328
22
-0.8035853165
32
0.0000000000
13
0.2694236392
23
-0.8439366195
33
0.0000000000
40
0.0000000000
40
0.0000000000
40
0.0000000000
40
0.0000000000
40
0.1213827632
40
0.2504053522
40
0.3871567118
40
0.5313220713
40
0.6822256237
40
0.8389023131
40
1.0000000000
40
1.0000000000
40
1.0000000000
40
1.0000000000
10
-14.6499445535
20
-13.6971005341
30
0.0000000000
10
-14.6650332092
20
-13.7296143361
30
0.0000000000
10
-14.6909503985
20
-13.7991902742
30
0.0000000000
10
-14.7162357441
20
-13.9109740864
30
0.0000000000
10
-14.7287957748
20
-14.0316368775
30
0.0000000000
10
-14.7284686545
20
-14.1593671680
30
0.0000000000
10
-14.7152894214
20
-14.2923067488
30
0.0000000000
10
-14.6894830855
20
-14.4284441246
30
0.0000000000
10
-14.6644136725
20
-14.5189962487
30
0.0000000000
10
-14.6499458308
20
-14.5643149944
30
0.0000000000
11
-14.6499445535
21
-13.6971005341
31
0.0000000000
11
-14.6879125474
21
-13.7977075175
31
0.0000000000
11
-14.7135593091
21
-13.9090941243
31
0.0000000000
11
-14.7264785333
21
-14.0295512772
31
0.0000000000
11
-14.7264721989
21
-14.1572673125
31
0.0000000000
11
-14.7135412163
21
-14.2903258534
31
0.0000000000
11
-14.6878857896
21
-14.4267340220
31
0.0000000000
11
-14.6499458308
21
-14.5643149944
31
0.0000000000
0
SPLINE
5
32F
100
AcDbEntity
8
0
100
AcDbSpline
62
7
6
CONTINUOUS
70
0
71
3
72
14
73
10
74
8
42
0.0000001000
43
0.0000001000
44
0.0000000001
12
-0.3729193231
22
-0.8035852833
32
0.0000000000
13
0.2694236889
23
-0.8439366120
33
0.0000000000
40
0.0000000000
40
0.0000000000
40
0.0000000000
40
0.0000000000
40
0.1213827590
40
0.2504053453
40
0.3871567037
40
0.5313220638
40
0.6822256181
40
0.8389023102
40
1.0000000000
40
1.0000000000
40
1.0000000000
40
1.0000000000
10
-12.6346901268
20
-14.7047277475
30
0.0000000000
10
-12.6497787855
20
-14.7372415470
30
0.0000000000
10
-12.6756959804
20
-14.8068174818
30
0.0000000000
10
-12.7009813312
20
-14.9186012915
30
0.0000000000
10
-12.7135413646
20
-15.0392640825
30
0.0000000000
10
-12.7132142441
20
-15.1669943747
30
0.0000000000
10
-12.7000350081
20
-15.2999339579
30
0.0000000000
10
-12.6742286668
20
-15.4360713363
30
0.0000000000
10
-12.6491592486
20
-15.5266234616
30
0.0000000000
10
-12.6346914040
20
-15.5719422078
30
0.0000000000
11
-12.6346901268
21
-14.7047277475
31
0.0000000000
11
-12.6726581284
21
-14.8053347250
31
0.0000000000
11
-12.6983048955
21
-14.9167213291
31
0.0000000000
11
-12.7112241225
21
-15.0371784818
31
0.0000000000
11
-12.7112177881
21
-15.1648945187
31
0.0000000000
11
-12.6982868027
21
-15.2979530622
31
0.0000000000
11
-12.6726313706
21
-15.4343612335
31
0.0000000000
11
-12.6346914040
21
-15.5719422078
31
0.0000000000
0
SPLINE
5
330
100
AcDbEntity
8
0
100
AcDbSpline
62
7
6
CONTINUOUS
70
0
71
3
72
14
73
10
74
8
42
0.0000001000
43
0.0000001000
44
0.0000000001
12
-0.3729192328
22
-0.8035853165
32
0.0000000000
13
0.2694236392
23
-0.8439366195
33
0.0000000000
40
0.0000000000
40
0.0000000000
40
0.0000000000
40
0.0000000000
40
0.1213827632
40
0.2504053522
40
0.3871567118
40
0.5313220713
40
0.6822256237
40
0.8389023131
40
1.0000000000
40
1.0000000000
40
1.0000000000
40
1.0000000000
10
-10.4426591786
20
-15.8007432215
30
0.0000000000
10
-10.4577478343
20
-15.8332570236
30
0.0000000000
10
-10.4836650236
20
-15.9028329617
30
0.0000000000
10
-10.5089503691
20
-16.0146167739
30
0.0000000000
10
-10.5215103999
20
-16.1352795649
30
0.0000000000
10
-10.5211832796
20
-16.2630098555
30
0.0000000000
10
-10.5080040465
20
-16.3959494362
30
0.0000000000
10
-10.4821977106
20
-16.5320868121
30
0.0000000000
10
-10.4571282976
20
-16.6226389361
30
0.0000000000
10
-10.4426604559
20
-16.6679576819
30
0.0000000000
11
-10.4426591786
21
-15.8007432215
31
0.0000000000
11
-10.4806271725
21
-15.9013502050
31
0.0000000000
11
-10.5062739342
21
-16.0127368118
31
0.0000000000
11
-10.5191931583
21
-16.1331939647
31
0.0000000000
11
-10.5191868240
21
-16.2609099999
31
0.0000000000
11
-10.5062558413
21
-16.3939685409
31
0.0000000000
11
-10.4806004147
21
-16.5303767095
31
0.0000000000
11
-10.4426604559
21
-16.6679576819
31
0.0000000000
0
SPLINE
5
331
100
AcDbEntity
8
0
100
AcDbSpline
62
7
6
CONTINUOUS
70
0
71
3
72
8
73
4
74
2
42
0.0000001000
43
0.0000001000
44
0.0000000001
12
0.0154276316
22
0.0338968530
32
0.0000000000
13
0.0136375186
23
0.0346851473
33
0.0000000000
40
0.0000000000
40
0.0000000000
40
0.0000000000
40
0.0000000000
40
1.0000000000
40
1.0000000000
40
1.0000000000
40
1.0000000000
10
-11.5740312065
20
-16.1022723066
30
0.0000000000
10
-11.5688886627
20
-16.0909733556
30
0.0000000000
10
-11.5640509694
20
-16.0795309799
30
0.0000000000
10
-11.5595051299
20
-16.0679692642
30
0.0000000000
11
-11.5740312065
21
-16.1022723066
31
0.0000000000
11
-11.5595051299
21
-16.0679692642
31
0.0000000000
0
SPLINE
5
332
100
AcDbEntity
8
0
100
AcDbSpline
62
7
6
CONTINUOUS
70
0
71
3
72
8
73
4
74
2
42
0.0000001000
43
0.0000001000
44
0.0000000001
12
-0.0137967648
22
0.0491885004
32
0.0000000000
13
-0.0151470170
23
0.0487761624
33
0.0000000000
40
0.0000000000
40
0.0000000000
40
0.0000000000
40
0.0000000000
40
1.0000000000
40
1.0000000000
40
1.0000000000
40
1.0000000000
10
-11.5595540860
20
-15.2840432449
30
0.0000000000
10
-11.5641530076
20
-15.2676470781
30
0.0000000000
10
-11.5689809071
20
-15.2513165753
30
0.0000000000
10
-11.5740299128
20
-15.2350578544
30
0.0000000000
11
-11.5595540860
21
-15.2840432449
31
0.0000000000
11
-11.5740299128
21
-15.2350578544
31
0.0000000000
0
SPLINE
5
333
100
AcDbEntity
8
0
100
AcDbSpline
62
7
6
CONTINUOUS
70
0
71
3
72
8
73
4
74
2
42
0.0000001000
43
0.0000001000
44
0.0000000001
12
0.0154276349
22
0.0338968505
32
0.0000000000
13
0.0136375215
23
0.0346851452
33
0.0000000000
40
0.0000000000
40
0.0000000000
40
0.0000000000
40
0.0000000000
40
1.0000000000
40
1.0000000000
40
1.0000000000
40
1.0000000000
10
-13.7660623343
20
-15.0062567427
30
0.0000000000
10
-13.7609197893
20
-14.9949577925
30
0.0000000000
10
-13.7560820950
20
-14.9835154177
30
0.0000000000
10
-13.7515362545
20
-14.9719537026
30
0.0000000000
11
-13.7660623343
21
-15.0062567427
31
0.0000000000
11
-13.7515362545
21
-14.9719537026
31
0.0000000000
0
SPLINE
5
334
100
AcDbEntity
8
0
100
AcDbSpline
62
7
6
CONTINUOUS
70
0
71
3
72
8
73
4
74
2
42
0.0000001000
43
0.0000001000
44
0.0000000001
12
-0.0137967678
22
0.0491885013
32
0.0000000000
13
-0.0151470202
23
0.0487761631
33
0.0000000000
40
0.0000000000
40
0.0000000000
40
0.0000000000
40
0.0000000000
40
1.0000000000
40
1.0000000000
40
1.0000000000
40
1.0000000000
10
-13.7515852106
20
-14.1880276818
30
0.0000000000
10
-13.7561841332
20
-14.1716315147
30
0.0000000000
10
-13.7610120338
20
-14.1553010116
30
0.0000000000
10
-13.7660610405
20
-14.1390422906
30
0.0000000000
11
-13.7515852106
21
-14.1880276818
31
0.0000000000
11
-13.7660610405
21
-14.1390422906
31
0.0000000000
0
SPLINE
5
335
100
AcDbEntity
8
0
100
AcDbSpline
62
7
6
CONTINUOUS
70
0
71
3
72
8
73
4
74
2
42
0.0000001000
43
0.0000001000
44
0.0000000001
12
0.0154276349
22
0.0338968505
32
0.0000000000
13
0.0136375215
23
0.0346851452
33
0.0000000000
40
0.0000000000
40
0.0000000000
40
0.0000000000
40
0.0000000000
40
1.0000000000
40
1.0000000000
40
1.0000000000
40
1.0000000000
10
-9.5587769593
20
-17.1098994302
30
0.0000000000
10
-9.5536344144
20
-17.0986004800
30
0.0000000000
10
-9.5487967201
20
-17.0871581051
30
0.0000000000
10
-9.5442508796
20
-17.0755963900
30
0.0000000000
11
-9.5587769593
21
-17.1098994302
31
0.0000000000
11
-9.5442508796
21
-17.0755963900
31
0.0000000000
0
SPLINE
5
336
100
AcDbEntity
8
0
100
AcDbSpline
62
7
6
CONTINUOUS
70
0
71
3
72
8
73
4
74
2
42
0.0000001000
43
0.0000001000
44
0.0000000001
12
-0.0137967678
22
0.0491885013
32
0.0000000000
13
-0.0151470202
23
0.0487761631
33
0.0000000000
40
0.0000000000
40
0.0000000000
40
0.0000000000
40
0.0000000000
40
1.0000000000
40
1.0000000000
40
1.0000000000
40
1.0000000000
10
-9.5442998357
20
-16.2916703692
30
0.0000000000
10
-9.5488987583
20
-16.2752742021
30
0.0000000000
10
-9.5537266589
20
-16.2589436991
30
0.0000000000
10
-9.5587756656
20
-16.2426849780
30
0.0000000000
11
-9.5442998357
21
-16.2916703692
31
0.0000000000
11
-9.5587756656
21
-16.2426849780
31
0.0000000000
0
SPLINE
5
337
100
AcDbEntity
8
0
100
AcDbSpline
62
7
6
CONTINUOUS
70
0
71
3
72
9
73
5
74
3
42
0.0000001000
43
0.0000001000
44
0.0000000001
12
-0.3357924291
22
-0.1607072025
32
0.0000000000
13
-0.3364216688
23
-0.1593860490
33
0.0000000000
40
0.0000000000
40
0.0000000000
40
0.0000000000
40
0.0000000000
40
0.7727937500
40
1.0000000000
40
1.0000000000
40
1.0000000000
40
1.0000000000
10
4.3596646497
20
-19.8078802071
30
0.0000000000
10
4.2731652195
20
-19.8492780477
30
0.0000000000
10
4.1611685454
20
-19.9027097794
30
0.0000000000
10
4.0490573336
20
-19.9559003980
30
0.0000000000
10
4.0235782984
20
-19.9679715669
30
0.0000000000
11
4.3596646497
21
-19.8078802071
31
0.0000000000
11
4.0999961569
21
-19.9317174691
31
0.0000000000
11
4.0235782984
21
-19.9679715669
31
0.0000000000
0
SPLINE
5
338
100
AcDbEntity
8
0
100
AcDbSpline
62
7
6
CONTINUOUS
70
0
71
3
72
8
73
4
74
2
42
0.0000001000
43
0.0000001000
44
0.0000000001
12
-0.0267366701
22
-0.0126669968
32
0.0000000000
13
-0.0267416615
23
-0.0126564577
33
0.0000000000
40
0.0000000000
40
0.0000000000
40
0.0000000000
40
0.0000000000
40
1.0000000000
40
1.0000000000
40
1.0000000000
40
1.0000000000
10
4.0235782984
20
-19.9679715669
30
0.0000000000
10
4.0146660750
20
-19.9721938991
30
0.0000000000
10
4.0057530359
20
-19.9764145097
30
0.0000000000
10
3.9968391487
20
-19.9806333289
30
0.0000000000
11
4.0235782984
21
-19.9679715669
31
0.0000000000
11
3.9968391487
21
-19.9806333289
31
0.0000000000
0
SPLINE
5
339
100
AcDbEntity
8
0
100
AcDbSpline
62
7
6
CONTINUOUS
70
0
71
3
72
8
73
4
74
2
42
0.0000001000
43
0.0000001000
44
0.0000000001
12
-0.0319107190
22
-0.0151029010
32
0.0000000000
13
-0.0319181290
23
-0.0150872421
33
0.0000000000
40
0.0000000000
40
0.0000000000
40
0.0000000000
40
0.0000000000
40
1.0000000000
40
1.0000000000
40
1.0000000000
40
1.0000000000
10
3.9968391487
20
-19.9806333289
30
0.0000000000
10
3.9862022424
20
-19.9856676293
30
0.0000000000
10
3.9755641285
20
-19.9906993789
30
0.0000000000
10
3.9649247521
20
-19.9957284596
30
0.0000000000
11
3.9968391487
21
-19.9806333289
31
0.0000000000
11
3.9649247521
21
-19.9957284596
31
0.0000000000
0
SPLINE
5
33A
100
AcDbEntity
8
0
100
AcDbSpline
62
7
6
CONTINUOUS
70
0
71
3
72
9
73
5
74
3
42
0.0000001000
43
0.0000001000
44
0.0000000001
12
0.3768760635
22
0.2091637441
32
0.0000000000
13
0.3784869660
23
0.2062348261
33
0.0000000000
40
0.0000000000
40
0.0000000000
40
0.0000000000
40
0.0000000000
40
0.6737165163
40
1.0000000000
40
1.0000000000
40
1.0000000000
40
1.0000000000
10
3.5886351005
20
-19.3609770097
30
0.0000000000
10
3.6732709767
20
-19.3140046534
30
0.0000000000
10
3.7991456801
20
-19.2447325762
30
0.0000000000
10
3.9252452216
20
-19.1758723546
30
0.0000000000
10
3.9664099035
20
-19.1534420155
30
0.0000000000
11
3.5886351005
21
-19.3609770097
31
0.0000000000
11
3.8429807627
21
-19.2208521071
31
0.0000000000
11
3.9664099035
21
-19.1534420155
31
0.0000000000
0
SPLINE
5
33B
100
AcDbEntity
8
0
100
AcDbSpline
62
7
6
CONTINUOUS
70
0
71
3
72
8
73
4
74
2
42
0.0000001000
43
0.0000001000
44
0.0000000001
12
0.0278916157
22
0.0151979408
32
0.0000000000
13
0.0278977658
23
0.0151866442
33
0.0000000000
40
0.0000000000
40
0.0000000000
40
0.0000000000
40
0.0000000000
40
1.0000000000
40
1.0000000000
40
1.0000000000
40
1.0000000000
10
3.9664099035
20
-19.1534420155
30
0.0000000000
10
3.9757071088
20
-19.1483760352
30
0.0000000000
10
3.9850053589
20
-19.1433119736
30
0.0000000000
10
3.9943046142
20
-19.1382497589
30
0.0000000000
11
3.9664099035
21
-19.1534420155
31
0.0000000000
11
3.9943046142
21
-19.1382497589
31
0.0000000000
0
SPLINE
5
33C
100
AcDbEntity
8
0
100
AcDbSpline
62
7
6
CONTINUOUS
70
0
71
3
72
8
73
4
74
2
42
0.0000001000
43
0.0000001000
44
0.0000000001
12
0.0293272749
22
0.0159648229
32
0.0000000000
13
0.0293338010
23
0.0159528271
33
0.0000000000
40
0.0000000000
40
0.0000000000
40
0.0000000000
40
0.0000000000
40
1.0000000000
40
1.0000000000
40
1.0000000000
40
1.0000000000
10
3.9943046142
20
-19.1382497589
30
0.0000000000
10
4.0040803725
20
-19.1329281512
30
0.0000000000
10
4.0138572416
20
-19.1276085846
30
0.0000000000
10
4.0236351752
20
-19.1222909756
30
0.0000000000
11
3.9943046142
21
-19.1382497589
31
0.0000000000
11
4.0236351752
21
-19.1222909756
31
0.0000000000
0
SPLINE
5
33D
100
AcDbEntity
8
0
100
AcDbSpline
62
7
6
CONTINUOUS
70
0
71
3
72
9
73
5
74
3
42
0.0000001000
43
0.0000001000
44
0.0000000001
12
0.3356677742
22
0.1825487936
32
0.0000000000
13
0.3363459320
23
0.1812960030
33
0.0000000000
40
0.0000000000
40
0.0000000000
40
0.0000000000
40
0.0000000000
40
0.2274277471
40
1.0000000000
40
1.0000000000
40
1.0000000000
40
1.0000000000
10
4.0236351752
20
-19.1222909756
30
0.0000000000
10
4.0490818971
20
-19.1084520886
30
0.0000000000
10
4.1610028582
20
-19.0476607875
30
0.0000000000
10
4.2730474716
20
-18.9870973904
30
0.0000000000
10
4.3596646497
20
-18.9404093033
30
0.0000000000
11
4.0236351752
21
-19.1222909756
31
0.0000000000
11
4.0999961569
21
-19.0808126193
31
0.0000000000
11
4.3596646497
21
-18.9404093033
31
0.0000000000
0
SPLINE
5
33E
100
AcDbEntity
8
0
100
AcDbSpline
62
7
6
CONTINUOUS
70
0
71
3
72
9
73
5
74
3
42
0.0000001000
43
0.0000001000
44
0.0000000001
12
-0.3357924291
22
-0.1607072025
32
0.0000000000
13
-0.3364216688
23
-0.1593860490
33
0.0000000000
40
0.0000000000
40
0.0000000000
40
0.0000000000
40
0.0000000000
40
0.7727937500
40
1.0000000000
40
1.0000000000
40
1.0000000000
40
1.0000000000
10
4.3596646497
20
10.1565987638
30
0.0000000000
10
4.2731652195
20
10.1152009232
30
0.0000000000
10
4.1611685454
20
10.0617691916
30
0.0000000000
10
4.0490573336
20
10.0085785729
30
0.0000000000
10
4.0235782984
20
9.9965074041
30
0.0000000000
11
4.3596646497
21
10.1565987638
31
0.0000000000
11
4.0999961569
21
10.0327615018
31
0.0000000000
11
4.0235782984
21
9.9965074041
31
0.0000000000
0
SPLINE
5
33F
100
AcDbEntity
8
0
100
AcDbSpline
62
7
6
CONTINUOUS
70
0
71
3
72
8
73
4
74
2
42
0.0000001000
43
0.0000001000
44
0.0000000001
12
-0.0267366701
22
-0.0126669968
32
0.0000000000
13
-0.0267416615
23
-0.0126564577
33
0.0000000000
40
0.0000000000
40
0.0000000000
40
0.0000000000
40
0.0000000000
40
1.0000000000
40
1.0000000000
40
1.0000000000
40
1.0000000000
10
4.0235782984
20
9.9965074041
30
0.0000000000
10
4.0146660750
20
9.9922850718
30
0.0000000000
10
4.0057530359
20
9.9880644613
30
0.0000000000
10
3.9968391487
20
9.9838456420
30
0.0000000000
11
4.0235782984
21
9.9965074041
31
0.0000000000
11
3.9968391487
21
9.9838456420
31
0.0000000000
0
SPLINE
5
340
100
AcDbEntity
8
0
100
AcDbSpline
62
7
6
CONTINUOUS
70
0
71
3
72
8
73
4
74
2
42
0.0000001000
43
0.0000001000
44
0.0000000001
12
-0.0319107190
22
-0.0151029010
32
0.0000000000
13
-0.0319181290
23
-0.0150872421
33
0.0000000000
40
0.0000000000
40
0.0000000000
40
0.0000000000
40
0.0000000000
40
1.0000000000
40
1.0000000000
40
1.0000000000
40
1.0000000000
10
3.9968391487
20
9.9838456420
30
0.0000000000
10
3.9862022424
20
9.9788113417
30
0.0000000000
10
3.9755641285
20
9.9737795920
30
0.0000000000
10
3.9649247521
20
9.9687505113
30
0.0000000000
11
3.9968391487
21
9.9838456420
31
0.0000000000
11
3.9649247521
21
9.9687505113
31
0.0000000000
0
SPLINE
5
341
100
AcDbEntity
8
0
100
AcDbSpline
62
7
6
CONTINUOUS
70
0
71
3
72
9
73
5
74
3
42
0.0000001000
43
0.0000001000
44
0.0000000001
12
0.3768760635
22
0.2091637441
32
0.0000000000
13
0.3784869660
23
0.2062348261
33
0.0000000000
40
0.0000000000
40
0.0000000000
40
0.0000000000
40
0.0000000000
40
0.6737165163
40
1.0000000000
40
1.0000000000
40
1.0000000000
40
1.0000000000
10
3.5886351005
20
10.6035019612
30
0.0000000000
10
3.6732709767
20
10.6504743175
30
0.0000000000
10
3.7991456801
20
10.7197463947
30
0.0000000000
10
3.9252452216
20
10.7886066163
30
0.0000000000
10
3.9664099035
20
10.8110369555
30
0.0000000000
11
3.5886351005
21
10.6035019612
31
0.0000000000
11
3.8429807627
21
10.7436268638
31
0.0000000000
11
3.9664099035
21
10.8110369555
31
0.0000000000
0
SPLINE
5
342
100
AcDbEntity
8
0
100
AcDbSpline
62
7
6
CONTINUOUS
70
0
71
3
72
8
73
4
74
2
42
0.0000001000
43
0.0000001000
44
0.0000000001
12
0.0278916157
22
0.0151979408
32
0.0000000000
13
0.0278977658
23
0.0151866442
33
0.0000000000
40
0.0000000000
40
0.0000000000
40
0.0000000000
40
0.0000000000
40
1.0000000000
40
1.0000000000
40
1.0000000000
40
1.0000000000
10
3.9664099035
20
10.8110369555
30
0.0000000000
10
3.9757071088
20
10.8161029358
30
0.0000000000
10
3.9850053589
20
10.8211669974
30
0.0000000000
10
3.9943046142
20
10.8262292121
30
0.0000000000
11
3.9664099035
21
10.8110369555
31
0.0000000000
11
3.9943046142
21
10.8262292121
31
0.0000000000
0
SPLINE
5
343
100
AcDbEntity
8
0
100
AcDbSpline
62
7
6
CONTINUOUS
70
0
71
3
72
8
73
4
74
2
42
0.0000001000
43
0.0000001000
44
0.0000000001
12
0.0293272750
22
0.0159648229
32
0.0000000000
13
0.0293338010
23
0.0159528272
33
0.0000000000
40
0.0000000000
40
0.0000000000
40
0.0000000000
40
0.0000000000
40
1.0000000000
40
1.0000000000
40
1.0000000000
40
1.0000000000
10
3.9943046142
20
10.8262292121
30
0.0000000000
10
4.0040803725
20
10.8315508197
30
0.0000000000
10
4.0138572416
20
10.8368703863
30
0.0000000000
10
4.0236351752
20
10.8421879954
30
0.0000000000
11
3.9943046142
21
10.8262292121
31
0.0000000000
11
4.0236351752
21
10.8421879954
31
0.0000000000
0
SPLINE
5
344
100
AcDbEntity
8
0
100
AcDbSpline
62
7
6
CONTINUOUS
70
0
71
3
72
9
73
5
74
3
42
0.0000001000
43
0.0000001000
44
0.0000000001
12
0.3356677742
22
0.1825487936
32
0.0000000000
13
0.3363459320
23
0.1812960030
33
0.0000000000
40
0.0000000000
40
0.0000000000
40
0.0000000000
40
0.0000000000
40
0.2274277471
40
1.0000000000
40
1.0000000000
40
1.0000000000
40
1.0000000000
10
4.0236351752
20
10.8421879954
30
0.0000000000
10
4.0490818971
20
10.8560268823
30
0.0000000000
10
4.1610028582
20
10.9168181834
30
0.0000000000
10
4.2730474716
20
10.9773815805
30
0.0000000000
10
4.3596646497
20
11.0240696677
30
0.0000000000
11
4.0236351752
21
10.8421879954
31
0.0000000000
11
4.0999961569
21
10.8836663517
31
0.0000000000
11
4.3596646497
21
11.0240696677
31
0.0000000000
0
SPLINE
5
345
100
AcDbEntity
8
0
100
AcDbSpline
62
7
6
CONTINUOUS
70
0
71
3
72
14
73
10
74
8
42
0.0000001000
43
0.0000001000
44
0.0000000001
12
0.2624675899
22
-0.8451934320
32
0.0000000000
13
-0.3666127492
23
-0.8055037340
33
0.0000000000
40
0.0000000000
40
0.0000000000
40
0.0000000000
40
0.0000000000
40
0.1614572418
40
0.3184995802
40
0.4696971453
40
0.6140052566
40
0.7506725754
40
0.8793213471
40
1.0000000000
40
1.0000000000
40
1.0000000000
40
1.0000000000
10
-9.5587756656
20
-16.2426849780
30
0.0000000000
10
-9.5446499012
20
-16.2881725115
30
0.0000000000
10
-9.5201986341
20
-16.3790121179
30
0.0000000000
10
-9.4950608735
20
-16.5154304297
30
0.0000000000
10
-9.4822326895
20
-16.6484971717
30
0.0000000000
10
-9.4819131223
20
-16.7761918592
30
0.0000000000
10
-9.4941309119
20
-16.8966616570
30
0.0000000000
10
-9.5187403382
20
-17.0081154196
30
0.0000000000
10
-9.5440295151
20
-17.0774970616
30
0.0000000000
10
-9.5587769593
20
-17.1098994302
30
0.0000000000
11
-9.5587756656
21
-16.2426849780
31
0.0000000000
11
-9.5217627480
21
-16.3806991809
31
0.0000000000
11
-9.4967621211
21
-16.5174160209
31
0.0000000000
11
-9.4841731204
21
-16.6506337429
31
0.0000000000
11
-9.4841729280
21
-16.7783477400
31
0.0000000000
11
-9.4967586457
21
-16.8986429764
31
0.0000000000
11
-9.5217492848
21
-17.0097218045
31
0.0000000000
11
-9.5587769593
21
-17.1098994302
31
0.0000000000
0
SPLINE
5
346
100
AcDbEntity
8
0
100
AcDbSpline
62
7
6
CONTINUOUS
70
0
71
3
72
14
73
10
74
8
42
0.0000001000
43
0.0000001000
44
0.0000000001
12
0.2624675399
22
-0.8451934394
32
0.0000000000
13
-0.3666126581
23
-0.8055037669
33
0.0000000000
40
0.0000000000
40
0.0000000000
40
0.0000000000
40
0.0000000000
40
0.1614572389
40
0.3184995745
40
0.4696971378
40
0.6140052486
40
0.7506725684
40
0.8793213429
40
1.0000000000
40
1.0000000000
40
1.0000000000
40
1.0000000000
10
-11.5740299128
20
-15.2350578544
30
0.0000000000
10
-11.5599041514
20
-15.2805453874
30
0.0000000000
10
-11.5354528894
20
-15.3713849926
30
0.0000000000
10
-11.5103151342
20
-15.5078033019
30
0.0000000000
10
-11.4974869530
20
-15.6408700414
30
0.0000000000
10
-11.4971673860
20
-15.7685647272
30
0.0000000000
10
-11.5093851730
20
-15.8890345251
30
0.0000000000
10
-11.5339945940
20
-16.0004882902
30
0.0000000000
10
-11.5592837654
20
-16.0698699356
30
0.0000000000
10
-11.5740312065
20
-16.1022723066
30
0.0000000000
11
-11.5740299128
21
-15.2350578544
31
0.0000000000
11
-11.5370170030
21
-15.3730720554
31
0.0000000000
11
-11.5120163815
21
-15.5097888927
31
0.0000000000
11
-11.4994273835
21
-15.6430066121
31
0.0000000000
11
-11.4994271911
21
-15.7707206076
31
0.0000000000
11
-11.5120129061
21
-15.8910158442
31
0.0000000000
11
-11.5370035398
21
-16.0020946750
31
0.0000000000
11
-11.5740312065
21
-16.1022723066
31
0.0000000000
0
SPLINE
5
347
100
AcDbEntity
8
0
100
AcDbSpline
62
7
6
CONTINUOUS
70
0
71
3
72
14
73
10
74
8
42
0.0000001000
43
0.0000001000
44
0.0000000001
12
0.2624675899
22
-0.8451934320
32
0.0000000000
13
-0.3666127492
23
-0.8055037340
33
0.0000000000
40
0.0000000000
40
0.0000000000
40
0.0000000000
40
0.0000000000
40
0.1614572418
40
0.3184995802
40
0.4696971453
40
0.6140052566
40
0.7506725754
40
0.8793213471
40
1.0000000000
40
1.0000000000
40
1.0000000000
40
1.0000000000
10
-13.7660610405
20
-14.1390422906
30
0.0000000000
10
-13.7519352762
20
-14.1845298240
30
0.0000000000
10
-13.7274840090
20
-14.2753694304
30
0.0000000000
10
-13.7023462484
20
-14.4117877422
30
0.0000000000
10
-13.6895180644
20
-14.5448544843
30
0.0000000000
10
-13.6891984972
20
-14.6725491717
30
0.0000000000
10
-13.7014162868
20
-14.7930189695
30
0.0000000000
10
-13.7260257131
20
-14.9044727321
30
0.0000000000
10
-13.7513148900
20
-14.9738543742
30
0.0000000000
10
-13.7660623343
20
-15.0062567427
30
0.0000000000
11
-13.7660610405
21
-14.1390422906
31
0.0000000000
11
-13.7290481229
21
-14.2770564934
31
0.0000000000
11
-13.7040474960
21
-14.4137733334
31
0.0000000000
11
-13.6914584953
21
-14.5469910554
31
0.0000000000
11
-13.6914583029
21
-14.6747050525
31
0.0000000000
11
-13.7040440206
21
-14.7950002889
31
0.0000000000
11
-13.7290346597
21
-14.9060791170
31
0.0000000000
11
-13.7660623343
21
-15.0062567427
31
0.0000000000
0
SPLINE
5
348
100
AcDbEntity
8
0
100
AcDbSpline
62
7
6
CONTINUOUS
70
0
71
3
72
11
73
7
74
5
42
0.0000001000
43
0.0000001000
44
0.0000000001
12
0.0623127366
22
-0.7810989141
32
0.0000000000
13
0.7050006714
23
-0.3507872683
33
0.0000000000
40
0.0000000000
40
0.0000000000
40
0.0000000000
40
0.0000000000
40
0.3126152645
40
0.6172147928
40
0.9062510222
40
1.0000000000
40
1.0000000000
40
1.0000000000
40
1.0000000000
10
-19.2976663983
20
-18.9224308665
30
0.0000000000
10
-19.2911730941
20
-19.0038253477
30
0.0000000000
10
-19.2580702567
20
-19.1639684962
30
0.0000000000
10
-19.1418246289
20
-19.3743429757
30
0.0000000000
10
-19.0070307300
20
-19.4973539657
30
0.0000000000
10
-18.9194741849
20
-19.5469798422
30
0.0000000000
10
-18.8974431542
20
-19.5579418248
30
0.0000000000
11
-19.2976663983
21
-18.9224308665
31
0.0000000000
11
-19.2458223052
21
-19.1617218704
31
0.0000000000
11
-19.1292276346
21
-19.3696438395
31
0.0000000000
11
-18.9616122181
21
-19.5215396285
31
0.0000000000
11
-18.8974431542
21
-19.5579418248
31
0.0000000000
0
SPLINE
5
349
100
AcDbEntity
8
0
100
AcDbSpline
62
7
6
CONTINUOUS
70
0
71
3
72
10
73
6
74
4
42
0.0000001000
43
0.0000001000
44
0.0000000001
12
-0.2722449449
22
-9.9768031050
32
0.0000000000
13
0.7877059084
23
-9.9493858473
33
0.0000000000
40
0.0000000000
40
0.0000000000
40
0.0000000000
40
0.0000000000
40
0.3373169342
40
0.6757054589
40
1.0000000000
40
1.0000000000
40
1.0000000000
40
1.0000000000
10
-19.5407270047
20
-8.9488168382
30
0.0000000000
10
-19.5713379481
20
-10.0705983837
30
0.0000000000
10
-19.5955965116
20
-12.3189425022
30
0.0000000000
10
-19.5155859437
20
-15.6454472980
30
0.0000000000
10
-19.3828480239
20
-17.8466777609
30
0.0000000000
10
-19.2976984486
20
-18.9221882669
30
0.0000000000
11
-19.5407270047
21
-8.9488168382
31
0.0000000000
11
-19.5760395608
21
-12.3152257025
31
0.0000000000
11
-19.4936724885
21
-15.6914997574
31
0.0000000000
11
-19.2976984486
21
-18.9221882669
31
0.0000000000
0
SPLINE
5
34A
100
AcDbEntity
8
0
100
AcDbSpline
62
7
6
CONTINUOUS
70
0
71
3
72
10
73
6
74
4
42
0.0000001000
43
0.0000001000
44
0.0000000001
12
-0.9441993622
22
-16.7698683134
32
0.0000000000
13
-0.4581644472
23
-16.7901783567
33
0.0000000000
40
0.0000000000
40
0.0000000000
40
0.0000000000
40
0.0000000000
40
0.3336354314
40
0.6700460323
40
1.0000000000
40
1.0000000000
40
1.0000000000
40
1.0000000000
10
-18.8376904731
20
7.8323678231
30
0.0000000000
10
-18.9426965936
20
5.9673604067
30
0.0000000000
10
-19.1358827391
20
2.2208099912
30
0.0000000000
10
-19.3703431208
20
-3.3731666979
30
0.0000000000
10
-19.4903359474
20
-7.1021550080
30
0.0000000000
10
-19.5407270065
20
-8.9488169973
30
0.0000000000
11
-18.8376904731
21
7.8323678231
31
0.0000000000
11
-19.1261354612
21
2.2359128886
31
0.0000000000
11
-19.3626196920
21
-3.4096316878
31
0.0000000000
11
-19.5407270065
21
-8.9488169973
31
0.0000000000
0
SPLINE
5
34B
100
AcDbEntity
8
0
100
AcDbSpline
62
7
6
CONTINUOUS
70
0
71
3
72
10
73
6
74
4
42
0.0000001000
43
0.0000001000
44
0.0000000001
12
-1.5851936806
22
-10.5266820294
32
0.0000000000
13
-0.5984209459
23
-10.6285374376
33
0.0000000000
40
0.0000000000
40
0.0000000000
40
0.0000000000
40
0.0000000000
40
0.3359527140
40
0.6743755327
40
1.0000000000
40
1.0000000000
40
1.0000000000
40
1.0000000000
10
-17.7341551431
20
18.4169308084
30
0.0000000000
10
-17.9116718495
20
17.2381083426
30
0.0000000000
10
-18.2332871183
20
14.8663964261
30
0.0000000000
10
-18.6020437561
20
11.3366344662
30
0.0000000000
10
-18.7727369740
20
8.9860049951
30
0.0000000000
10
-18.8376904746
20
7.8323677147
30
0.0000000000
11
-17.7341551431
21
18.4169308084
31
0.0000000000
11
-18.2140087296
21
14.8729310981
31
0.0000000000
11
-18.5874968562
21
11.2897189833
31
0.0000000000
11
-18.8376904746
21
7.8323677147
31
0.0000000000
0
SPLINE
5
34C
100
AcDbEntity
8
0
100
AcDbSpline
62
7
6
CONTINUOUS
70
0
71
3
72
12
73
8
74
6
42
0.0000001000
43
0.0000001000
44
0.0000000001
12
-1.0182566939
22
-0.5033596586
32
0.0000000000
13
-0.1688745344
23
-1.1219446837
33
0.0000000000
40
0.0000000000
40
0.0000000000
40
0.0000000000
40
0.0000000000
40
0.1376193239
40
0.3647407792
40
0.6019974718
40
0.8421506120
40
1.0000000000
40
1.0000000000
40
1.0000000000
40
1.0000000000
10
-17.1143441446
20
19.3193515498
30
0.0000000000
10
-17.1610547438
20
19.2962608778
30
0.0000000000
10
-17.2797193224
20
19.2239612851
30
0.0000000000
10
-17.4466196667
20
19.0669006027
30
0.0000000000
10
-17.5977888506
20
18.8456510505
30
0.0000000000
10
-17.6915138324
20
18.6232407342
30
0.0000000000
10
-17.7252832390
20
18.4758628790
30
0.0000000000
10
-17.7341688196
20
18.4168301184
30
0.0000000000
11
-17.1143441446
21
19.3193515498
31
0.0000000000
11
-17.2481034115
21
19.2384480549
31
0.0000000000
11
-17.4368474040
21
19.0636421139
31
0.0000000000
11
-17.5892640877
21
18.8423074913
31
0.0000000000
11
-17.6945723913
21
18.5915005609
31
0.0000000000
11
-17.7341688196
21
18.4168301184
31
0.0000000000
0
SPLINE
5
34D
100
AcDbEntity
8
0
100
AcDbSpline
62
7
6
CONTINUOUS
70
0
71
3
72
11
73
7
74
5
42
0.0000001000
43
0.0000001000
44
0.0000000001
12
0.2116795002
22
0.1045946583
32
0.0000000000
13
0.2103183193
23
-0.1051591596
33
0.0000000000
40
0.0000000000
40
0.0000000000
40
0.0000000000
40
0.0000000000
40
0.1260365584
40
0.3967106775
40
0.6851952423
40
1.0000000000
40
1.0000000000
40
1.0000000000
40
1.0000000000
10
-14.3791838280
20
20.6704099961
30
0.0000000000
10
-14.3702907094
20
20.6748042464
30
0.0000000000
10
-14.3413046120
20
20.6866153304
30
0.0000000000
10
-14.2874257684
20
20.6950138160
30
0.0000000000
10
-14.2187414089
20
20.6860686472
30
0.0000000000
10
-14.1742353209
20
20.6688503865
30
0.0000000000
10
-14.1521655851
20
20.6578155186
30
0.0000000000
11
-14.3791838280
21
20.6704099961
31
0.0000000000
11
-14.3516498074
21
20.6816077431
31
0.0000000000
11
-14.2888319307
21
20.6918484372
31
0.0000000000
11
-14.2214744201
21
20.6838128134
31
0.0000000000
11
-14.1521655851
21
20.6578155186
31
0.0000000000
0
SPLINE
5
34E
100
AcDbEntity
8
0
100
AcDbSpline
62
7
6
CONTINUOUS
70
0
71
3
72
11
73
7
74
5
42
0.0000001000
43
0.0000001000
44
0.0000000001
12
0.5554678315
22
-0.2785534660
32
0.0000000000
13
0.5805686008
23
0.2205256317
33
0.0000000000
40
0.0000000000
40
0.0000000000
40
0.0000000000
40
0.0000000000
40
0.1612521591
40
0.4709650192
40
0.7950353186
40
1.0000000000
40
1.0000000000
40
1.0000000000
40
1.0000000000
10
-4.2069861212
20
-26.9032012883
30
0.0000000000
10
-4.1771293255
20
-26.9181737376
30
0.0000000000
10
-4.0867112145
20
-26.9557355223
30
0.0000000000
10
-3.9234653934
20
-26.9861560066
30
0.0000000000
10
-3.7489686003
20
-26.9713642637
30
0.0000000000
10
-3.6436512113
20
-26.9399011004
30
0.0000000000
10
-3.6039858586
20
-26.9248344451
30
0.0000000000
11
-4.2069861212
21
-26.9032012883
31
0.0000000000
11
-4.1144765253
21
-26.9416042576
31
0.0000000000
11
-3.9260028401
21
-26.9771464894
31
0.0000000000
11
-3.7259700009
21
-26.9609584419
31
0.0000000000
11
-3.6039858586
21
-26.9248344451
31
0.0000000000
0
SPLINE
5
34F
100
AcDbEntity
8
0
100
AcDbSpline
62
7
6
CONTINUOUS
70
0
71
3
72
15
73
11
74
9
42
0.0000001000
43
0.0000001000
44
0.0000000001
12
0.6590491369
22
-0.3295245685
32
0.0000000000
13
-0.0308424059
23
-0.7361935562
33
0.0000000000
40
0.0000000000
40
0.0000000000
40
0.0000000000
40
0.0000000000
40
0.1098451041
40
0.2285729721
40
0.3545695116
40
0.4854532316
40
0.6183862930
40
0.7503509391
40
0.8784137988
40
1.0000000000
40
1.0000000000
40
1.0000000000
40
1.0000000000
10
0.6973191277
20
13.2330731622
30
0.0000000000
10
0.7214502347
20
13.2210076087
30
0.0000000000
10
0.7691212695
20
13.1906458972
30
0.0000000000
10
0.8339946813
20
13.1320688074
30
0.0000000000
10
0.8929745079
20
13.0607392855
30
0.0000000000
10
0.9438616489
20
12.9793317266
30
0.0000000000
10
0.9847835337
20
12.8908805486
30
0.0000000000
10
1.0142087823
20
12.7986847512
30
0.0000000000
10
1.0310373680
20
12.7062157844
30
0.0000000000
10
1.0335041539
20
12.6446743357
30
0.0000000000
10
1.0322541503
20
12.6148373431
30
0.0000000000
11
0.6973191277
21
13.2330731622
31
0.0000000000
11
0.7659175467
21
13.1901168116
31
0.0000000000
11
0.8311706725
21
13.1318470214
31
0.0000000000
11
0.8905704841
21
13.0604973148
31
0.0000000000
11
0.9418313620
21
12.9788085842
31
0.0000000000
11
0.9829814917
21
12.8899214098
31
0.0000000000
11
1.0124393778
21
12.7972541720
31
0.0000000000
11
1.0290751443
21
12.7043704189
31
0.0000000000
11
1.0322541503
21
12.6148373431
31
0.0000000000
0
SPLINE
5
350
100
AcDbEntity
8
0
100
AcDbSpline
62
7
6
CONTINUOUS
70
0
71
3
72
12
73
8
74
6
42
0.0000001000
43
0.0000001000
44
0.0000000001
12
-0.0145194311
22
-0.3465719126
32
0.0000000000
13
-0.3253355301
23
-0.1240273738
33
0.0000000000
40
0.0000000000
40
0.0000000000
40
0.0000000000
40
0.0000000000
40
0.2404201998
40
0.4609642826
40
0.6624953480
40
0.8494432286
40
1.0000000000
40
1.0000000000
40
1.0000000000
40
1.0000000000
10
-0.5664656641
20
-25.5458441128
30
0.0000000000
10
-0.5676292523
20
-25.5736184089
30
0.0000000000
10
-0.5739387119
20
-25.6268476639
30
0.0000000000
10
-0.5970150053
20
-25.7004250877
30
0.0000000000
10
-0.6328205438
20
-25.7618847768
30
0.0000000000
10
-0.6779930574
20
-25.8060849123
30
0.0000000000
10
-0.7128168292
20
-25.8247760450
30
0.0000000000
10
-0.7291439848
20
-25.8310004320
30
0.0000000000
11
-0.5664656641
21
-25.5458441128
31
0.0000000000
11
-0.5768621926
21
-25.6285895137
31
0.0000000000
11
-0.6004383388
21
-25.7013674939
31
0.0000000000
11
-0.6362927368
21
-25.7613787368
31
0.0000000000
11
-0.6830493315
21
-25.8063125482
31
0.0000000000
11
-0.7291439848
21
-25.8310004320
31
0.0000000000
0
SPLINE
5
351
100
AcDbEntity
8
0
100
AcDbSpline
62
9
6
CONTINUOUS
70
0
71
3
72
10
73
6
74
4
42
0.0000001000
43
0.0000001000
44
0.0000000001
12
-0.0107310581
22
-0.2415862888
32
0.0000000000
13
0.2125922074
23
-0.1061593532
33
0.0000000000
40
0.0000000000
40
0.0000000000
40
0.0000000000
40
0.0000000000
40
0.1863443197
40
0.5406747132
40
1.0000000000
40
1.0000000000
40
1.0000000000
40
1.0000000000
10
-18.8371883365
20
7.8323454099
30
0.0000000000
10
-18.8378548937
20
7.8173393324
30
0.0000000000
10
-18.8313260676
20
7.7730342915
30
0.0000000000
10
-18.7787434178
20
7.7093710470
30
0.0000000000
10
-18.7236842992
20
7.6750618077
30
0.0000000000
10
-18.6911346403
20
7.6588079159
30
0.0000000000
11
-18.8371883365
21
7.8323454099
31
0.0000000000
11
-18.8307530195
21
7.7879737993
31
0.0000000000
11
-18.7819364769
21
7.7193723453
31
0.0000000000
11
-18.6911346403
21
7.6588079159
31
0.0000000000
0
SPLINE
5
352
100
AcDbEntity
8
0
100
AcDbSpline
62
9
6
CONTINUOUS
70
0
71
3
72
13
73
9
74
7
42
0.0000001000
43
0.0000001000
44
0.0000000001
12
-0.6013734310
22
-0.2667426114
32
0.0000000000
13
-0.1021186359
23
-0.6499026146
33
0.0000000000
40
0.0000000000
40
0.0000000000
40
0.0000000000
40
0.0000000000
40
0.1468781566
40
0.3083686152
40
0.4799565233
40
0.6563446112
40
0.8318516758
40
1.0000000000
40
1.0000000000
40
1.0000000000
40
1.0000000000
10
-1.8462021632
20
11.3390203292
30
0.0000000000
10
-1.8756450369
20
11.3259607749
30
0.0000000000
10
-1.9342539544
20
11.2910664477
30
0.0000000000
10
-2.0134101348
20
11.2209763484
30
0.0000000000
10
-2.0843586240
20
11.1340903622
30
0.0000000000
10
-2.1432341488
20
11.0350661055
30
0.0000000000
10
-2.1869462126
20
10.9293205990
30
0.0000000000
10
-2.2050611553
20
10.8557813856
30
0.0000000000
10
-2.2107848478
20
10.8193547071
30
0.0000000000
11
-1.8462021632
21
11.3390203292
31
0.0000000000
11
-1.9297181197
21
11.2904199389
31
0.0000000000
11
-2.0097354592
21
11.2205319447
31
0.0000000000
11
-2.0814233038
21
11.1333334590
31
0.0000000000
11
-2.1408209999
21
11.0336461194
31
0.0000000000
11
-2.1847554737
21
10.9268695608
31
0.0000000000
11
-2.2107848478
21
10.8193547071
31
0.0000000000
0
SPLINE
5
353
100
AcDbEntity
8
0
100
AcDbSpline
62
9
6
CONTINUOUS
70
0
71
3
72
13
73
9
74
7
42
0.0000001000
43
0.0000001000
44
0.0000000001
12
-1.1951332935
22
-0.5444571765
32
0.0000000000
13
-0.2017589629
23
-1.2977174296
33
0.0000000000
40
0.0000000000
40
0.0000000000
40
0.0000000000
40
0.0000000000
40
0.1468113741
40
0.3076467952
40
0.4787453698
40
0.6549923568
40
0.8306467422
40
1.0000000000
40
1.0000000000
40
1.0000000000
40
1.0000000000
10
-2.1811371858
20
11.9572561483
30
0.0000000000
10
-2.2396235728
20
11.9306119796
30
0.0000000000
10
-2.3555687018
20
11.8597978085
30
0.0000000000
10
-2.5117098231
20
11.7186163134
30
0.0000000000
10
-2.6514561968
20
11.5443932789
30
0.0000000000
10
-2.7675532516
20
11.3461398325
30
0.0000000000
10
-2.8540486220
20
11.1341800506
30
0.0000000000
10
-2.8899997641
20
10.9867258231
30
0.0000000000
10
-2.9013892766
20
10.9134682650
30
0.0000000000
11
-2.1811371858
21
11.9572561483
31
0.0000000000
11
-2.3467291720
21
11.8584916970
31
0.0000000000
11
-2.5043761008
21
11.7179070641
31
0.0000000000
11
-2.6455726346
21
11.5431045686
31
0.0000000000
11
-2.7627375097
21
11.3434820569
31
0.0000000000
11
-2.8495733537
21
11.1297611855
31
0.0000000000
11
-2.9013892766
21
10.9134682650
31
0.0000000000
0
SPLINE
5
354
100
AcDbEntity
8
0
100
AcDbSpline
62
9
6
CONTINUOUS
70
0
71
3
72
12
73
8
74
6
42
0.0000001000
43
0.0000001000
44
0.0000000001
12
0.0151047378
22
0.7328981649
32
0.0000000000
13
-0.6487745758
23
0.3412615169
33
0.0000000000
40
0.0000000000
40
0.0000000000
40
0.0000000000
40
0.0000000000
40
0.1973841428
40
0.4084260493
40
0.6206093771
40
0.8211716238
40
1.0000000000
40
1.0000000000
40
1.0000000000
40
1.0000000000
10
-1.8462021632
20
11.3390203292
30
0.0000000000
10
-1.8452083513
20
11.3872411546
30
0.0000000000
10
-1.8560409194
20
11.4874517165
30
0.0000000000
10
-1.9022227861
20
11.6327591362
30
0.0000000000
10
-1.9749748799
20
11.7677982897
30
0.0000000000
10
-2.0675149733
20
11.8800364510
30
0.0000000000
10
-2.1424640813
20
11.9369137354
30
0.0000000000
10
-2.1811371826
20
11.9572561498
30
0.0000000000
11
-1.8462021632
21
11.3390203292
31
0.0000000000
11
-1.8602470901
21
11.4830302628
31
0.0000000000
11
-1.9065804937
21
11.6306340393
31
0.0000000000
11
-1.9806716509
21
11.7673956944
31
0.0000000000
11
-2.0752746971
21
11.8799390272
31
0.0000000000
11
-2.1811371826
21
11.9572561498
31
0.0000000000
0
SPLINE
5
355
100
AcDbEntity
8
0
100
AcDbSpline
62
9
6
CONTINUOUS
70
0
71
3
72
10
73
6
74
4
42
0.0000001000
43
0.0000001000
44
0.0000000001
12
-1.6419969522
22
-10.4568813421
32
0.0000000000
13
-0.6036068543
23
-10.5677897480
33
0.0000000000
40
0.0000000000
40
0.0000000000
40
0.0000000000
40
0.0000000000
40
0.3380293256
40
0.6714558973
40
1.0000000000
40
1.0000000000
40
1.0000000000
40
1.0000000000
10
-2.2107848478
20
10.8193547071
30
0.0000000000
10
-2.3957992219
20
9.6411105245
30
0.0000000000
10
-2.7266539534
20
7.2947149668
30
0.0000000000
10
-3.1059534991
20
3.7862501454
30
0.0000000000
10
-3.2795268294
20
1.4565147394
30
0.0000000000
10
-3.3456306535
20
0.2991864061
30
0.0000000000
11
-2.2107848478
21
10.8193547071
31
0.0000000000
11
-2.7096170019
21
7.2762524600
31
0.0000000000
11
-3.0881405514
21
3.7672847505
31
0.0000000000
11
-3.3456306535
21
0.2991864061
31
0.0000000000
0
SPLINE
5
356
100
AcDbEntity
8
0
100
AcDbSpline
62
9
6
CONTINUOUS
70
0
71
3
72
10
73
6
74
4
42
0.0000001000
43
0.0000001000
44
0.0000000001
12
-1.6509934856
22
-10.5153660084
32
0.0000000000
13
-0.6069551261
23
-10.6268672362
33
0.0000000000
40
0.0000000000
40
0.0000000000
40
0.0000000000
40
0.0000000000
40
0.3380310408
40
0.6714527363
40
1.0000000000
40
1.0000000000
40
1.0000000000
40
1.0000000000
10
-2.9013892766
20
10.9134682650
30
0.0000000000
10
-3.0874182921
20
9.7286282261
30
0.0000000000
10
-3.4200852130
20
7.3691220630
30
0.0000000000
10
-3.8014703402
20
3.8410406977
30
0.0000000000
10
-3.9760030320
20
1.4982870468
30
0.0000000000
10
-4.0424741806
20
0.3344776628
30
0.0000000000
11
-2.9013892766
21
10.9134682650
31
0.0000000000
11
-3.4029589054
21
7.3505337555
31
0.0000000000
11
-3.7835582845
21
3.8219981030
31
0.0000000000
11
-4.0424741806
21
0.3344776628
31
0.0000000000
0
SPLINE
5
357
100
AcDbEntity
8
0
100
AcDbSpline
62
9
6
CONTINUOUS
70
0
71
3
72
12
73
8
74
6
42
0.0000001000
43
0.0000001000
44
0.0000000001
12
-0.6894961248
22
-0.1590243242
32
0.0000000000
13
-0.6315129191
23
0.3191944155
33
0.0000000000
40
0.0000000000
40
0.0000000000
40
0.0000000000
40
0.0000000000
40
0.1773018659
40
0.3825346737
40
0.5997160623
40
0.8111654220
40
1.0000000000
40
1.0000000000
40
1.0000000000
40
1.0000000000
10
-2.2107848478
20
10.8193547071
30
0.0000000000
10
-2.2515344976
20
10.8099562706
30
0.0000000000
10
-2.3417120944
20
10.7995745997
30
0.0000000000
10
-2.4834003451
20
10.8026566861
30
0.0000000000
10
-2.6318668446
20
10.8230108655
30
0.0000000000
10
-2.7733200123
20
10.8587779064
30
0.0000000000
10
-2.8616387697
20
10.8933766211
30
0.0000000000
10
-2.9013892616
20
10.9134682687
30
0.0000000000
11
-2.2107848478
21
10.8193547071
31
0.0000000000
11
-2.3351706199
21
10.8029851984
31
0.0000000000
11
-2.4803745497
21
10.8052847640
31
0.0000000000
11
-2.6326440405
21
10.8260356070
31
0.0000000000
11
-2.7775573002
21
10.8632723676
31
0.0000000000
11
-2.9013892616
21
10.9134682687
31
0.0000000000
0
SPLINE
5
358
100
AcDbEntity
8
0
100
AcDbSpline
62
9
6
CONTINUOUS
70
0
71
3
72
8
73
4
74
2
42
0.0000001000
43
0.0000001000
44
0.0000000001
12
-0.0729435265
22
-1.2770850312
32
0.0000000000
13
-0.0700236038
23
-1.2772522837
33
0.0000000000
40
0.0000000000
40
0.0000000000
40
0.0000000000
40
0.0000000000
40
1.0000000000
40
1.0000000000
40
1.0000000000
40
1.0000000000
10
-3.3456306535
20
0.2991864061
30
0.0000000000
10
-3.3699451623
20
-0.1265086043
30
0.0000000000
10
-3.3937738262
20
-0.5522321244
30
0.0000000000
10
-3.4171150274
20
-0.9779828857
30
0.0000000000
11
-3.3456306535
21
0.2991864061
31
0.0000000000
11
-3.4171150274
21
-0.9779828857
31
0.0000000000
0
SPLINE
5
359
100
AcDbEntity
8
0
100
AcDbSpline
62
9
6
CONTINUOUS
70
0
71
3
72
8
73
4
74
2
42
0.0000001000
43
0.0000001000
44
0.0000000001
12
-0.0124872257
22
-0.2277708752
32
0.0000000000
13
-0.0123941869
23
-0.2277760514
33
0.0000000000
40
0.0000000000
40
0.0000000000
40
0.0000000000
40
0.0000000000
40
1.0000000000
40
1.0000000000
40
1.0000000000
40
1.0000000000
10
-3.4171150274
20
-0.9779828857
30
0.0000000000
10
-3.4212774360
20
-1.0539065108
30
0.0000000000
10
-3.4254243427
20
-1.1298310021
30
0.0000000000
10
-3.4295557383
20
-1.2057563526
30
0.0000000000
11
-3.4171150274
21
-0.9779828857
31
0.0000000000
11
-3.4295557383
21
-1.2057563526
31
0.0000000000
0
SPLINE
5
35A
100
AcDbEntity
8
0
100
AcDbSpline
62
9
6
CONTINUOUS
70
0
71
3
72
8
73
4
74
2
42
0.0000001000
43
0.0000001000
44
0.0000000001
12
-0.1568381310
22
-2.8823165641
32
0.0000000000
13
-0.1418798453
23
-2.8830982287
33
0.0000000000
40
0.0000000000
40
0.0000000000
40
0.0000000000
40
0.0000000000
40
1.0000000000
40
1.0000000000
40
1.0000000000
40
1.0000000000
10
-3.4295557383
20
-1.2057563526
30
0.0000000000
10
-3.4818351153
20
-2.1665285406
30
0.0000000000
10
-3.5316307389
20
-3.1274382953
30
0.0000000000
10
-3.5789240207
20
-4.0884710382
30
0.0000000000
11
-3.4295557383
21
-1.2057563526
31
0.0000000000
11
-3.5789240207
21
-4.0884710382
31
0.0000000000
0
SPLINE
5
35B
100
AcDbEntity
8
0
100
AcDbSpline
62
9
6
CONTINUOUS
70
0
71
3
72
10
73
6
74
4
42
0.0000001000
43
0.0000001000
44
0.0000000001
12
-0.6088988760
22
-12.3732533447
32
0.0000000000
13
-0.3278600823
23
-12.3838166686
33
0.0000000000
40
0.0000000000
40
0.0000000000
40
0.0000000000
40
0.0000000000
40
0.0990095463
40
0.5505605247
40
1.0000000000
40
1.0000000000
40
1.0000000000
40
1.0000000000
10
-3.5789240207
20
-4.0884710382
30
0.0000000000
10
-3.5990196212
20
-4.4968277714
30
0.0000000000
10
-3.7082525134
20
-6.7676928686
30
0.0000000000
10
-3.8812007948
20
-10.8935192616
30
0.0000000000
10
-3.9989448456
20
-14.6122713213
30
0.0000000000
10
-4.0480626000
20
-16.4675300101
30
0.0000000000
11
-3.5789240207
21
-4.0884710382
31
0.0000000000
11
-3.6378539851
21
-5.3136067368
31
0.0000000000
11
-3.8720011267
21
-10.9025880911
31
0.0000000000
11
-4.0480626000
21
-16.4675300101
31
0.0000000000
0
SPLINE
5
35C
100
AcDbEntity
8
0
100
AcDbSpline
62
9
6
CONTINUOUS
70
0
71
3
72
8
73
4
74
2
42
0.0000001000
43
0.0000001000
44
0.0000000001
12
-0.1738107515
22
-3.0430757892
32
0.0000000000
13
-0.1572108094
23
-3.0439946475
33
0.0000000000
40
0.0000000000
40
0.0000000000
40
0.0000000000
40
0.0000000000
40
1.0000000000
40
1.0000000000
40
1.0000000000
40
1.0000000000
10
-4.0424741806
20
0.3344776628
30
0.0000000000
10
-4.1004110978
20
-0.6798809336
30
0.0000000000
10
-4.1555922779
20
-1.6944012375
30
0.0000000000
10
-4.2079958811
20
-2.7090661200
30
0.0000000000
11
-4.0424741806
21
0.3344776628
31
0.0000000000
11
-4.2079958811
21
-2.7090661200
31
0.0000000000
0
SPLINE
5
35D
100
AcDbEntity
8
0
100
AcDbSpline
62
9
6
CONTINUOUS
70
0
71
3
72
8
73
4
74
2
42
0.0000001000
43
0.0000001000
44
0.0000000001
12
-0.0644174812
22
-1.2472836238
32
0.0000000000
13
-0.0616148943
23
-1.2474257343
33
0.0000000000
40
0.0000000000
40
0.0000000000
40
0.0000000000
40
0.0000000000
40
1.0000000000
40
1.0000000000
40
1.0000000000
40
1.0000000000
10
-4.2079958811
20
-2.7090661200
30
0.0000000000
10
-4.2294683748
20
-3.1248273279
30
0.0000000000
10
-4.2504745220
20
-3.5406128101
30
0.0000000000
10
-4.2710128201
20
-3.9564213882
30
0.0000000000
11
-4.2079958811
21
-2.7090661200
31
0.0000000000
11
-4.2710128201
21
-3.9564213882
31
0.0000000000
0
SPLINE
5
35E
100
AcDbEntity
8
0
100
AcDbSpline
62
9
6
CONTINUOUS
70
0
71
3
72
8
73
4
74
2
42
0.0000001000
43
0.0000001000
44
0.0000000001
12
-0.0453796832
22
-0.9187354001
32
0.0000000000
13
-0.0438552028
23
-0.9188091565
33
0.0000000000
40
0.0000000000
40
0.0000000000
40
0.0000000000
40
0.0000000000
40
1.0000000000
40
1.0000000000
40
1.0000000000
40
1.0000000000
10
-4.2710128201
20
-3.9564213882
30
0.0000000000
10
-4.2861393812
20
-4.2626665216
30
0.0000000000
10
-4.3010121623
20
-4.5689241831
30
0.0000000000
10
-4.3156305632
20
-4.8751939020
30
0.0000000000
11
-4.2710128201
21
-3.9564213882
31
0.0000000000
11
-4.3156305632
21
-4.8751939020
31
0.0000000000
0
SPLINE
5
35F
100
AcDbEntity
8
0
100
AcDbSpline
62
9
6
CONTINUOUS
70
0
71
3
72
9
73
5
74
3
42
0.0000001000
43
0.0000001000
44
0.0000000001
12
-0.2382700945
22
-4.9919902445
32
0.0000000000
13
-0.1929230220
23
-4.9939435389
33
0.0000000000
40
0.0000000000
40
0.0000000000
40
0.0000000000
40
0.0000000000
40
0.0818781013
40
1.0000000000
40
1.0000000000
40
1.0000000000
40
1.0000000000
10
-4.3156305632
20
-4.8751939020
30
0.0000000000
10
-4.3221335975
20
-5.0114387962
30
0.0000000000
10
-4.4009421425
20
-6.6754646862
30
0.0000000000
10
-4.4722338394
20
-8.3398403108
30
0.0000000000
10
-4.5312761231
20
-9.8681899522
30
0.0000000000
11
-4.3156305632
21
-4.8751939020
31
0.0000000000
11
-4.3349885925
21
-5.2839357015
31
0.0000000000
11
-4.5312761231
21
-9.8681899522
31
0.0000000000
0
SPLINE
5
360
100
AcDbEntity
8
0
100
AcDbSpline
62
9
6
CONTINUOUS
70
0
71
3
72
8
73
4
74
2
42
0.0000001000
43
0.0000001000
44
0.0000000001
12
-0.0327678973
22
-0.8482192909
32
0.0000000000
13
-0.0314497599
23
-0.8482697604
33
0.0000000000
40
0.0000000000
40
0.0000000000
40
0.0000000000
40
0.0000000000
40
1.0000000000
40
1.0000000000
40
1.0000000000
40
1.0000000000
10
-4.5312761231
20
-9.8681899522
30
0.0000000000
10
-4.5421987556
20
-10.1509297158
30
0.0000000000
10
-4.5529019386
20
-10.4336780331
30
0.0000000000
10
-4.5633851919
20
-10.7164346199
30
0.0000000000
11
-4.5312761231
21
-9.8681899522
31
0.0000000000
11
-4.5633851919
21
-10.7164346199
31
0.0000000000
0
SPLINE
5
361
100
AcDbEntity
8
0
100
AcDbSpline
62
9
6
CONTINUOUS
70
0
71
3
72
9
73
5
74
3
42
0.0000001000
43
0.0000001000
44
0.0000000001
12
-0.2124992508
22
-5.7315759827
32
0.0000000000
13
-0.1517953917
23
-5.7334754115
33
0.0000000000
40
0.0000000000
40
0.0000000000
40
0.0000000000
40
0.0000000000
40
0.0282769956
40
1.0000000000
40
1.0000000000
40
1.0000000000
40
1.0000000000
10
-4.5633851919
20
-10.7164346199
30
0.0000000000
10
-4.5653881387
20
-10.7704585361
30
0.0000000000
10
-4.6359373014
20
-12.6809945393
30
0.0000000000
10
-4.6964415709
20
-14.5919056024
30
0.0000000000
10
-4.7456092623
20
-16.4490222533
30
0.0000000000
11
-4.5633851919
21
-10.7164346199
31
0.0000000000
11
-4.5693699437
21
-10.8785072721
31
0.0000000000
11
-4.7456092623
21
-16.4490222533
31
0.0000000000
0
SPLINE
5
362
100
AcDbEntity
8
0
100
AcDbSpline
62
9
6
CONTINUOUS
70
0
71
3
72
12
73
8
74
6
42
0.0000001000
43
0.0000001000
44
0.0000000001
12
-0.6650562860
22
-0.2587728490
32
0.0000000000
13
-0.6381229546
23
0.3194719797
33
0.0000000000
40
0.0000000000
40
0.0000000000
40
0.0000000000
40
0.0000000000
40
0.1833574190
40
0.3901518242
40
0.6057216209
40
0.8139732565
40
1.0000000000
40
1.0000000000
40
1.0000000000
40
1.0000000000
10
-3.3456306535
20
0.2991864061
30
0.0000000000
10
-3.3862783215
20
0.2833704322
30
0.0000000000
10
-3.4768997152
20
0.2602684644
30
0.0000000000
10
-3.6208491809
20
0.2475097390
30
0.0000000000
10
-3.7711798773
20
0.2551579749
30
0.0000000000
10
-3.9140761021
20
0.2825189228
30
0.0000000000
10
-4.0029048686
20
0.3146675523
30
0.0000000000
10
-4.0424741803
20
0.3344776629
30
0.0000000000
11
-3.3456306535
21
0.2991864061
31
0.0000000000
11
-3.4719193362
21
0.2649435946
31
0.0000000000
11
-3.6188383926
21
0.2510552235
31
0.0000000000
11
-3.7724778773
21
0.2588362107
31
0.0000000000
11
-3.9182915706
21
0.2875498707
31
0.0000000000
11
-4.0424741803
21
0.3344776629
31
0.0000000000
0
SPLINE
5
363
100
AcDbEntity
8
0
100
AcDbSpline
62
9
6
CONTINUOUS
70
0
71
3
72
10
73
6
74
4
42
0.0000001000
43
0.0000001000
44
0.0000000001
12
-0.2632446052
22
-9.9433103873
32
0.0000000000
13
0.8477025428
23
-9.9106064183
33
0.0000000000
40
0.0000000000
40
0.0000000000
40
0.0000000000
40
0.0000000000
40
0.3392247397
40
0.6726173338
40
1.0000000000
40
1.0000000000
40
1.0000000000
40
1.0000000000
10
-4.0480626000
20
-16.4675300101
30
0.0000000000
10
-4.0778289609
20
-17.5918689694
30
0.0000000000
10
-4.0977852420
20
-19.8224837725
30
0.0000000000
10
-4.0062372894
20
-23.1375053499
30
0.0000000000
10
-3.8628210011
20
-25.3243272032
30
0.0000000000
10
-3.7703132949
20
-26.4058474543
30
0.0000000000
11
-4.0480626000
21
-16.4675300101
31
0.0000000000
11
-4.0772200125
21
-19.8416027762
31
0.0000000000
11
-3.9845773549
21
-23.1564960612
31
0.0000000000
11
-3.7703132949
21
-26.4058474543
31
0.0000000000
0
SPLINE
5
364
100
AcDbEntity
8
0
100
AcDbSpline
62
9
6
CONTINUOUS
70
0
71
3
72
8
73
4
74
2
42
0.0000001000
43
0.0000001000
44
0.0000000001
12
-0.0022577209
22
-0.0852711430
32
0.0000000000
13
-0.0021825528
23
-0.0852735385
33
0.0000000000
40
0.0000000000
40
0.0000000000
40
0.0000000000
40
0.0000000000
40
1.0000000000
40
1.0000000000
40
1.0000000000
40
1.0000000000
10
-4.7456092623
20
-16.4490222533
30
0.0000000000
10
-4.7463618359
20
-16.4774459676
30
0.0000000000
10
-4.7471018898
20
-16.5058700881
30
0.0000000000
10
-4.7478294074
20
-16.5342946009
30
0.0000000000
11
-4.7456092623
21
-16.4490222533
31
0.0000000000
11
-4.7478294074
21
-16.5342946009
31
0.0000000000
0
SPLINE
5
365
100
AcDbEntity
8
0
100
AcDbSpline
62
9
6
CONTINUOUS
70
0
71
3
72
10
73
6
74
4
42
0.0000001000
43
0.0000001000
44
0.0000000001
12
-0.2537412867
22
-9.9138118444
32
0.0000000000
13
0.8449933527
23
-9.8809425414
33
0.0000000000
40
0.0000000000
40
0.0000000000
40
0.0000000000
40
0.0000000000
40
0.3335433836
40
0.6697987417
40
1.0000000000
40
1.0000000000
40
1.0000000000
40
1.0000000000
10
-4.7478294074
20
-16.5342946009
30
0.0000000000
10
-4.7760406498
20
-17.6365233833
30
0.0000000000
10
-4.7948379167
20
-19.8511277556
30
0.0000000000
10
-4.7035973458
20
-23.1562227962
30
0.0000000000
10
-4.5594150635
20
-25.3552440594
30
0.0000000000
10
-4.4664091074
20
-26.4428106128
30
0.0000000000
11
-4.7478294074
21
-16.5342946009
31
0.0000000000
11
-4.7749457341
21
-19.8419487178
31
0.0000000000
11
-4.6818209592
21
-23.1752950770
31
0.0000000000
11
-4.4664091074
21
-26.4428106128
31
0.0000000000
0
SPLINE
5
366
100
AcDbEntity
8
0
100
AcDbSpline
62
9
6
CONTINUOUS
70
0
71
3
72
12
73
8
74
6
42
0.0000001000
43
0.0000001000
44
0.0000000001
12
-0.6560374627
22
-0.2851536973
32
0.0000000000
13
-0.6399711515
23
0.3195852137
33
0.0000000000
40
0.0000000000
40
0.0000000000
40
0.0000000000
40
0.0000000000
40
0.1852018938
40
0.3924802172
40
0.6075537014
40
0.8148200167
40
1.0000000000
40
1.0000000000
40
1.0000000000
40
1.0000000000
10
-4.0480626000
20
-16.4675300101
30
0.0000000000
10
-4.0885623935
20
-16.4851336783
30
0.0000000000
10
-4.1790442101
20
-16.5118320506
30
0.0000000000
10
-4.3233522082
20
-16.5291554835
30
0.0000000000
10
-4.4739972211
20
-16.5251587737
30
0.0000000000
10
-4.6171755313
20
-16.5002082137
30
0.0000000000
10
-4.7061059645
20
-16.4687491744
30
0.0000000000
10
-4.7456092469
20
-16.4490222462
30
0.0000000000
11
-4.0480626000
21
-16.4675300101
31
0.0000000000
11
-4.1745651330
21
-16.5068773206
31
0.0000000000
11
-4.3216777902
21
-16.5253869094
31
0.0000000000
11
-4.4754722974
21
-16.5213063330
31
0.0000000000
11
-4.6213877585
21
-16.4950219305
31
0.0000000000
11
-4.7456092469
21
-16.4490222462
31
0.0000000000
0
SPLINE
5
367
100
AcDbEntity
8
0
100
AcDbSpline
62
9
6
CONTINUOUS
70
0
71
3
72
13
73
9
74
7
42
0.0000001000
43
0.0000001000
44
0.0000000001
12
0.0413319742
22
-0.4818075604
32
0.0000000000
13
0.4519912549
23
0.1719033531
33
0.0000000000
40
0.0000000000
40
0.0000000000
40
0.0000000000
40
0.0000000000
40
0.1887024343
40
0.3587681087
40
0.5144159248
40
0.6658306611
40
0.8250529060
40
1.0000000000
40
1.0000000000
40
1.0000000000
40
1.0000000000
10
-3.7703132949
20
-26.4058474543
30
0.0000000000
10
-3.7677134802
20
-26.4361535408
30
0.0000000000
10
-3.7570841986
20
-26.4935986475
30
0.0000000000
10
-3.7210864788
20
-26.5695739815
30
0.0000000000
10
-3.6664036600
20
-26.6259944752
30
0.0000000000
10
-3.5961290580
20
-26.6574544902
30
0.0000000000
10
-3.5165016205
20
-26.6617260093
30
0.0000000000
10
-3.4635918402
20
-26.6481691814
30
0.0000000000
10
-3.4372336547
20
-26.6381445174
30
0.0000000000
11
-3.7703132949
21
-26.4058474543
31
0.0000000000
11
-3.7525271405
21
-26.4953494875
31
0.0000000000
11
-3.7161145111
21
-26.5690890105
31
0.0000000000
11
-3.6630700621
21
-26.6224886091
31
0.0000000000
11
-3.5963262779
21
-26.6525973969
31
0.0000000000
11
-3.5195089046
21
-26.6578425821
31
0.0000000000
11
-3.4372336547
21
-26.6381445174
31
0.0000000000
0
SPLINE
5
368
100
AcDbEntity
8
0
100
AcDbSpline
62
9
6
CONTINUOUS
70
0
71
3
72
11
73
7
74
5
42
0.0000001000
43
0.0000001000
44
0.0000000001
12
0.0461107338
22
-0.5484629363
32
0.0000000000
13
0.4949894887
23
-0.2482614581
33
0.0000000000
40
0.0000000000
40
0.0000000000
40
0.0000000000
40
0.0000000000
40
0.3321880622
40
0.6286164527
40
0.8985808426
40
1.0000000000
40
1.0000000000
40
1.0000000000
40
1.0000000000
10
-4.4664091074
20
-26.4428106128
30
0.0000000000
10
-4.4613032956
20
-26.5035415595
30
0.0000000000
10
-4.4403812969
20
-26.6181427722
30
0.0000000000
10
-4.3694190761
20
-26.7694512944
30
0.0000000000
10
-4.2826599334
20
-26.8597035016
30
0.0000000000
10
-4.2236038429
20
-26.8948038835
30
0.0000000000
10
-4.2068700373
20
-26.9031967061
30
0.0000000000
11
-4.4664091074
21
-26.4428106128
31
0.0000000000
11
-4.4311707909
21
-26.6222182933
31
0.0000000000
11
-4.3594257439
21
-26.7687506400
31
0.0000000000
11
-4.2550524908
21
-26.8745077398
31
0.0000000000
11
-4.2068700373
21
-26.9031967061
31
0.0000000000
0
SPLINE
5
369
100
AcDbEntity
8
0
100
AcDbSpline
62
9
6
CONTINUOUS
70
0
71
3
72
12
73
8
74
6
42
0.0000001000
43
0.0000001000
44
0.0000000001
12
-0.6204237968
22
-0.3662888831
32
0.0000000000
13
-0.6455405033
23
0.3199542032
33
0.0000000000
40
0.0000000000
40
0.0000000000
40
0.0000000000
40
0.0000000000
40
0.1915819156
40
0.4005468173
40
0.6138672105
40
0.8176836083
40
1.0000000000
40
1.0000000000
40
1.0000000000
40
1.0000000000
10
-3.7703132949
20
-26.4058474542
30
0.0000000000
10
-3.8099339548
20
-26.4292388962
30
0.0000000000
10
-3.8990633057
20
-26.4676931444
30
0.0000000000
10
-4.0435168829
20
-26.5002464870
30
0.0000000000
10
-4.1944193994
20
-26.5084103340
30
0.0000000000
10
-4.3380678029
20
-26.4914674927
30
0.0000000000
10
-4.4271660574
20
-26.4622473734
30
0.0000000000
10
-4.4663969291
20
-26.4428030748
30
0.0000000000
11
-3.7703132949
21
-26.4058474542
31
0.0000000000
11
-3.8963679983
21
-26.4620863903
31
0.0000000000
11
-4.0430815617
21
-26.4958802775
31
0.0000000000
11
-4.1965587601
21
-26.5040285005
31
0.0000000000
11
-4.3422637848
21
-26.4857593422
31
0.0000000000
11
-4.4663969291
21
-26.4428030748
31
0.0000000000
0
SPLINE
5
36A
100
AcDbEntity
8
0
100
AcDbSpline
62
9
6
CONTINUOUS
70
0
71
3
72
11
73
7
74
5
42
0.0000001000
43
0.0000001000
44
0.0000000001
12
-0.0218115108
22
-0.3472833115
32
0.0000000000
13
-0.3271232154
23
-0.1242861548
33
0.0000000000
40
0.0000000000
40
0.0000000000
40
0.0000000000
40
0.0000000000
40
0.3771689400
40
0.7036547314
40
0.9939052915
40
1.0000000000
40
1.0000000000
40
1.0000000000
40
1.0000000000
10
-3.4372336547
20
-26.6381445174
30
0.0000000000
10
-3.4399758629
20
-26.6818060102
30
0.0000000000
10
-3.4544960940
20
-26.7632927039
30
0.0000000000
10
-3.5102265892
20
-26.8672287949
30
0.0000000000
10
-3.5707055211
20
-26.9120046915
30
0.0000000000
10
-3.6029499555
20
-26.9244632686
30
0.0000000000
10
-3.6036145291
20
-26.9247157645
30
0.0000000000
11
-3.4372336547
21
-26.6381445174
31
0.0000000000
11
-3.4627061455
21
-26.7668914132
31
0.0000000000
11
-3.5193499342
21
-26.8653693893
31
0.0000000000
11
-3.6016251289
21
-26.9239470748
31
0.0000000000
11
-3.6036145291
21
-26.9247157645
31
0.0000000000
0
SPLINE
5
36B
100
AcDbEntity
8
0
100
AcDbSpline
62
9
6
CONTINUOUS
70
0
71
3
72
12
73
8
74
6
42
0.0000001000
43
0.0000001000
44
0.0000000001
12
0.1683178668
22
1.1056215919
32
0.0000000000
13
0.8869823998
23
0.6854194932
33
0.0000000000
40
0.0000000000
40
0.0000000000
40
0.0000000000
40
0.0000000000
40
0.1991322233
40
0.4055752390
40
0.6123723467
40
0.8125701937
40
1.0000000000
40
1.0000000000
40
1.0000000000
40
1.0000000000
10
-17.5861441675
20
18.2558457104
30
0.0000000000
10
-17.5749716638
20
18.3292340056
30
0.0000000000
10
-17.5398196306
20
18.4770011858
30
0.0000000000
10
-17.4554358844
20
18.6898674923
30
0.0000000000
10
-17.3422708902
20
18.8894486400
30
0.0000000000
10
-17.2061336596
20
19.0653571405
30
0.0000000000
10
-17.1004722897
20
19.1648327517
30
0.0000000000
10
-17.0450566432
20
19.2076554326
30
0.0000000000
11
-17.5861441675
21
18.2558457104
31
0.0000000000
11
-17.5354546074
21
18.4727018124
31
0.0000000000
11
-17.4506705739
21
18.6874485890
31
0.0000000000
11
-17.3363727186
21
18.8885046106
31
0.0000000000
11
-17.1987054192
21
19.0650717233
31
0.0000000000
11
-17.0450566432
21
19.2076554326
31
0.0000000000
0
SPLINE
5
36C
100
AcDbEntity
8
0
100
AcDbSpline
62
9
6
CONTINUOUS
70
0
71
3
72
8
73
4
74
2
42
0.0000001000
43
0.0000001000
44
0.0000000001
12
0.1509182284
22
0.1166227150
32
0.0000000000
13
0.1714846041
23
0.0824746418
33
0.0000000000
40
0.0000000000
40
0.0000000000
40
0.0000000000
40
0.0000000000
40
1.0000000000
40
1.0000000000
40
1.0000000000
40
1.0000000000
10
-17.0450566432
20
19.2076554326
30
0.0000000000
10
-16.9947505671
20
19.2465296709
30
0.0000000000
10
-16.9408801681
20
19.2810553249
30
0.0000000000
10
-16.8837186334
20
19.3085468721
30
0.0000000000
11
-17.0450566432
21
19.2076554326
31
0.0000000000
11
-16.8837186334
21
19.3085468721
31
0.0000000000
0
SPLINE
5
36D
100
AcDbEntity
8
0
100
AcDbSpline
62
9
6
CONTINUOUS
70
0
71
3
72
10
73
6
74
4
42
0.0000001000
43
0.0000001000
44
0.0000000001
12
0.5991532346
22
10.6410635666
32
0.0000000000
13
1.5872437435
23
10.5390642719
33
0.0000000000
40
0.0000000000
40
0.0000000000
40
0.0000000000
40
0.0000000000
40
0.3283568784
40
0.6617914852
40
1.0000000000
40
1.0000000000
40
1.0000000000
40
1.0000000000
10
-18.6911346658
20
7.6588079054
30
0.0000000000
10
-18.6255559706
20
8.8234967106
30
0.0000000000
10
-18.4548998505
20
11.1688853939
30
0.0000000000
10
-18.0855874980
20
14.7027916602
30
0.0000000000
10
-17.7650839505
20
17.0677119522
30
0.0000000000
10
-17.5861441675
20
18.2558457104
30
0.0000000000
11
-18.6911346658
21
7.6588079054
31
0.0000000000
11
-18.4380531831
21
11.1492455523
31
0.0000000000
11
-18.0694927912
21
14.6838006984
31
0.0000000000
11
-17.5861441675
21
18.2558457104
31
0.0000000000
0
SPLINE
5
36E
100
AcDbEntity
8
0
100
AcDbSpline
62
9
6
CONTINUOUS
70
0
71
3
72
10
73
6
74
4
42
0.0000001000
43
0.0000001000
44
0.0000000001
12
0.4582208616
22
16.7924934133
32
0.0000000000
13
0.9443362896
23
16.7721802508
33
0.0000000000
40
0.0000000000
40
0.0000000000
40
0.0000000000
40
0.0000000000
40
0.3316863173
40
0.6650135613
40
1.0000000000
40
1.0000000000
40
1.0000000000
40
1.0000000000
10
-19.3942697475
20
-9.1246920107
30
0.0000000000
10
-19.3436078841
20
-7.2680785777
30
0.0000000000
10
-19.2237469932
20
-3.5461396828
30
0.0000000000
10
-18.9892244156
20
2.0486066668
30
0.0000000000
10
-18.7965812827
20
5.7859902616
30
0.0000000000
10
-18.6911346658
20
7.6588079054
30
0.0000000000
11
-19.3942697475
21
-9.1246920107
31
0.0000000000
11
-19.2150622834
21
-3.5556611023
31
0.0000000000
11
-18.9806809318
21
2.0389104682
31
0.0000000000
11
-18.6911346658
21
7.6588079054
31
0.0000000000
0
SPLINE
5
36F
100
AcDbEntity
8
0
100
AcDbSpline
62
9
6
CONTINUOUS
70
0
71
3
72
10
73
6
74
4
42
0.0000001000
43
0.0000001000
44
0.0000000001
12
-0.7880636283
22
9.9517186716
32
0.0000000000
13
0.2722837118
23
9.9791588012
33
0.0000000000
40
0.0000000000
40
0.0000000000
40
0.0000000000
40
0.0000000000
40
0.3269966884
40
0.6603991881
40
1.0000000000
40
1.0000000000
40
1.0000000000
40
1.0000000000
10
-19.1511639982
20
-19.1004331674
30
0.0000000000
10
-19.2370620638
20
-18.0157068175
30
0.0000000000
10
-19.3690458926
20
-15.8215161413
30
0.0000000000
10
-19.4490158411
20
-12.4942297395
30
0.0000000000
10
-19.4250923373
20
-10.2543354877
30
0.0000000000
10
-19.3942697475
20
-9.1246920107
30
0.0000000000
11
-19.1511639982
21
-19.1004331674
31
0.0000000000
11
-19.3483548437
21
-15.8420281347
31
0.0000000000
11
-19.4294406340
21
-12.5147012679
31
0.0000000000
11
-19.3942697475
21
-9.1246920107
31
0.0000000000
0
SPLINE
5
370
100
AcDbEntity
8
0
100
AcDbSpline
62
9
6
CONTINUOUS
70
0
71
3
72
10
73
6
74
4
42
0.0000001000
43
0.0000001000
44
0.0000000001
12
-0.0256062808
22
-0.2293776394
32
0.0000000000
13
0.2052350238
23
-0.1015016490
33
0.0000000000
40
0.0000000000
40
0.0000000000
40
0.0000000000
40
0.0000000000
40
0.1888962147
40
0.5295993773
40
1.0000000000
40
1.0000000000
40
1.0000000000
40
1.0000000000
10
-17.7336135074
20
18.4167676808
30
0.0000000000
10
-17.7352258172
20
18.4023248248
30
0.0000000000
10
-17.7277994913
20
18.3590974232
30
0.0000000000
10
-17.6712137034
20
18.3036729215
30
0.0000000000
10
-17.6183084529
20
18.2717653405
30
0.0000000000
10
-17.5861275586
20
18.2558498609
30
0.0000000000
11
-17.7336135074
21
18.4167676808
31
0.0000000000
11
-17.7270605087
21
18.3732534500
31
0.0000000000
11
-17.6773161844
21
18.3131634421
31
0.0000000000
11
-17.5861275586
21
18.2558498609
31
0.0000000000
0
SPLINE
5
371
100
AcDbEntity
8
0
100
AcDbSpline
62
9
6
CONTINUOUS
70
0
71
3
72
10
73
6
74
4
42
0.0000001000
43
0.0000001000
44
0.0000000001
12
0.2139830632
22
0.1067783777
32
0.0000000000
13
0.2143980557
23
-0.1019070784
33
0.0000000000
40
0.0000000000
40
0.0000000000
40
0.0000000000
40
0.0000000000
40
0.0721939466
40
0.5075357969
40
1.0000000000
40
1.0000000000
40
1.0000000000
40
1.0000000000
10
-17.1143294395
20
19.3193223188
30
0.0000000000
10
-17.1091800122
20
19.3218919030
30
0.0000000000
10
-17.0722474985
20
19.3384075852
30
0.0000000000
10
-16.9906759855
20
19.3478303393
30
0.0000000000
10
-16.9189130893
20
19.3252754015
30
0.0000000000
10
-16.8837186334
20
19.3085468721
30
0.0000000000
11
-17.1143294395
21
19.3193223188
31
0.0000000000
11
-17.0985827500
21
19.3263530139
31
0.0000000000
11
-16.9961985077
21
19.3404015209
31
0.0000000000
11
-16.8837186334
21
19.3085468721
31
0.0000000000
0
SPLINE
5
372
100
AcDbEntity
8
0
100
AcDbSpline
62
7
6
CONTINUOUS
70
0
71
3
72
8
73
4
74
2
42
0.0000001000
43
0.0000001000
44
0.0000000001
12
-0.0155029424
22
0.0485610722
32
0.0000000000
13
-0.0141310614
23
0.0489918522
33
0.0000000000
40
0.0000000000
40
0.0000000000
40
0.0000000000
40
0.0000000000
40
1.0000000000
40
1.0000000000
40
1.0000000000
40
1.0000000000
10
-10.4426604559
20
-16.6679576819
30
0.0000000000
10
-10.4478281033
20
-16.6517706578
30
0.0000000000
10
-10.4527713720
20
-16.6355087177
30
0.0000000000
10
-10.4574817258
20
-16.6191781003
30
0.0000000000
11
-10.4426604559
21
-16.6679576819
31
0.0000000000
11
-10.4574817258
21
-16.6191781003
31
0.0000000000
0
SPLINE
5
373
100
AcDbEntity
8
0
100
AcDbSpline
62
7
6
CONTINUOUS
70
0
71
3
72
8
73
4
74
2
42
0.0000001000
43
0.0000001000
44
0.0000000001
12
0.0139910113
22
0.0348648210
32
0.0000000000
13
0.0158020836
23
0.0340511329
33
0.0000000000
40
0.0000000000
40
0.0000000000
40
0.0000000000
40
0.0000000000
40
1.0000000000
40
1.0000000000
40
1.0000000000
40
1.0000000000
10
-10.4575498061
20
-15.8352133827
30
0.0000000000
10
-10.4528861357
20
-15.8235917757
30
0.0000000000
10
-10.4479265398
20
-15.8120935991
30
0.0000000000
10
-10.4426591786
20
-15.8007432215
30
0.0000000000
11
-10.4575498061
21
-15.8352133827
31
0.0000000000
11
-10.4426591786
21
-15.8007432215
31
0.0000000000
0
SPLINE
5
374
100
AcDbEntity
8
0
100
AcDbSpline
62
9
6
CONTINUOUS
70
0
71
3
72
10
73
6
74
4
42
0.0000001000
43
0.0000001000
44
0.0000000001
12
0.0185379530
22
-0.2416629524
32
0.0000000000
13
0.2135553743
23
-0.1077088882
33
0.0000000000
40
0.0000000000
40
0.0000000000
40
0.0000000000
40
0.0000000000
40
0.1451439151
40
0.5339128645
40
1.0000000000
40
1.0000000000
40
1.0000000000
40
1.0000000000
10
-19.2974063979
20
-18.9224109680
30
0.0000000000
10
-19.2965095075
20
-18.9341029370
30
0.0000000000
10
-19.2886813828
20
-18.9766817821
30
0.0000000000
10
-19.2422079696
20
-19.0454381903
30
0.0000000000
10
-19.1843424436
20
-19.0836992426
30
0.0000000000
10
-19.1511639727
20
-19.1004331516
30
0.0000000000
11
-19.2974063979
21
-18.9224109680
31
0.0000000000
11
-19.2909981648
21
-18.9568192825
31
0.0000000000
11
-19.2420499834
21
-19.0358789507
31
0.0000000000
11
-19.1511639727
21
-19.1004331516
31
0.0000000000
0
SPLINE
5
375
100
AcDbEntity
8
0
100
AcDbSpline
62
9
6
CONTINUOUS
70
0
71
3
72
8
73
4
74
2
42
0.0000001000
43
0.0000001000
44
0.0000000001
12
-0.0183207012
22
0.0091353908
32
0.0000000000
13
-0.0177820381
23
0.0101258538
33
0.0000000000
40
0.0000000000
40
0.0000000000
40
0.0000000000
40
0.0000000000
40
1.0000000000
40
1.0000000000
40
1.0000000000
40
1.0000000000
10
-18.8982067359
20
-19.5575155625
30
0.0000000000
10
-18.9043136362
20
-19.5544704322
30
0.0000000000
10
-18.9103361022
20
-19.5512582324
30
0.0000000000
10
-18.9162634483
20
-19.5478829478
30
0.0000000000
11
-18.8982067359
21
-19.5575155625
31
0.0000000000
11
-18.9162634483
21
-19.5478829478
31
0.0000000000
0
SPLINE
5
376
100
AcDbEntity
8
0
100
AcDbSpline
62
9
6
CONTINUOUS
70
0
71
3
72
11
73
7
74
5
42
0.0000001000
43
0.0000001000
44
0.0000000001
12
-0.4579629084
22
0.2607836880
32
0.0000000000
13
-0.0422258670
23
0.5221226350
33
0.0000000000
40
0.0000000000
40
0.0000000000
40
0.0000000000
40
0.0000000000
40
0.0665617733
40
0.3444319718
40
0.6524262747
40
1.0000000000
40
1.0000000000
40
1.0000000000
40
1.0000000000
10
-18.9162634483
20
-19.5478829478
30
0.0000000000
10
-18.9264243894
20
-19.5420968729
30
0.0000000000
10
-18.9775569813
20
-19.5096761959
30
0.0000000000
10
-19.0575049061
20
-19.4249749348
30
0.0000000000
10
-19.1261716042
20
-19.2747400040
30
0.0000000000
10
-19.1462717976
20
-19.1609252038
30
0.0000000000
10
-19.1511639982
20
-19.1004331674
30
0.0000000000
11
-18.9162634483
21
-19.5478829478
31
0.0000000000
11
-18.9458538703
21
-19.5291070500
31
0.0000000000
11
-19.0473588783
21
-19.4247840728
31
0.0000000000
11
-19.1170520419
21
-19.2792776678
31
0.0000000000
11
-19.1511639982
21
-19.1004331674
31
0.0000000000
0
SPLINE
5
377
100
AcDbEntity
8
0
100
AcDbSpline
62
7
6
CONTINUOUS
70
0
71
3
72
8
73
4
74
2
42
0.0000001000
43
0.0000001000
44
0.0000000001
12
-0.0155029456
22
0.0485610729
32
0.0000000000
13
-0.0141310644
23
0.0489918531
33
0.0000000000
40
0.0000000000
40
0.0000000000
40
0.0000000000
40
0.0000000000
40
1.0000000000
40
1.0000000000
40
1.0000000000
40
1.0000000000
10
-12.6346914040
20
-15.5719422078
30
0.0000000000
10
-12.6398590526
20
-15.5557551835
30
0.0000000000
10
-12.6448023223
20
-15.5394932432
30
0.0000000000
10
-12.6495126771
20
-15.5231626255
30
0.0000000000
11
-12.6346914040
21
-15.5719422078
31
0.0000000000
11
-12.6495126771
21
-15.5231626255
31
0.0000000000
0
SPLINE
5
378
100
AcDbEntity
8
0
100
AcDbSpline
62
7
6
CONTINUOUS
70
0
71
3
72
8
73
4
74
2
42
0.0000001000
43
0.0000001000
44
0.0000000001
12
0.0139910142
22
0.0348648189
32
0.0000000000
13
0.0158020869
23
0.0340511304
33
0.0000000000
40
0.0000000000
40
0.0000000000
40
0.0000000000
40
0.0000000000
40
1.0000000000
40
1.0000000000
40
1.0000000000
40
1.0000000000
10
-12.6495807574
20
-14.7391979064
30
0.0000000000
10
-12.6449170860
20
-14.7275763001
30
0.0000000000
10
-12.6399574891
20
-14.7160781242
30
0.0000000000
10
-12.6346901268
20
-14.7047277475
30
0.0000000000
11
-12.6495807574
21
-14.7391979064
31
0.0000000000
11
-12.6346901268
21
-14.7047277475
31
0.0000000000
0
SPLINE
5
379
100
AcDbEntity
8
0
100
AcDbSpline
62
9
6
CONTINUOUS
70
0
71
3
72
10
73
6
74
4
42
0.0000001000
43
0.0000001000
44
0.0000000001
12
-0.0049960233
22
-0.2432817767
32
0.0000000000
13
0.2138021170
23
-0.1070348165
33
0.0000000000
40
0.0000000000
40
0.0000000000
40
0.0000000000
40
0.0000000000
40
0.1812433160
40
0.5414751297
40
1.0000000000
40
1.0000000000
40
1.0000000000
40
1.0000000000
10
-19.5402606245
20
-8.9488265749
30
0.0000000000
10
-19.5405624564
20
-8.9635243068
30
0.0000000000
10
-19.5339155081
20
-9.0077963000
30
0.0000000000
10
-19.4826521277
20
-9.0731878636
30
0.0000000000
10
-19.4269476096
20
-9.1083326353
30
0.0000000000
10
-19.3942697470
20
-9.1246920104
30
0.0000000000
11
-19.5402606245
21
-8.9488265749
31
0.0000000000
11
-19.5337474731
21
-8.9921687559
31
0.0000000000
11
-19.4850327039
21
-9.0631994710
31
0.0000000000
11
-19.3942697470
21
-9.1246920104
31
0.0000000000
0
SPLINE
5
37A
100
AcDbEntity
8
0
100
AcDbSpline
62
7
6
CONTINUOUS
70
0
71
3
72
8
73
4
74
2
42
0.0000001000
43
0.0000001000
44
0.0000000001
12
-0.0155029424
22
0.0485610722
32
0.0000000000
13
-0.0141310614
23
0.0489918522
33
0.0000000000
40
0.0000000000
40
0.0000000000
40
0.0000000000
40
0.0000000000
40
1.0000000000
40
1.0000000000
40
1.0000000000
40
1.0000000000
10
-14.6499458308
20
-14.5643149944
30
0.0000000000
10
-14.6551134783
20
-14.5481279704
30
0.0000000000
10
-14.6600567470
20
-14.5318660303
30
0.0000000000
10
-14.6647671008
20
-14.5155354129
30
0.0000000000
11
-14.6499458308
21
-14.5643149944
31
0.0000000000
11
-14.6647671008
21
-14.5155354129
31
0.0000000000
0
SPLINE
5
37B
100
AcDbEntity
8
0
100
AcDbSpline
62
7
6
CONTINUOUS
70
0
71
3
72
8
73
4
74
2
42
0.0000001000
43
0.0000001000
44
0.0000000001
12
0.0139910113
22
0.0348648210
32
0.0000000000
13
0.0158020836
23
0.0340511329
33
0.0000000000
40
0.0000000000
40
0.0000000000
40
0.0000000000
40
0.0000000000
40
1.0000000000
40
1.0000000000
40
1.0000000000
40
1.0000000000
10
-14.6648351810
20
-13.7315706953
30
0.0000000000
10
-14.6601715106
20
-13.7199490883
30
0.0000000000
10
-14.6552119147
20
-13.7084509117
30
0.0000000000
10
-14.6499445535
20
-13.6971005341
30
0.0000000000
11
-14.6648351810
21
-13.7315706953
31
0.0000000000
11
-14.6499445535
21
-13.6971005341
31
0.0000000000
0
SPLINE
5
37C
100
AcDbEntity
8
0
100
AcDbSpline
62
7
6
CONTINUOUS
70
0
71
3
72
18
73
14
74
12
42
0.0000001000
43
0.0000001000
44
0.0000000001
12
0.8134822567
22
0.3756930640
32
0.0000000000
13
0.8016850218
23
-0.4008397784
33
0.0000000000
40
0.0000000000
40
0.0000000000
40
0.0000000000
40
0.0000000000
40
0.0893849138
40
0.1790408614
40
0.2685268285
40
0.3627312415
40
0.4548475124
40
0.5475230269
40
0.6418820557
40
0.7327666972
40
0.8282674027
40
0.9200880842
40
1.0000000000
40
1.0000000000
40
1.0000000000
40
1.0000000000
10
11.2587393557
20
23.6571849982
30
0.0000000000
10
11.2829770361
20
23.6683787623
30
0.0000000000
10
11.3324471191
20
23.6888642993
30
0.0000000000
10
11.4088490160
20
23.7135360904
30
0.0000000000
10
11.4883891480
20
23.7323345341
30
0.0000000000
10
11.5699434549
20
23.7446398492
30
0.0000000000
10
11.6531857973
20
23.7501630671
30
0.0000000000
10
11.7366473122
20
23.7487810200
30
0.0000000000
10
11.8193386353
20
23.7404523548
30
0.0000000000
10
11.9018752000
20
23.7251434393
30
0.0000000000
10
11.9821274479
20
23.7031983500
30
0.0000000000
10
12.0571654363
20
23.6757328031
30
0.0000000000
10
12.1038796012
20
23.6544305218
30
0.0000000000
10
12.1252343299
20
23.6437532302
30
0.0000000000
11
11.2587393557
21
23.6571849982
31
0.0000000000
11
11.3327388812
21
23.6878274490
31
0.0000000000
11
11.4091874336
21
23.7125148947
31
0.0000000000
11
11.4872213437
21
23.7309569996
31
0.0000000000
11
11.5706880756
21
23.7435508829
31
0.0000000000
11
11.6530474035
21
23.7490156149
31
0.0000000000
11
11.7360775540
21
23.7476405557
31
0.0000000000
11
11.8202019864
21
23.7391676867
31
0.0000000000
11
11.9002731086
21
23.7243159925
31
0.0000000000
11
11.9828156781
21
23.7017445742
31
0.0000000000
11
12.0600783755
21
23.6734648228
31
0.0000000000
11
12.1252343299
21
23.6437532302
31
0.0000000000
0
SPLINE
5
37D
100
AcDbEntity
8
0
100
AcDbSpline
62
7
6
CONTINUOUS
70
0
71
3
72
20
73
16
74
14
42
0.0000001000
43
0.0000001000
44
0.0000000001
12
1.2252731435
22
0.8880436950
32
0.0000000000
13
0.0000031288
23
1.5131802467
33
0.0000000000
40
0.0000000000
40
0.0000000000
40
0.0000000000
40
0.0000000000
40
0.0630693233
40
0.1339828920
40
0.2056263483
40
0.2782020352
40
0.3519136970
40
0.4269570099
40
0.5035547107
40
0.5820106242
40
0.6625621039
40
0.7451653798
40
0.8297982536
40
0.9164330869
40
1.0000000000
40
1.0000000000
40
1.0000000000
40
1.0000000000
10
18.6342992277
20
-12.9810782855
30
0.0000000000
10
18.6600582770
20
-12.9624088471
30
0.0000000000
10
18.7134301960
20
-12.9208475298
30
0.0000000000
10
18.7904831149
20
-12.8512831752
30
0.0000000000
10
18.8653018767
20
-12.7725478209
30
0.0000000000
10
18.9347914668
20
-12.6872447448
30
0.0000000000
10
18.9985838972
20
-12.5955034017
30
0.0000000000
10
19.0562977970
20
-12.4974594804
30
0.0000000000
10
19.1075589043
20
-12.3932188366
30
0.0000000000
10
19.1519741480
20
-12.2828812931
30
0.0000000000
10
19.1890826947
20
-12.1666924082
30
0.0000000000
10
19.2184099432
20
-12.0450940482
30
0.0000000000
10
19.2395354235
20
-11.9186946802
30
0.0000000000
10
19.2518961160
20
-11.7906619372
30
0.0000000000
10
19.2545310897
20
-11.7047879825
30
0.0000000000
10
19.2545311769
20
-11.6626373818
30
0.0000000000
11
18.6342992277
21
-12.9810782855
31
0.0000000000
11
18.7096040388
21
-12.9224463823
31
0.0000000000
11
18.7892591736
21
-12.8505536678
31
0.0000000000
11
18.8639484417
21
-12.7719836706
31
0.0000000000
11
18.9333260773
21
-12.6868585058
31
0.0000000000
11
18.9970269651
21
-12.5953040398
31
0.0000000000
11
19.0546621451
21
-12.4974687477
31
0.0000000000
11
19.1058483531
21
-12.3934822285
31
0.0000000000
11
19.1502270260
21
-12.2833757957
31
0.0000000000
11
19.1873664207
21
-12.1672876469
31
0.0000000000
11
19.2167358816
21
-12.0457982408
31
0.0000000000
11
19.2379172538
21
-11.9195021123
31
0.0000000000
11
19.2505886564
21
-11.7890267658
31
0.0000000000
11
19.2545311769
21
-11.6626373818
31
0.0000000000
0
SPLINE
5
37E
100
AcDbEntity
8
0
100
AcDbSpline
62
7
6
CONTINUOUS
70
0
71
3
72
17
73
13
74
11
42
0.0000001000
43
0.0000001000
44
0.0000000001
12
-0.0000003619
22
1.2787589490
32
0.0000000000
13
-0.6413999662
23
1.1062504870
33
0.0000000000
40
0.0000000000
40
0.0000000000
40
0.0000000000
40
0.0000000000
40
0.0931726255
40
0.1936012838
40
0.2946374052
40
0.3960993816
40
0.4977637442
40
0.5994160614
40
0.7010265346
40
0.8026116490
40
0.9041760118
40
1.0000000000
40
1.0000000000
40
1.0000000000
40
1.0000000000
10
19.2545311790
20
18.6824422962
30
0.0000000000
10
19.2545311677
20
18.7221574058
30
0.0000000000
10
19.2521449109
20
18.8046984570
30
0.0000000000
10
19.2413023975
20
18.9298831313
30
0.0000000000
10
19.2228138563
20
19.0577417176
30
0.0000000000
10
19.1971944313
20
19.1848959700
30
0.0000000000
10
19.1647558182
20
19.3107515436
30
0.0000000000
10
19.1258131000
20
19.4348119698
30
0.0000000000
10
19.0806468284
20
19.5567057880
30
0.0000000000
10
19.0294769828
20
19.6761622990
30
0.0000000000
10
18.9735555306
20
19.7907258356
30
0.0000000000
10
18.9330509091
20
19.8645116559
30
0.0000000000
10
18.9125637415
20
19.8998467672
30
0.0000000000
11
19.2545311790
21
18.6824422962
31
0.0000000000
11
19.2511369297
21
18.8015390307
31
0.0000000000
11
19.2401115507
21
18.9294848830
31
0.0000000000
11
19.2216704762
21
19.0573587938
31
0.0000000000
11
19.1960861727
21
19.1845525758
31
0.0000000000
11
19.1636728549
21
19.3104470210
31
0.0000000000
11
19.1247682247
21
19.4344730661
31
0.0000000000
11
19.0796399434
21
19.5563154275
31
0.0000000000
11
19.0285010908
21
19.6757244520
31
0.0000000000
11
18.9715329129
21
19.7924353381
31
0.0000000000
11
18.9125637415
21
19.8998467672
31
0.0000000000
0
SPLINE
5
37F
100
AcDbEntity
8
0
100
AcDbSpline
62
7
6
CONTINUOUS
70
0
71
3
72
12
73
8
74
6
42
0.0000001000
43
0.0000001000
44
0.0000000001
12
0.0794384856
22
-0.0397300228
32
0.0000000000
13
0.0445479325
23
-0.0768293223
33
0.0000000000
40
0.0000000000
40
0.0000000000
40
0.0000000000
40
0.0000000000
40
0.1689358061
40
0.4446982556
40
0.7179283992
40
0.9949015518
40
1.0000000000
40
1.0000000000
40
1.0000000000
40
1.0000000000
10
18.5857339443
20
20.4135027010
30
0.0000000000
10
18.5902072791
20
20.4112654265
30
0.0000000000
10
18.6017138273
20
20.4048399887
30
0.0000000000
10
18.6188527888
20
20.3921431167
30
0.0000000000
10
18.6358792796
20
20.3744699406
30
0.0000000000
10
18.6452389311
20
20.3608904127
30
0.0000000000
10
18.6494375326
20
20.3536723726
30
0.0000000000
10
18.6495132411
20
20.3535418025
30
0.0000000000
11
18.5857339443
21
20.4135027010
31
0.0000000000
11
18.5988212005
21
20.4061758204
31
0.0000000000
11
18.6184618476
21
20.3915842175
31
0.0000000000
11
18.6352920831
21
20.3741351927
31
0.0000000000
11
18.6492855715
21
20.3539332003
31
0.0000000000
11
18.6495132411
21
20.3535418025
31
0.0000000000
0
SPLINE
5
380
100
AcDbEntity
8
0
100
AcDbSpline
62
7
6
CONTINUOUS
70
0
71
3
72
9
73
5
74
3
42
0.0000001000
43
0.0000001000
44
0.0000000001
12
0.0106959682
22
0.0091088848
32
0.0000000000
13
0.0125651438
23
0.0062858928
33
0.0000000000
40
0.0000000000
40
0.0000000000
40
0.0000000000
40
0.0000000000
40
0.2054428923
40
1.0000000000
40
1.0000000000
40
1.0000000000
40
1.0000000000
10
-2.4071142484
20
20.8545086425
30
0.0000000000
10
-2.4063817782
20
20.8551324277
30
0.0000000000
10
-2.4027420212
20
20.8580811015
30
0.0000000000
10
-2.3987524703
20
20.8605771553
30
0.0000000000
10
-2.3954245622
20
20.8622419889
30
0.0000000000
11
-2.4071142484
21
20.8545086425
31
0.0000000000
11
-2.4048714901
21
20.8563248922
31
0.0000000000
11
-2.3954245622
21
20.8622419889
31
0.0000000000
0
SPLINE
5
381
100
AcDbEntity
8
0
100
AcDbSpline
62
7
6
CONTINUOUS
70
0
71
3
72
24
73
20
74
18
42
0.0000001000
43
0.0000001000
44
0.0000000001
12
-1.1802138618
22
0.4703283964
32
0.0000000000
13
-1.1361660762
23
-0.5680996616
33
0.0000000000
40
0.0000000000
40
0.0000000000
40
0.0000000000
40
0.0000000000
40
0.0282422458
40
0.0868493739
40
0.1464689383
40
0.2070024884
40
0.2683257947
40
0.3302891698
40
0.3927307106
40
0.4554840717
40
0.5183771559
40
0.5812354225
40
0.6438834671
40
0.7061504238
40
0.7678441923
40
0.8287658525
40
0.8887502679
40
0.9476753427
40
1.0000000000
40
1.0000000000
40
1.0000000000
40
1.0000000000
10
-1.0963456896
20
20.9337975045
30
0.0000000000
10
-1.1074563196
20
20.9382252146
30
0.0000000000
10
-1.1418398653
20
20.9513040277
30
0.0000000000
10
-1.2007809477
20
20.9706936337
30
0.0000000000
10
-1.2739267217
20
20.9902901973
30
0.0000000000
10
-1.3491142401
20
21.0062868144
30
0.0000000000
10
-1.4259734868
20
21.0187309081
30
0.0000000000
10
-1.5041319993
20
21.0276511152
30
0.0000000000
10
-1.5832171764
20
21.0330629510
30
0.0000000000
10
-1.6628574390
20
21.0349713700
30
0.0000000000
10
-1.7426809372
20
21.0333719117
30
0.0000000000
10
-1.8223119281
20
21.0282511699
30
0.0000000000
10
-1.9013700779
20
21.0195866094
30
0.0000000000
10
-1.9794570681
20
21.0073473370
30
0.0000000000
10
-2.0561483360
20
20.9914964262
30
0.0000000000
10
-2.1309980819
20
20.9719921523
30
0.0000000000
10
-2.2035589174
20
20.9487800592
30
0.0000000000
10
-2.2712229415
20
20.9226211619
30
0.0000000000
10
-2.3140551033
20
20.9029271855
30
0.0000000000
10
-2.3338716035
20
20.8930186455
30
0.0000000000
11
-1.0963456896
21
20.9337975045
31
0.0000000000
11
-1.1298782839
21
20.9465640669
31
0.0000000000
11
-1.2005702203
21
20.9698985006
31
0.0000000000
11
-1.2737043893
21
20.9895546247
31
0.0000000000
11
-1.3489016556
21
21.0056022556
31
0.0000000000
11
-1.4257882212
21
21.0180876303
31
0.0000000000
11
-1.5039843475
21
21.0270382895
31
0.0000000000
11
-1.5831122758
21
21.0324693986
31
0.0000000000
11
-1.6627994056
21
21.0343860111
31
0.0000000000
11
-1.7426709857
21
21.0327835520
31
0.0000000000
11
-1.8223491114
21
21.0276484516
31
0.0000000000
11
-1.9014495622
21
21.0189580980
31
0.0000000000
11
-1.9795830131
21
21.0066795890
31
0.0000000000
11
-2.0563165205
21
20.9907759076
31
0.0000000000
11
-2.1311852842
21
20.9712086392
31
0.0000000000
11
-2.2037340135
21
20.9479264872
31
0.0000000000
11
-2.2735144719
21
20.9208557284
31
0.0000000000
11
-2.3338716035
21
20.8930186455
31
0.0000000000
0
SPLINE
5
382
100
AcDbEntity
8
0
100
AcDbSpline
62
7
6
CONTINUOUS
70
0
71
3
72
8
73
4
74
2
42
0.0000001000
43
0.0000001000
44
0.0000000001
12
-0.0050308648
22
0.0025152164
32
0.0000000000
13
-0.0052241425
23
0.0020832623
33
0.0000000000
40
0.0000000000
40
0.0000000000
40
0.0000000000
40
0.0000000000
40
1.0000000000
40
1.0000000000
40
1.0000000000
40
1.0000000000
10
-1.0912153425
20
20.9314961728
30
0.0000000000
10
-1.0928922975
20
20.9323345783
30
0.0000000000
10
-1.0946043813
20
20.9331027156
30
0.0000000000
10
-1.0963457622
20
20.9337971364
30
0.0000000000
11
-1.0912153425
21
20.9314961728
31
0.0000000000
11
-1.0963457622
21
20.9337971364
31
0.0000000000
0
SPLINE
5
383
100
AcDbEntity
8
0
100
AcDbSpline
62
7
6
CONTINUOUS
70
0
71
3
72
9
73
5
74
3
42
0.0000001000
43
0.0000001000
44
0.0000000001
12
0.0795225061
22
0.0420674689
32
0.0000000000
13
0.0728595284
23
0.0528107048
33
0.0000000000
40
0.0000000000
40
0.0000000000
40
0.0000000000
40
0.0000000000
40
0.5842404426
40
1.0000000000
40
1.0000000000
40
1.0000000000
40
1.0000000000
10
18.2168229331
20
-13.2759617989
30
0.0000000000
10
18.2323096878
20
-13.2677692933
30
0.0000000000
10
18.2582290087
20
-13.2526045131
30
0.0000000000
10
18.2830061350
20
-13.2356773223
30
0.0000000000
10
18.2931034834
20
-13.2283584705
30
0.0000000000
11
18.2168229331
21
-13.2759617989
31
0.0000000000
11
18.2622060457
21
-13.2494479617
31
0.0000000000
11
18.2931034834
21
-13.2283584705
31
0.0000000000
0
SPLINE
5
384
100
AcDbEntity
8
0
100
AcDbSpline
62
9
6
CONTINUOUS
70
0
71
3
72
25
73
21
74
19
42
0.0000001000
43
0.0000001000
44
0.0000000001
12
0.9805003859
22
0.4902423243
32
0.0000000000
13
1.0206651721
23
-0.3999514344
33
0.0000000000
40
0.0000000000
40
0.0000000000
40
0.0000000000
40
0.0000000000
40
0.0486159936
40
0.0993722266
40
0.1520748349
40
0.2065079021
40
0.2624326998
40
0.3195922882
40
0.3777135757
40
0.4365142592
40
0.4957056498
40
0.5549977874
40
0.6141011718
40
0.6727315420
40
0.7306113606
40
0.7874746053
40
0.8430698023
40
0.8971631016
40
0.9495383397
40
1.0000000000
40
1.0000000000
40
1.0000000000
40
1.0000000000
10
-2.2444248027
20
20.8873403013
30
0.0000000000
10
-2.2285354692
20
20.8952848405
30
0.0000000000
10
-2.1955212753
20
20.9104685886
30
0.0000000000
10
-2.1437463254
20
20.9307250327
30
0.0000000000
10
-2.0889427741
20
20.9488450975
30
0.0000000000
10
-2.0314852166
20
20.9647077137
30
0.0000000000
10
-1.9717587856
20
20.9782113441
30
0.0000000000
10
-1.9101636149
20
20.9892708167
30
0.0000000000
10
-1.8471103465
20
20.9978184510
30
0.0000000000
10
-1.7830175461
20
21.0038041267
30
0.0000000000
10
-1.7183072693
20
21.0071954973
30
0.0000000000
10
-1.6534024791
20
21.0079777457
30
0.0000000000
10
-1.5887236407
20
21.0061532885
30
0.0000000000
10
-1.5246866276
20
21.0017413474
30
0.0000000000
10
-1.4616995942
20
20.9947774187
30
0.0000000000
10
-1.4001604928
20
20.9853126069
30
0.0000000000
10
-1.3404546413
20
20.9734127818
30
0.0000000000
10
-1.2829528307
20
20.9591576682
30
0.0000000000
10
-1.2280150049
20
20.9426415759
30
0.0000000000
10
-1.1926243219
20
20.9299429755
30
0.0000000000
10
-1.1754561688
20
20.9232155710
30
0.0000000000
11
-2.2444248027
21
20.8873403013
31
0.0000000000
11
-2.1960365882
21
20.9096754821
31
0.0000000000
11
-2.1442436839
21
20.9300066550
31
0.0000000000
11
-2.0894066699
21
20.9481932758
31
0.0000000000
11
-2.0318989269
21
20.9641150228
31
0.0000000000
11
-1.9721095822
21
20.9776689427
31
0.0000000000
11
-1.9104406713
21
20.9887695079
31
0.0000000000
11
-1.8473066207
21
20.9973484303
31
0.0000000000
11
-1.7831281046
21
21.0033554619
31
0.0000000000
11
-1.7183300516
21
21.0067581531
31
0.0000000000
11
-1.6533370004
21
21.0075417574
31
0.0000000000
11
-1.5885720753
21
21.0057087914
31
0.0000000000
11
-1.5244526123
21
21.0012786264
31
0.0000000000
11
-1.4613894460
21
20.9942870332
31
0.0000000000
11
-1.3997826987
21
20.9847854648
31
0.0000000000
11
-1.3400197205
21
20.9728402035
31
0.0000000000
11
-1.2824732889
21
20.9585315048
31
0.0000000000
11
-1.2275033997
21
20.9419536823
31
0.0000000000
11
-1.1754561688
21
20.9232155710
31
0.0000000000
0
SPLINE
5
385
100
AcDbEntity
8
0
100
AcDbSpline
62
9
6
CONTINUOUS
70
0
71
3
72
16
73
12
74
10
42
0.0000001000
43
0.0000001000
44
0.0000000001
12
-0.4035520321
22
0.2018036023
32
0.0000000000
13
-0.4066845390
23
-0.1946481669
33
0.0000000000
40
0.0000000000
40
0.0000000000
40
0.0000000000
40
0.0000000000
40
0.0179524839
40
0.1292323758
40
0.2419262945
40
0.3571674186
40
0.4759509126
40
0.5990963966
40
0.7272300812
40
0.8607829722
40
1.0000000000
40
1.0000000000
40
1.0000000000
40
1.0000000000
10
12.1252315369
20
23.6437543728
30
0.0000000000
10
12.1228166165
20
23.6449619981
30
0.0000000000
10
12.1053387253
20
23.6534672453
30
0.0000000000
10
12.0714053858
20
23.6668221649
30
0.0000000000
10
12.0217816634
20
23.6791159920
30
0.0000000000
10
11.9698876821
20
23.6851347603
30
0.0000000000
10
11.9160878035
20
23.6848560461
30
0.0000000000
10
11.8607494157
20
23.6783024751
30
0.0000000000
10
11.8042403115
20
23.6655359766
30
0.0000000000
10
11.7469365279
20
23.6466584089
30
0.0000000000
10
11.7092312517
20
23.6304240717
30
0.0000000000
10
11.6903587808
20
23.6213912919
30
0.0000000000
11
12.1252315369
21
23.6437543728
31
0.0000000000
11
12.1179481710
21
23.6472985700
31
0.0000000000
11
12.0712705090
21
23.6656958101
31
0.0000000000
11
12.0219658652
21
23.6779715800
31
0.0000000000
11
11.9703636015
21
23.6840438761
31
0.0000000000
11
11.9168084284
21
23.6838721344
31
0.0000000000
11
11.8616581020
21
23.6774575022
31
0.0000000000
11
11.8052810343
21
23.6648428301
31
0.0000000000
11
11.7480538319
21
23.6461123861
31
0.0000000000
11
11.6903587808
21
23.6213912919
31
0.0000000000
0
SPLINE
5
386
100
AcDbEntity
8
0
100
AcDbSpline
62
9
6
CONTINUOUS
70
0
71
3
72
18
73
14
74
12
42
0.0000001000
43
0.0000001000
44
0.0000000001
12
0.3421819379
22
0.1701299167
32
0.0000000000
13
0.1978664154
23
-0.3095906505
33
0.0000000000
40
0.0000000000
40
0.0000000000
40
0.0000000000
40
0.0000000000
40
0.1612065774
40
0.3104715131
40
0.4468244645
40
0.5693897844
40
0.6773973839
40
0.7701972756
40
0.8472833076
40
0.9083419999
40
0.9533820448
40
0.9831967870
40
1.0000000000
40
1.0000000000
40
1.0000000000
40
1.0000000000
10
18.5597205091
20
19.7667483802
30
0.0000000000
10
18.5781078354
20
19.7758904007
30
0.0000000000
10
18.6136110272
20
19.7933160078
30
0.0000000000
10
18.6650085541
20
19.8177701833
30
0.0000000000
10
18.7122779358
20
19.8394325150
30
0.0000000000
10
18.7551027766
20
19.8581652118
30
0.0000000000
10
18.7931981231
20
19.8738399889
30
0.0000000000
10
18.8263074067
20
19.8863919464
30
0.0000000000
10
18.8542234940
20
19.8956740567
30
0.0000000000
10
18.8767534752
20
19.9018938800
30
0.0000000000
10
18.8938928138
20
19.9045254225
30
0.0000000000
10
18.9056132121
20
19.9049993576
30
0.0000000000
10
18.9114369069
20
19.9015689374
30
0.0000000000
10
18.9125451707
20
19.8998348982
30
0.0000000000
11
18.5597205091
21
19.7667483802
31
0.0000000000
11
18.6150331639
21
19.7938692763
31
0.0000000000
11
18.6665543228
21
19.8183474517
31
0.0000000000
11
18.7139398173
21
19.8400193890
31
0.0000000000
11
18.7568731054
21
19.8587403163
31
0.0000000000
11
18.7950673868
21
19.8743851754
31
0.0000000000
11
18.8282675183
21
19.8868494563
31
0.0000000000
11
18.8562517183
21
19.8960498960
31
0.0000000000
11
18.8788330485
21
19.9019250340
31
0.0000000000
11
18.8958606623
21
19.9044356238
31
0.0000000000
11
18.9072208129
21
19.9035648942
31
0.0000000000
11
18.9125451707
21
19.8998348982
31
0.0000000000
0
SPLINE
5
387
100
AcDbEntity
8
0
100
AcDbSpline
62
7
6
CONTINUOUS
70
0
71
3
72
18
73
14
74
12
42
0.0000001000
43
0.0000001000
44
0.0000000001
12
0.3459745596
22
0.1680568266
32
0.0000000000
13
0.3443637069
23
-0.1722285845
33
0.0000000000
40
0.0000000000
40
0.0000000000
40
0.0000000000
40
0.0000000000
40
0.1297946914
40
0.2520704309
40
0.3667499221
40
0.4738432021
40
0.5734632031
40
0.6658448809
40
0.7513682582
40
0.8305847233
40
0.9042435825
40
0.9733112212
40
1.0000000000
40
1.0000000000
40
1.0000000000
40
1.0000000000
10
18.2168229331
20
20.3581592158
30
0.0000000000
10
18.2317914868
20
20.3654301771
30
0.0000000000
10
18.2611664011
20
20.3789367664
30
0.0000000000
10
18.3048022510
20
20.3965075679
30
0.0000000000
10
18.3465676840
20
20.4107730353
30
0.0000000000
10
18.3863213317
20
20.4217229187
30
0.0000000000
10
18.4239351047
20
20.4293596358
30
0.0000000000
10
18.4592932974
20
20.4336963748
30
0.0000000000
10
18.4922929727
20
20.4347555245
30
0.0000000000
10
18.5228425023
20
20.4325663239
30
0.0000000000
10
18.5508579133
20
20.4271629584
30
0.0000000000
10
18.5715068583
20
20.4201894807
30
0.0000000000
10
18.5826703953
20
20.4150348912
30
0.0000000000
10
18.5857339443
20
20.4135027010
30
0.0000000000
11
18.2168229331
21
20.3581592158
31
0.0000000000
11
18.2622060457
21
20.3789604994
31
0.0000000000
11
18.3058583807
21
20.3964647746
31
0.0000000000
11
18.3476248650
21
20.4106491470
31
0.0000000000
11
18.3873603885
21
20.4215038606
31
0.0000000000
11
18.4249305045
21
20.4290324166
31
0.0000000000
11
18.4602120463
21
20.4332515271
31
0.0000000000
11
18.4930936270
21
20.4341909030
31
0.0000000000
11
18.5234760021
21
20.4318928839
31
0.0000000000
11
18.5512723062
21
20.4264119244
31
0.0000000000
11
18.5764080666
21
20.4178139839
31
0.0000000000
11
18.5857339443
21
20.4135027010
31
0.0000000000
0
SPLINE
5
388
100
AcDbEntity
8
0
100
AcDbSpline
62
9
6
CONTINUOUS
70
0
71
3
72
19
73
15
74
13
42
0.0000001000
43
0.0000001000
44
0.0000000001
12
0.0043621578
22
1.5071270313
32
0.0000000000
13
-0.7596320570
23
1.3016950699
33
0.0000000000
40
0.0000000000
40
0.0000000000
40
0.0000000000
40
0.0000000000
40
0.0762817009
40
0.1544246992
40
0.2342915930
40
0.3157231579
40
0.3985441601
40
0.4825648517
40
0.5675828668
40
0.6533860756
40
0.7397553920
40
0.8264664344
40
0.9132904740
40
1.0000000000
40
1.0000000000
40
1.0000000000
40
1.0000000000
10
18.9738709847
20
18.3351148056
30
0.0000000000
10
18.9739819023
20
18.3734368767
30
0.0000000000
10
18.9720908543
20
18.4510358234
30
0.0000000000
10
18.9632047372
20
18.5684490971
30
0.0000000000
10
18.9482724793
20
18.6878557929
30
0.0000000000
10
18.9273584283
20
18.8087433048
30
0.0000000000
10
18.9005522559
20
18.9305978534
30
0.0000000000
10
18.8679685554
20
19.0528999260
30
0.0000000000
10
18.8297465351
20
19.1751280558
30
0.0000000000
10
18.7860494038
20
19.2967608677
30
0.0000000000
10
18.7370637270
20
19.4172794657
30
0.0000000000
10
18.6829982447
20
19.5361701575
30
0.0000000000
10
18.6240849205
20
19.6529234880
30
0.0000000000
10
18.5816762876
20
19.7291252593
30
0.0000000000
10
18.5597205091
20
19.7667483802
30
0.0000000000
11
18.9738709847
21
18.3351148056
31
0.0000000000
11
18.9711459266
21
18.4500491999
31
0.0000000000
11
18.9623258135
21
18.5674903783
31
0.0000000000
11
18.9474482969
21
18.6869374818
31
0.0000000000
11
18.9265772200
21
18.8078780282
31
0.0000000000
11
18.8998018928
21
18.9297947496
31
0.0000000000
11
18.8672368219
21
19.0521661955
31
0.0000000000
11
18.8290214763
21
19.1744681883
31
0.0000000000
11
18.7853195739
21
19.2961768504
31
0.0000000000
11
18.7363180461
21
19.4167716228
31
0.0000000000
11
18.6822264312
21
19.5357367160
31
0.0000000000
11
18.6232767982
21
19.6525617040
31
0.0000000000
11
18.5597205091
21
19.7667483802
31
0.0000000000
0
SPLINE
5
389
100
AcDbEntity
8
0
100
AcDbSpline
62
9
6
CONTINUOUS
70
0
71
3
72
17
73
13
74
11
42
0.0000001000
43
0.0000001000
44
0.0000000001
12
0.4163435503
22
0.2155681837
32
0.0000000000
13
-0.0000278342
23
0.4693695292
33
0.0000000000
40
0.0000000000
40
0.0000000000
40
0.0000000000
40
0.0000000000
40
0.1329189116
40
0.2587863602
40
0.3775375991
40
0.4893034249
40
0.5944452287
40
0.6935904860
40
0.7876608200
40
0.8778788512
40
0.9657362157
40
1.0000000000
40
1.0000000000
40
1.0000000000
40
1.0000000000
10
18.9738709847
20
18.3351148056
30
0.0000000000
10
18.9923176285
20
18.3446658350
30
0.0000000000
10
19.0276443795
20
18.3644345255
30
0.0000000000
10
19.0769136315
20
18.3970005032
30
0.0000000000
10
19.1207378417
20
18.4314891375
30
0.0000000000
10
19.1588238695
20
18.4676851426
30
0.0000000000
10
19.1909142956
20
18.5053688565
30
0.0000000000
10
19.2167794771
20
18.5443131645
30
0.0000000000
10
19.2362154797
20
18.5842787542
30
0.0000000000
10
19.2490455076
20
18.6250033567
30
0.0000000000
10
19.2539185822
20
18.6579750989
30
0.0000000000
10
19.2545299579
20
18.6770815040
30
0.0000000000
10
19.2545296400
20
18.6824422961
30
0.0000000000
11
18.9738709847
21
18.3351148056
31
0.0000000000
11
19.0281968190
21
18.3656469399
31
0.0000000000
11
19.0773544576
21
18.3982953232
31
0.0000000000
11
19.1210155205
21
18.4328418598
31
0.0000000000
11
19.1588883458
21
18.4690557738
31
0.0000000000
11
19.1907199375
21
18.5066951512
31
0.0000000000
11
19.2162976562
21
18.5455085557
31
0.0000000000
11
19.2354506391
21
18.5852367081
31
0.0000000000
11
19.2480509416
21
18.6256142189
31
0.0000000000
11
19.2540143919
21
18.6663713606
31
0.0000000000
11
19.2545296400
21
18.6824422961
31
0.0000000000
0
SPLINE
5
38A
100
AcDbEntity
8
0
100
AcDbSpline
62
9
6
CONTINUOUS
70
0
71
3
72
17
73
13
74
11
42
0.0000001000
43
0.0000001000
44
0.0000000001
12
0.4163466417
22
0.2155697843
32
0.0000000000
13
-0.0000136022
23
0.4693687958
33
0.0000000000
40
0.0000000000
40
0.0000000000
40
0.0000000000
40
0.0000000000
40
0.1321832954
40
0.2573957836
40
0.3755722869
40
0.4868383898
40
0.5915444751
40
0.6903002791
40
0.7840025186
40
0.8738424804
40
0.9612766423
40
1.0000000000
40
1.0000000000
40
1.0000000000
40
1.0000000000
10
18.9738709847
20
-12.0099654403
30
0.0000000000
10
18.9922156751
20
-12.0004671988
30
0.0000000000
10
19.0273559596
20
-11.9808110547
30
0.0000000000
10
19.0763891683
20
-11.9484461155
30
0.0000000000
10
19.1200418434
20
-11.9141781831
30
0.0000000000
10
19.1580253257
20
-11.8782189922
30
0.0000000000
10
19.1900860130
20
-11.8407846084
30
0.0000000000
10
19.2159976589
20
-11.8020983530
30
0.0000000000
10
19.2355593780
20
-11.7623951958
30
0.0000000000
10
19.2485967738
20
-11.7219319567
30
0.0000000000
10
19.2538154622
20
-11.6884338832
30
0.0000000000
10
19.2545297401
20
-11.6686958938
30
0.0000000000
10
19.2545295645
20
-11.6626373818
30
0.0000000000
11
18.9738709847
21
-12.0099654403
31
0.0000000000
11
19.0279026226
21
-11.9796128388
31
0.0000000000
11
19.0768264982
21
-11.9471667529
31
0.0000000000
11
19.1203194919
21
-11.9128414741
31
0.0000000000
11
19.1580943525
21
-11.8768637050
31
0.0000000000
11
19.1899015943
21
-11.8394710622
31
0.0000000000
11
19.2155311453
21
-11.8009105070
31
0.0000000000
11
19.2348137341
21
-11.7614367140
31
0.0000000000
11
19.2476220079
21
-11.7213103895
31
0.0000000000
11
19.2538713741
21
-11.6807965493
31
0.0000000000
11
19.2545295645
21
-11.6626373818
31
0.0000000000
0
SPLINE
5
38B
100
AcDbEntity
8
0
100
AcDbSpline
62
9
6
CONTINUOUS
70
0
71
3
72
9
73
5
74
3
42
0.0000001000
43
0.0000001000
44
0.0000000001
12
0.0776818456
22
0.0410006550
32
0.0000000000
13
0.0711550206
23
0.0515703585
33
0.0000000000
40
0.0000000000
40
0.0000000000
40
0.0000000000
40
0.0000000000
40
0.7330140175
40
1.0000000000
40
1.0000000000
40
1.0000000000
40
1.0000000000
10
18.5597205091
20
-13.0274485393
30
0.0000000000
10
18.5787011363
20
-13.0174305210
30
0.0000000000
10
18.6039104988
20
-13.0024170440
30
0.0000000000
10
18.6279555337
20
-12.9856757825
30
0.0000000000
10
18.6342879981
20
-12.9810862616
30
0.0000000000
11
18.5597205091
21
-13.0274485393
31
0.0000000000
11
18.6150331642
21
-12.9944919877
31
0.0000000000
11
18.6342879981
21
-12.9810862616
31
0.0000000000
0
SPLINE
5
38C
100
AcDbEntity
8
0
100
AcDbSpline
62
9
6
CONTINUOUS
70
0
71
3
72
9
73
5
74
3
42
0.0000001000
43
0.0000001000
44
0.0000000001
12
0.0700040723
22
0.0506660517
32
0.0000000000
13
0.0640873174
23
0.0580362931
33
0.0000000000
40
0.0000000000
40
0.0000000000
40
0.0000000000
40
0.0000000000
40
0.9447719108
40
1.0000000000
40
1.0000000000
40
1.0000000000
40
1.0000000000
10
18.5597205091
20
-13.0274485393
30
0.0000000000
10
18.5817664694
20
-13.0114925851
30
0.0000000000
10
18.6042259605
20
-12.9933587102
30
0.0000000000
10
18.6256459377
20
-12.9740761977
30
0.0000000000
10
18.6268257444
20
-12.9730077865
30
0.0000000000
11
18.5597205091
21
-13.0274485393
31
0.0000000000
11
18.6232767982
21
-12.9762025668
31
0.0000000000
11
18.6268257444
21
-12.9730077865
31
0.0000000000
0
SPLINE
5
38D
100
AcDbEntity
8
0
100
AcDbSpline
62
9
6
CONTINUOUS
70
0
71
3
72
18
73
14
74
12
42
0.0000001000
43
0.0000001000
44
0.0000000001
12
0.7811903553
22
0.7074315830
32
0.0000000000
13
-0.0030579481
23
1.0533532118
33
0.0000000000
40
0.0000000000
40
0.0000000000
40
0.0000000000
40
0.0000000000
40
0.0742339255
40
0.1547108263
40
0.2372961330
40
0.3223230385
40
0.4100571006
40
0.5006954653
40
0.5943696140
40
0.6911497917
40
0.7910491659
40
0.8940274298
40
1.0000000000
40
1.0000000000
40
1.0000000000
40
1.0000000000
10
18.6268257444
20
-12.9730077865
30
0.0000000000
10
18.6461560199
20
-12.9555026453
30
0.0000000000
10
18.6846644013
20
-12.9170761383
30
0.0000000000
10
18.7378390963
20
-12.8527622000
30
0.0000000000
10
18.7868826246
20
-12.7806257750
30
0.0000000000
10
18.8305811351
20
-12.7022122565
30
0.0000000000
10
18.8687569075
20
-12.6178641661
30
0.0000000000
10
18.9012566303
20
-12.5279453642
30
0.0000000000
10
18.9279500189
20
-12.4328409339
30
0.0000000000
10
18.9487302999
20
-12.3329563417
30
0.0000000000
10
18.9635143552
20
-12.2287153449
30
0.0000000000
10
18.9722433755
20
-12.1205643912
30
0.0000000000
10
18.9739790042
20
-12.0471742894
30
0.0000000000
10
18.9738709847
20
-12.0099654403
30
0.0000000000
11
18.6268257444
21
-12.9730077865
31
0.0000000000
11
18.6822264312
21
-12.9178199049
31
0.0000000000
11
18.7363180461
21
-12.8525495999
31
0.0000000000
11
18.7853195739
21
-12.7806716841
31
0.0000000000
11
18.8290214763
21
-12.7024936340
31
0.0000000000
11
18.8672368219
21
-12.6183498081
31
0.0000000000
11
18.8998018928
21
-12.5286006118
31
0.0000000000
11
18.9265772200
21
-12.4336305077
31
0.0000000000
11
18.9474482969
21
-12.3338457095
31
0.0000000000
11
18.9623258135
21
-12.2296729491
31
0.0000000000
11
18.9711459266
21
-12.1215591906
31
0.0000000000
11
18.9738709847
21
-12.0099654403
31
0.0000000000
0
SPLINE
5
38E
100
AcDbEntity
8
0
100
AcDbSpline
62
9
6
CONTINUOUS
70
0
71
3
72
13
73
9
74
7
42
0.0000001000
43
0.0000001000
44
0.0000000001
12
0.0831894255
22
0.0416210685
32
0.0000000000
13
0.0830442216
23
-0.0415221109
33
0.0000000000
40
0.0000000000
40
0.0000000000
40
0.0000000000
40
0.0000000000
40
0.0398015084
40
0.2136565539
40
0.3933138876
40
0.5826498345
40
0.7843828888
40
1.0000000000
40
1.0000000000
40
1.0000000000
40
1.0000000000
10
-2.3338672115
20
20.8930200387
30
0.0000000000
10
-2.3327635233
20
20.8935722325
30
0.0000000000
10
-2.3267660034
20
20.8963901945
30
0.0000000000
10
-2.3150710435
20
20.9000845324
30
0.0000000000
10
-2.2982434613
20
20.9017582935
30
0.0000000000
10
-2.2805577167
20
20.9001721965
30
0.0000000000
10
-2.2623232483
20
20.8953960570
30
0.0000000000
10
-2.2503933877
20
20.8903245938
30
0.0000000000
10
-2.2444248027
20
20.8873403013
30
0.0000000000
11
-2.3338672115
21
20.8930200387
31
0.0000000000
11
-2.3305166648
21
20.8945939855
31
0.0000000000
11
-2.3151354758
21
20.8994905606
31
0.0000000000
11
-2.2985444081
21
20.9012156546
31
0.0000000000
11
-2.2810273394
21
20.8997397509
31
0.0000000000
11
-2.2628839917
21
20.8950881027
31
0.0000000000
11
-2.2444248027
21
20.8873403013
31
0.0000000000
0
SPLINE
5
38F
100
AcDbEntity
8
0
100
AcDbSpline
62
7
6
CONTINUOUS
70
0
71
3
72
14
73
10
74
8
42
0.0000001000
43
0.0000001000
44
0.0000000001
12
0.0791351001
22
0.0395884654
32
0.0000000000
13
0.0790056663
23
-0.0395028331
33
0.0000000000
40
0.0000000000
40
0.0000000000
40
0.0000000000
40
0.0000000000
40
0.0108975268
40
0.1508652764
40
0.2976080641
40
0.4542147772
40
0.6228187521
40
0.8046187890
40
1.0000000000
40
1.0000000000
40
1.0000000000
40
1.0000000000
10
-2.3954245622
20
20.8622419889
30
0.0000000000
10
-2.3951371032
20
20.8623857943
30
0.0000000000
10
-2.3911412052
20
20.8643437450
30
0.0000000000
10
-2.3828282629
20
20.8672999421
30
0.0000000000
10
-2.3698432063
20
20.8692230160
30
0.0000000000
10
-2.3558918027
20
20.8688599820
30
0.0000000000
10
-2.3411467880
20
20.8662367995
30
0.0000000000
10
-2.3257837608
20
20.8613982699
30
0.0000000000
10
-2.3156067267
20
20.8568947469
30
0.0000000000
10
-2.3104613191
20
20.8543220431
30
0.0000000000
11
-2.3954245622
21
20.8622419889
31
0.0000000000
11
-2.3945586896
21
20.8626662567
31
0.0000000000
11
-2.3829247044
21
20.8668503188
31
0.0000000000
11
-2.3701129392
21
20.8688176942
31
0.0000000000
11
-2.3562825558
21
20.8685370386
31
0.0000000000
11
-2.3416063133
21
20.8660055971
31
0.0000000000
11
-2.3262682822
21
20.8612492456
31
0.0000000000
11
-2.3104613191
21
20.8543220431
31
0.0000000000
0
SPLINE
5
390
100
AcDbEntity
8
0
100
AcDbSpline
62
7
6
CONTINUOUS
70
0
71
3
72
14
73
10
74
8
42
0.0000001000
43
0.0000001000
44
0.0000000001
12
-0.0767194535
22
0.0305938721
32
0.0000000000
13
-0.0718368564
23
-0.0405369472
33
0.0000000000
40
0.0000000000
40
0.0000000000
40
0.0000000000
40
0.0000000000
40
0.0115072713
40
0.1590396405
40
0.3105108561
40
0.4685864605
40
0.6353469381
40
0.8122195419
40
1.0000000000
40
1.0000000000
40
1.0000000000
40
1.0000000000
10
-1.0963457622
20
20.9337971364
30
0.0000000000
10
-1.0966400394
20
20.9339144871
30
0.0000000000
10
-1.1007187474
20
20.9355072712
30
0.0000000000
10
-1.1089835915
20
20.9378257291
30
0.0000000000
10
-1.1215525538
20
20.9390499060
30
0.0000000000
10
-1.1346724341
20
20.9381727735
30
0.0000000000
10
-1.1481938943
20
20.9352220341
30
0.0000000000
10
-1.1619698678
20
20.9302454246
30
0.0000000000
10
-1.1709595035
20
20.9257528469
30
0.0000000000
10
-1.1754560228
20
20.9232154980
30
0.0000000000
11
-1.0963457622
21
20.9337971364
31
0.0000000000
11
-1.0972310756
21
20.9341428562
31
0.0000000000
11
-1.1089429205
21
20.9374477554
31
0.0000000000
11
-1.1213743942
21
20.9386972124
31
0.0000000000
11
-1.1343875029
21
20.9378780027
31
0.0000000000
11
-1.1478382076
21
20.9349996018
31
0.0000000000
11
-1.1615780868
21
20.9300940380
31
0.0000000000
11
-1.1754560228
21
20.9232154980
31
0.0000000000
0
SPLINE
5
391
100
AcDbEntity
8
0
100
AcDbSpline
62
7
6
CONTINUOUS
70
0
71
3
72
8
73
4
74
2
42
0.0000001000
43
0.0000001000
44
0.0000000001
12
0.0000000000
22
0.0832405609
32
0.0000000000
13
-0.0031753040
23
0.0831952348
33
0.0000000000
40
0.0000000000
40
0.0000000000
40
0.0000000000
40
0.0000000000
40
1.0000000000
40
1.0000000000
40
1.0000000000
40
1.0000000000
10
4.3716977631
20
10.9062184778
30
0.0000000000
10
4.3716977631
20
10.9339653314
30
0.0000000000
10
4.3711538093
20
10.9617158883
30
0.0000000000
10
4.3700953746
20
10.9894476332
30
0.0000000000
11
4.3716977631
21
10.9062184778
31
0.0000000000
11
4.3700953746
21
10.9894476332
31
0.0000000000
0
SPLINE
5
392
100
AcDbEntity
8
0
100
AcDbSpline
62
7
6
CONTINUOUS
70
0
71
3
72
9
73
5
74
3
42
0.0000001000
43
0.0000001000
44
0.0000000001
12
-0.0032315524
22
0.0846689843
32
0.0000000000
13
-0.0063393432
23
0.0844879384
33
0.0000000000
40
0.0000000000
40
0.0000000000
40
0.0000000000
40
0.0000000000
40
0.4975972860
40
1.0000000000
40
1.0000000000
40
1.0000000000
40
1.0000000000
10
4.3700953746
20
10.9894476332
30
0.0000000000
10
4.3695593707
20
11.0034913188
30
0.0000000000
10
4.3682170321
20
11.0317046183
30
0.0000000000
10
4.3663572828
20
11.0598866238
30
0.0000000000
10
4.3652956483
20
11.0740356136
30
0.0000000000
11
4.3700953746
21
10.9894476332
31
0.0000000000
11
4.3680953701
21
11.0315612928
31
0.0000000000
11
4.3652956483
21
11.0740356136
31
0.0000000000
0
SPLINE
5
393
100
AcDbEntity
8
0
100
AcDbSpline
62
7
6
CONTINUOUS
70
0
71
3
72
8
73
4
74
2
42
0.0000001000
43
0.0000001000
44
0.0000000001
12
-0.0047111222
22
0.0627877346
32
0.0000000000
13
-0.0063501217
23
0.0626423030
33
0.0000000000
40
0.0000000000
40
0.0000000000
40
0.0000000000
40
0.0000000000
40
1.0000000000
40
1.0000000000
40
1.0000000000
40
1.0000000000
10
4.3652956483
20
11.0740356136
30
0.0000000000
10
4.3637252743
20
11.0949648585
30
0.0000000000
10
4.3618763811
20
11.1158728220
30
0.0000000000
10
4.3597596739
20
11.1367535897
30
0.0000000000
11
4.3652956483
21
11.0740356136
31
0.0000000000
11
4.3597596739
21
11.1367535897
31
0.0000000000
0
SPLINE
5
394
100
AcDbEntity
8
0
100
AcDbSpline
62
7
6
CONTINUOUS
70
0
71
3
72
8
73
4
74
2
42
0.0000001000
43
0.0000001000
44
0.0000000001
12
0.0064267925
22
0.0569981563
32
0.0000000000
13
0.0046377360
23
0.0571727827
33
0.0000000000
40
0.0000000000
40
0.0000000000
40
0.0000000000
40
0.0000000000
40
1.0000000000
40
1.0000000000
40
1.0000000000
40
1.0000000000
10
4.3597701421
20
-19.9205663912
30
0.0000000000
10
4.3619124062
20
-19.9015670057
30
0.0000000000
10
4.3637498694
20
-19.8825334792
30
0.0000000000
10
4.3652957814
20
-19.8634758850
30
0.0000000000
11
4.3597701421
21
-19.9205663912
31
0.0000000000
11
4.3652957814
21
-19.8634758850
31
0.0000000000
0
SPLINE
5
395
100
AcDbEntity
8
0
100
AcDbSpline
62
7
6
CONTINUOUS
70
0
71
3
72
9
73
5
74
3
42
0.0000001000
43
0.0000001000
44
0.0000000001
12
0.0064629938
22
0.0796740789
32
0.0000000000
13
0.0031695342
23
0.0798743516
33
0.0000000000
40
0.0000000000
40
0.0000000000
40
0.0000000000
40
0.0000000000
40
0.4975517518
40
1.0000000000
40
1.0000000000
40
1.0000000000
40
1.0000000000
10
4.3652957814
20
-19.8634758850
30
0.0000000000
10
4.3663676727
20
-19.8502618925
30
0.0000000000
10
4.3682402899
20
-19.8236806105
30
0.0000000000
10
4.3695645481
20
-19.7970661525
30
0.0000000000
10
4.3700953904
20
-19.7836885765
30
0.0000000000
11
4.3652957814
21
-19.8634758850
31
0.0000000000
11
4.3680953701
21
-19.8238025527
31
0.0000000000
11
4.3700953904
21
-19.7836885765
31
0.0000000000
0
SPLINE
5
396
100
AcDbEntity
8
0
100
AcDbSpline
62
7
6
CONTINUOUS
70
0
71
3
72
8
73
4
74
2
42
0.0000001000
43
0.0000001000
44
0.0000000001
12
0.0032375699
22
0.0815888973
32
0.0000000000
13
0.0000000000
23
0.0816372144
33
0.0000000000
40
0.0000000000
40
0.0000000000
40
0.0000000000
40
0.0000000000
40
1.0000000000
40
1.0000000000
40
1.0000000000
40
1.0000000000
10
4.3700953904
20
-19.7836885765
30
0.0000000000
10
4.3711745804
20
-19.7564922774
30
0.0000000000
10
4.3716977631
20
-19.7292745355
30
0.0000000000
10
4.3716977631
20
-19.7020621307
30
0.0000000000
11
4.3700953904
21
-19.7836885765
31
0.0000000000
11
4.3716977631
21
-19.7020621307
31
0.0000000000
0
SPLINE
5
397
100
AcDbEntity
8
0
100
AcDbSpline
62
9
6
CONTINUOUS
70
0
71
3
72
15
73
11
74
9
42
0.0000001000
43
0.0000001000
44
0.0000000001
12
-0.3945151521
22
0.2041142431
32
0.0000000000
13
-0.4056645176
23
-0.1817600012
33
0.0000000000
40
0.0000000000
40
0.0000000000
40
0.0000000000
40
0.0000000000
40
0.1425078965
40
0.2791099952
40
0.4100698687
40
0.5358503481
40
0.6571232361
40
0.7747667924
40
0.8898452490
40
1.0000000000
40
1.0000000000
40
1.0000000000
40
1.0000000000
10
11.6903587808
20
23.6213912919
30
0.0000000000
10
11.6716182726
20
23.6310872557
30
0.0000000000
10
11.6341251360
20
23.6486089852
30
0.0000000000
10
11.5769615108
20
23.6693237520
30
0.0000000000
10
11.5204370175
20
23.6837675285
30
0.0000000000
10
11.4649354481
20
23.6918239618
30
0.0000000000
10
11.4108335227
20
23.6934184954
30
0.0000000000
10
11.3585091037
20
23.6885177448
30
0.0000000000
10
11.3088550970
20
23.6772531366
30
0.0000000000
10
11.2774982797
20
23.6656165992
30
0.0000000000
10
11.2626029884
20
23.6589426899
30
0.0000000000
11
11.6903587808
21
23.6213912919
31
0.0000000000
11
11.6329629987
21
23.6480875359
31
0.0000000000
11
11.5758748691
21
23.6686467163
31
0.0000000000
11
11.5194842108
21
23.6829284476
31
0.0000000000
11
11.4641760797
21
23.6908352089
31
0.0000000000
11
11.4103281401
21
23.6923130100
31
0.0000000000
11
11.3583080854
21
23.6873517598
31
0.0000000000
11
11.3084711277
21
23.6759853356
31
0.0000000000
11
11.2626029884
21
23.6589426899
31
0.0000000000
0
SPLINE
5
398
100
AcDbEntity
8
0
100
AcDbSpline
62
9
6
CONTINUOUS
70
0
71
3
72
9
73
5
74
3
42
0.0000001000
43
0.0000001000
44
0.0000000001
12
-0.0038736307
22
-0.0017355995
32
0.0000000000
13
-0.0038535210
23
-0.0017798133
33
0.0000000000
40
0.0000000000
40
0.0000000000
40
0.0000000000
40
0.0000000000
40
0.3735012989
40
1.0000000000
40
1.0000000000
40
1.0000000000
40
1.0000000000
10
11.2626029884
20
23.6589426899
30
0.0000000000
10
11.2621207197
20
23.6587266071
30
0.0000000000
10
11.2608307455
20
23.6581453155
30
0.0000000000
10
11.2595441143
20
23.6575566459
30
0.0000000000
10
11.2587393723
20
23.6571849623
30
0.0000000000
11
11.2626029884
21
23.6589426899
31
0.0000000000
11
11.2611575720
21
23.6582913515
31
0.0000000000
11
11.2587393723
21
23.6571849623
31
0.0000000000
0
SPLINE
5
399
100
AcDbEntity
8
0
100
AcDbSpline
62
7
6
CONTINUOUS
70
0
71
3
72
9
73
5
74
3
42
0.0000001000
43
0.0000001000
44
0.0000000001
12
0.0305169333
22
0.0150410226
32
0.0000000000
13
0.0317561143
23
0.0122092091
33
0.0000000000
40
0.0000000000
40
0.0000000000
40
0.0000000000
40
0.0000000000
40
0.5062732526
40
1.0000000000
40
1.0000000000
40
1.0000000000
40
1.0000000000
10
2.8534750622
20
20.9991408209
30
0.0000000000
10
2.8586250313
20
21.0016791101
30
0.0000000000
10
2.8689066156
20
21.0064745218
30
0.0000000000
10
2.8793957208
20
21.0107984769
30
0.0000000000
10
2.8846220018
20
21.0128078146
30
0.0000000000
11
2.8534750622
21
20.9991408209
31
0.0000000000
11
2.8690888038
21
21.0064138472
31
0.0000000000
11
2.8846220018
21
21.0128078146
31
0.0000000000
0
SPLINE
5
39A
100
AcDbEntity
8
0
100
AcDbSpline
62
7
6
CONTINUOUS
70
0
71
3
72
9
73
5
74
3
42
0.0000001000
43
0.0000001000
44
0.0000000001
12
0.0325029986
22
0.0158332403
32
0.0000000000
13
0.0338763334
23
0.0126305366
33
0.0000000000
40
0.0000000000
40
0.0000000000
40
0.0000000000
40
0.0000000000
40
0.5065715547
40
1.0000000000
40
1.0000000000
40
1.0000000000
40
1.0000000000
10
-2.7371581798
20
23.7944574419
30
0.0000000000
10
-2.7316698150
20
23.7971309983
30
0.0000000000
10
-2.7207136438
20
23.8021627950
30
0.0000000000
10
-2.7095273310
20
23.8066614247
30
0.0000000000
10
-2.7039554821
20
23.8087388467
30
0.0000000000
11
-2.7371581798
21
23.7944574419
31
0.0000000000
11
-2.7205105879
21
23.8020921099
31
0.0000000000
11
-2.7039554821
21
23.8087388467
31
0.0000000000
0
SPLINE
5
39B
100
AcDbEntity
8
0
100
AcDbSpline
62
7
6
CONTINUOUS
70
0
71
3
72
8
73
4
74
2
42
0.0000001000
43
0.0000001000
44
0.0000000001
12
0.0000846063
22
-0.0879379547
32
0.0000000000
13
-0.0071894877
23
-0.0875567128
33
0.0000000000
40
0.0000000000
40
0.0000000000
40
0.0000000000
40
0.0000000000
40
1.0000000000
40
1.0000000000
40
1.0000000000
40
1.0000000000
10
8.8909651254
20
-18.6176995973
30
0.0000000000
10
8.8909933275
20
-18.6470122488
30
0.0000000000
10
8.8898809102
20
-18.6763181264
30
0.0000000000
10
8.8874844143
20
-18.7055036973
30
0.0000000000
11
8.8909651254
21
-18.6176995973
31
0.0000000000
11
8.8874844143
21
-18.7055036973
31
0.0000000000
0
SPLINE
5
39C
100
AcDbEntity
8
0
100
AcDbSpline
62
7
6
CONTINUOUS
70
0
71
3
72
10
73
6
74
4
42
0.0000001000
43
0.0000001000
44
0.0000000001
12
0.0002424751
22
-0.0934961080
32
0.0000000000
13
-0.0551807267
23
-0.0749234544
33
0.0000000000
40
0.0000000000
40
0.0000000000
40
0.0000000000
40
0.0000000000
40
0.0618721551
40
0.7495840767
40
1.0000000000
40
1.0000000000
40
1.0000000000
40
1.0000000000
10
8.8909517029
20
18.4098286550
30
0.0000000000
10
8.8909567037
20
18.4079003864
30
0.0000000000
10
8.8904599667
20
18.3845526946
30
0.0000000000
10
8.8805416873
20
18.3540396477
30
0.0000000000
10
8.8647062683
20
18.3295692003
30
0.0000000000
10
8.8601002241
20
18.3233151916
30
0.0000000000
11
8.8909517029
21
18.4098286550
31
0.0000000000
11
8.8908274316
21
18.4040492973
31
0.0000000000
11
8.8726948785
21
18.3429291014
31
0.0000000000
11
8.8601002241
21
18.3233151916
31
0.0000000000
0
SPLINE
5
39D
100
AcDbEntity
8
0
100
AcDbSpline
62
7
6
CONTINUOUS
70
0
71
3
72
9
73
5
74
3
42
0.0000001000
43
0.0000001000
44
0.0000000001
12
-0.0692444214
22
-0.0940189003
32
0.0000000000
13
-0.1004947390
23
-0.0590283429
33
0.0000000000
40
0.0000000000
40
0.0000000000
40
0.0000000000
40
0.0000000000
40
0.4381330463
40
1.0000000000
40
1.0000000000
40
1.0000000000
40
1.0000000000
10
8.8601002241
20
18.3233151916
30
0.0000000000
10
8.8499874677
20
18.3095842625
30
0.0000000000
10
8.8227354021
20
18.2813024065
30
0.0000000000
10
8.7907203668
20
18.2590014132
30
0.0000000000
10
8.7718988092
20
18.2479460548
30
0.0000000000
11
8.8601002241
21
18.3233151916
31
0.0000000000
11
8.8251931043
21
18.2859499209
31
0.0000000000
11
8.7718988092
21
18.2479460548
31
0.0000000000
0
SPLINE
5
39E
100
AcDbEntity
8
0
100
AcDbSpline
62
7
6
CONTINUOUS
70
0
71
3
72
8
73
4
74
2
42
0.0000001000
43
0.0000001000
44
0.0000000001
12
-0.0209549112
22
-0.0123084422
32
0.0000000000
13
-0.0215407941
23
-0.0111530726
33
0.0000000000
40
0.0000000000
40
0.0000000000
40
0.0000000000
40
0.0000000000
40
1.0000000000
40
1.0000000000
40
1.0000000000
40
1.0000000000
10
8.7718988092
20
18.2479460548
30
0.0000000000
10
8.7649138387
20
18.2438432407
30
0.0000000000
10
8.7578140915
20
18.2399435505
30
0.0000000000
10
8.7506338268
20
18.2362258596
30
0.0000000000
11
8.7718988092
21
18.2479460548
31
0.0000000000
11
8.7506338268
21
18.2362258596
31
0.0000000000
0
SPLINE
5
39F
100
AcDbEntity
8
0
100
AcDbSpline
62
7
6
CONTINUOUS
70
0
71
3
72
8
73
4
74
2
42
0.0000001000
43
0.0000001000
44
0.0000000001
12
0.0217592041
22
0.0081127559
32
0.0000000000
13
0.0225782140
23
0.0055931135
33
0.0000000000
40
0.0000000000
40
0.0000000000
40
0.0000000000
40
0.0000000000
40
1.0000000000
40
1.0000000000
40
1.0000000000
40
1.0000000000
10
-2.7039554821
20
23.8087388467
30
0.0000000000
10
-2.6967024141
20
23.8114430987
30
0.0000000000
10
-2.6892805072
20
23.8137195722
30
0.0000000000
10
-2.6817544359
20
23.8155839434
30
0.0000000000
11
-2.7039554821
21
23.8087388467
31
0.0000000000
11
-2.6817544359
21
23.8155839434
31
0.0000000000
0
SPLINE
5
3A0
100
AcDbEntity
8
0
100
AcDbSpline
62
7
6
CONTINUOUS
70
0
71
3
72
10
73
6
74
4
42
0.0000001000
43
0.0000001000
44
0.0000000001
12
0.0734360068
22
0.0181916924
32
0.0000000000
13
0.0754369467
23
-0.0049605799
33
0.0000000000
40
0.0000000000
40
0.0000000000
40
0.0000000000
40
0.0000000000
40
0.1576388969
40
0.6507954607
40
1.0000000000
40
1.0000000000
40
1.0000000000
40
1.0000000000
10
-2.6817544359
20
23.8155839434
30
0.0000000000
10
-2.6778956455
20
23.8165398495
30
0.0000000000
10
-2.6618519900
20
23.8200389548
30
0.0000000000
10
-2.6367107701
20
23.8226337586
30
0.0000000000
10
-2.6154675197
20
23.8222012119
30
0.0000000000
10
-2.6066865449
20
23.8216237929
30
0.0000000000
11
-2.6817544359
21
23.8155839434
31
0.0000000000
11
-2.6701046323
21
23.8181287681
31
0.0000000000
11
-2.6330692713
21
23.8221098698
31
0.0000000000
11
-2.6066865449
21
23.8216237929
31
0.0000000000
0
SPLINE
5
3A1
100
AcDbEntity
8
0
100
AcDbSpline
62
7
6
CONTINUOUS
70
0
71
3
72
11
73
7
74
5
42
0.0000001000
43
0.0000001000
44
0.0000000001
12
0.1613013358
22
-0.0106068471
32
0.0000000000
13
0.1445183657
23
-0.0722583461
33
0.0000000000
40
0.0000000000
40
0.0000000000
40
0.0000000000
40
0.0000000000
40
0.0851906054
40
0.3571798227
40
0.6606841201
40
1.0000000000
40
1.0000000000
40
1.0000000000
40
1.0000000000
10
-2.6066865449
20
23.8216237929
30
0.0000000000
10
-2.6021060921
20
23.8213225917
30
0.0000000000
10
-2.5829306666
20
23.8196055652
30
0.0000000000
10
-2.5478566124
20
23.8131466130
30
0.0000000000
10
-2.5007656402
20
23.7983540811
30
0.0000000000
10
-2.4690462616
20
23.7843561302
30
0.0000000000
10
-2.4527004694
20
23.7761833288
30
0.0000000000
11
-2.6066865449
21
23.8216237929
31
0.0000000000
11
-2.5929712224
21
23.8204025758
31
0.0000000000
11
-2.5497367855
21
23.8126327893
31
0.0000000000
11
-2.5029146230
21
23.7981298608
31
0.0000000000
11
-2.4527004694
21
23.7761833288
31
0.0000000000
0
SPLINE
5
3A2
100
AcDbEntity
8
0
100
AcDbSpline
62
7
6
CONTINUOUS
70
0
71
3
72
8
73
4
74
2
42
0.0000001000
43
0.0000001000
44
0.0000000001
12
0.0217372320
22
0.0083572696
32
0.0000000000
13
0.0225906344
23
0.0058167197
33
0.0000000000
40
0.0000000000
40
0.0000000000
40
0.0000000000
40
0.0000000000
40
1.0000000000
40
1.0000000000
40
1.0000000000
40
1.0000000000
10
2.8846220018
20
21.0128078146
30
0.0000000000
10
2.8918677458
20
21.0155935711
30
0.0000000000
10
2.8992886929
20
21.0179486647
30
0.0000000000
10
2.9068189044
20
21.0198875713
30
0.0000000000
11
2.8846220018
21
21.0128078146
31
0.0000000000
11
2.9068189044
21
21.0198875713
31
0.0000000000
0
SPLINE
5
3A3
100
AcDbEntity
8
0
100
AcDbSpline
62
7
6
CONTINUOUS
70
0
71
3
72
10
73
6
74
4
42
0.0000001000
43
0.0000001000
44
0.0000000001
12
0.0733855668
22
0.0188955859
32
0.0000000000
13
0.0755887724
23
-0.0044968257
33
0.0000000000
40
0.0000000000
40
0.0000000000
40
0.0000000000
40
0.0000000000
40
0.1577440686
40
0.6509544780
40
1.0000000000
40
1.0000000000
40
1.0000000000
40
1.0000000000
10
2.9068189044
20
21.0198875713
30
0.0000000000
10
2.9106776170
20
21.0208811268
30
0.0000000000
10
2.9267195700
20
21.0245302029
30
0.0000000000
10
2.9518817751
20
21.0273279593
30
0.0000000000
10
2.9731596217
20
21.0270367426
30
0.0000000000
10
2.9819542625
20
21.0265135436
30
0.0000000000
11
2.9068189044
21
21.0198875713
31
0.0000000000
11
2.9184722434
21
21.0225423318
31
0.0000000000
11
2.9555383704
21
21.0268234021
31
0.0000000000
11
2.9819542625
21
21.0265135436
31
0.0000000000
0
SPLINE
5
3A4
100
AcDbEntity
8
0
100
AcDbSpline
62
7
6
CONTINUOUS
70
0
71
3
72
12
73
8
74
6
42
0.0000001000
43
0.0000001000
44
0.0000000001
12
0.1631395543
22
-0.0097052792
32
0.0000000000
13
0.1461095463
23
-0.0730404599
33
0.0000000000
40
0.0000000000
40
0.0000000000
40
0.0000000000
40
0.0000000000
40
0.0843255295
40
0.3533849405
40
0.6535453151
40
0.9902877521
40
1.0000000000
40
1.0000000000
40
1.0000000000
40
1.0000000000
10
2.9819542625
20
21.0265135436
30
0.0000000000
10
2.9865398723
20
21.0262407427
30
0.0000000000
10
3.0057303817
20
21.0246389164
30
0.0000000000
10
3.0408413711
20
21.0183626221
30
0.0000000000
10
3.0880533927
20
21.0037527349
30
0.0000000000
10
3.1203581676
20
20.9896229453
30
0.0000000000
10
3.1372434805
20
20.9812113169
30
0.0000000000
10
3.1377164979
20
20.9809748546
30
0.0000000000
11
2.9819542625
21
21.0265135436
31
0.0000000000
11
2.9956867496
21
21.0253742484
31
0.0000000000
11
3.0389655818
21
21.0178317187
31
0.0000000000
11
3.0858424797
21
21.0035327337
31
0.0000000000
11
3.1362964476
21
20.9816822665
31
0.0000000000
11
3.1377164979
21
20.9809748546
31
0.0000000000
0
SPLINE
5
3A5
100
AcDbEntity
8
0
100
AcDbSpline
62
7
6
CONTINUOUS
70
0
71
3
72
17
73
13
74
11
42
0.0000001000
43
0.0000001000
44
0.0000000001
12
0.2633414843
22
-0.1316707422
32
0.0000000000
13
0.0000000000
23
-0.2944247301
33
0.0000000000
40
0.0000000000
40
0.0000000000
40
0.0000000000
40
0.0000000000
40
0.0874874486
40
0.1810702291
40
0.2799098329
40
0.3828096192
40
0.4883428695
40
0.5949243304
40
0.7009123992
40
0.8047106934
40
0.9048294299
40
1.0000000000
40
1.0000000000
40
1.0000000000
40
1.0000000000
10
-5.0681777657
20
20.3944804592
30
0.0000000000
10
-5.0604980742
20
20.3906406134
30
0.0000000000
10
-5.0452205856
20
20.3814227269
30
0.0000000000
10
-5.0237228680
20
20.3642170692
30
0.0000000000
10
-5.0033145295
20
20.3435511603
30
0.0000000000
10
-4.9844880814
20
20.3199264689
30
0.0000000000
10
-4.9676928710
20
20.2939118018
30
0.0000000000
10
-4.9533350871
20
20.2661364902
30
0.0000000000
10
-4.9417619266
20
20.2372733040
30
0.0000000000
10
-4.9332536500
20
20.2080182030
30
0.0000000000
10
-4.9280167099
20
20.1790822114
30
0.0000000000
10
-4.9267564095
20
20.1599019589
30
0.0000000000
10
-4.9267564095
20
20.1505617691
30
0.0000000000
11
-5.0681777657
21
20.3944804592
31
0.0000000000
11
-5.0460549031
21
20.3812866103
31
0.0000000000
11
-5.0244769164
21
20.3641529308
31
0.0000000000
11
-5.0039745606
21
20.3435007796
31
0.0000000000
11
-4.9850534868
21
20.3198395195
31
0.0000000000
11
-4.9681782550
21
20.2937498510
31
0.0000000000
11
-4.9537654430
21
20.2658753299
31
0.0000000000
11
-4.9421705409
21
20.2369039301
31
0.0000000000
11
-4.9336780663
21
20.2075468281
31
0.0000000000
11
-4.9284975596
21
20.1785281902
31
0.0000000000
11
-4.9267564095
21
20.1505617691
31
0.0000000000
0
SPLINE
5
3A6
100
AcDbEntity
8
0
100
AcDbSpline
62
7
6
CONTINUOUS
70
0
71
3
72
9
73
5
74
3
42
0.0000001000
43
0.0000001000
44
0.0000000001
12
0.0143401243
22
0.0059544634
32
0.0000000000
13
0.0137969987
23
0.0071226686
33
0.0000000000
40
0.0000000000
40
0.0000000000
40
0.0000000000
40
0.0000000000
40
0.6223011152
40
1.0000000000
40
1.0000000000
40
1.0000000000
40
1.0000000000
10
2.8159095693
20
-24.3470368594
30
0.0000000000
10
2.8188841944
20
-24.3458017030
30
0.0000000000
10
2.8236132772
20
-24.3436945157
30
0.0000000000
10
2.8282493942
20
-24.3413923367
30
0.0000000000
10
2.8299864312
20
-24.3404955954
30
0.0000000000
11
2.8159095693
21
-24.3470368594
31
0.0000000000
11
2.8247340196
21
-24.3431035808
31
0.0000000000
11
2.8299864312
21
-24.3404955954
31
0.0000000000
0
SPLINE
5
3A7
100
AcDbEntity
8
0
100
AcDbSpline
62
7
6
CONTINUOUS
70
0
71
3
72
13
73
9
74
7
42
0.0000001000
43
0.0000001000
44
0.0000000001
12
-0.2026593183
22
-0.0850944681
32
0.0000000000
13
-0.1962717145
23
0.0981358573
33
0.0000000000
40
0.0000000000
40
0.0000000000
40
0.0000000000
40
0.0000000000
40
0.0554961368
40
0.2265630866
40
0.4040060462
40
0.5908282358
40
0.7891120218
40
1.0000000000
40
1.0000000000
40
1.0000000000
40
1.0000000000
10
1.7364196523
20
-24.7994039742
30
0.0000000000
10
1.7326707159
20
-24.8009781122
30
0.0000000000
10
1.7171584080
20
-24.8069097727
30
0.0000000000
10
1.6882310644
20
-24.8137907708
30
0.0000000000
10
1.6489103262
20
-24.8156507256
30
0.0000000000
10
1.6078936805
20
-24.8106095786
30
0.0000000000
10
1.5657801636
20
-24.7988090380
30
0.0000000000
10
1.5382058565
20
-24.7869389497
30
0.0000000000
10
1.5244087415
20
-24.7800403922
30
0.0000000000
11
1.7364196523
21
-24.7994039742
31
0.0000000000
11
1.7250287102
21
-24.8037596368
31
0.0000000000
11
1.6885322655
21
-24.8125437683
31
0.0000000000
11
1.6496458284
21
-24.8145432373
31
0.0000000000
11
1.6089333947
21
-24.8097299846
31
0.0000000000
11
1.5669850377
21
-24.7981736022
31
0.0000000000
11
1.5244087415
21
-24.7800403922
31
0.0000000000
0
SPLINE
5
3A8
100
AcDbEntity
8
0
100
AcDbSpline
62
7
6
CONTINUOUS
70
0
71
3
72
8
73
4
74
2
42
0.0000001000
43
0.0000001000
44
0.0000000001
12
0.0250204395
22
-0.0125102197
32
0.0000000000
13
0.0235571620
23
-0.0153113225
33
0.0000000000
40
0.0000000000
40
0.0000000000
40
0.0000000000
40
0.0000000000
40
1.0000000000
40
1.0000000000
40
1.0000000000
40
1.0000000000
10
2.7126458472
20
-24.8225729175
30
0.0000000000
10
2.7209859937
20
-24.8267429907
30
0.0000000000
10
2.7291110197
20
-24.8313997572
30
0.0000000000
10
2.7369634070
20
-24.8365035314
30
0.0000000000
11
2.7126458472
21
-24.8225729175
31
0.0000000000
11
2.7369634070
21
-24.8365035314
31
0.0000000000
0
SPLINE
5
3A9
100
AcDbEntity
8
0
100
AcDbSpline
62
7
6
CONTINUOUS
70
0
71
3
72
9
73
5
74
3
42
0.0000001000
43
0.0000001000
44
0.0000000001
12
0.0951206379
22
-0.0618250518
32
0.0000000000
13
0.0584114070
23
-0.0972788578
33
0.0000000000
40
0.0000000000
40
0.0000000000
40
0.0000000000
40
0.0000000000
40
0.4997350877
40
1.0000000000
40
1.0000000000
40
1.0000000000
40
1.0000000000
10
2.7369634070
20
-24.8365035314
30
0.0000000000
10
2.7528084471
20
-24.8468022472
30
0.0000000000
10
2.7822939056
20
-24.8710527524
30
0.0000000000
10
2.8054418229
20
-24.9012857743
30
0.0000000000
10
2.8151822154
20
-24.9175075074
30
0.0000000000
11
2.7369634070
21
-24.8365035314
31
0.0000000000
11
2.7806955766
21
-24.8725339487
31
0.0000000000
11
2.8151822154
21
-24.9175075074
31
0.0000000000
0
SPLINE
5
3AA
100
AcDbEntity
8
0
100
AcDbSpline
62
7
6
CONTINUOUS
70
0
71
3
72
10
73
6
74
4
42
0.0000001000
43
0.0000001000
44
0.0000000001
12
0.0696264401
22
-0.1159564700
32
0.0000000000
13
-0.0002054680
23
-0.1356024627
33
0.0000000000
40
0.0000000000
40
0.0000000000
40
0.0000000000
40
0.0000000000
40
0.2127635003
40
0.8635892585
40
1.0000000000
40
1.0000000000
40
1.0000000000
40
1.0000000000
10
2.8151822154
20
-24.9175075074
30
0.0000000000
10
2.8201202038
20
-24.9257312755
30
0.0000000000
10
2.8382439577
20
-24.9602554485
30
0.0000000000
10
2.8495800602
20
-25.0046183525
30
0.0000000000
10
2.8508389236
20
-25.0402014896
30
0.0000000000
10
2.8508295810
20
-25.0463673671
30
0.0000000000
11
2.8151822154
21
-24.9175075074
31
0.0000000000
11
2.8285446804
21
-24.9429726732
31
0.0000000000
11
2.8501725035
21
-25.0278897300
31
0.0000000000
11
2.8508295810
21
-25.0463673671
31
0.0000000000
0
SPLINE
5
3AB
100
AcDbEntity
8
0
100
AcDbSpline
62
7
6
CONTINUOUS
70
0
71
3
72
9
73
5
74
3
42
0.0000001000
43
0.0000001000
44
0.0000000001
12
0.1084667152
22
0.1320144656
32
0.0000000000
13
-0.0000193479
23
0.1719383266
33
0.0000000000
40
0.0000000000
40
0.0000000000
40
0.0000000000
40
0.0000000000
40
0.5664602204
40
1.0000000000
40
1.0000000000
40
1.0000000000
40
1.0000000000
10
2.7940051637
20
16.0947166254
30
0.0000000000
10
2.8144858568
20
16.1196436065
30
0.0000000000
10
2.8422843438
20
16.1713208333
30
0.0000000000
10
2.8508558293
20
16.2285663544
30
0.0000000000
10
2.8508530333
20
16.2534137225
30
0.0000000000
11
2.7940051637
21
16.0947166254
31
0.0000000000
11
2.8398098249
21
16.1799765317
31
0.0000000000
11
2.8508530333
21
16.2534137225
31
0.0000000000
0
SPLINE
5
3AC
100
AcDbEntity
8
0
100
AcDbSpline
62
7
6
CONTINUOUS
70
0
71
3
72
9
73
5
74
3
42
0.0000001000
43
0.0000001000
44
0.0000000001
12
0.0576847302
22
-0.0289126726
32
0.0000000000
13
0.0630349060
23
-0.0131537199
33
0.0000000000
40
0.0000000000
40
0.0000000000
40
0.0000000000
40
0.0000000000
40
0.2479297770
40
1.0000000000
40
1.0000000000
40
1.0000000000
40
1.0000000000
10
0.3615513189
20
14.9722556798
30
0.0000000000
10
0.3663185730
20
14.9698662423
30
0.0000000000
10
0.3858525427
20
14.9608451615
30
0.0000000000
10
0.4064507577
20
14.9544324824
30
0.0000000000
10
0.4222529829
20
14.9511349754
30
0.0000000000
11
0.3615513189
21
14.9722556798
31
0.0000000000
11
0.3760700968
21
14.9655533895
31
0.0000000000
11
0.4222529829
21
14.9511349754
31
0.0000000000
0
SPLINE
5
3AD
100
AcDbEntity
8
0
100
AcDbSpline
62
7
6
CONTINUOUS
70
0
71
3
72
10
73
6
74
4
42
0.0000001000
43
0.0000001000
44
0.0000000001
12
-0.1460265739
22
0.0729651196
32
0.0000000000
13
-0.0715273406
23
0.1474222641
33
0.0000000000
40
0.0000000000
40
0.0000000000
40
0.0000000000
40
0.0000000000
40
0.4755880065
40
0.9809341392
40
1.0000000000
40
1.0000000000
40
1.0000000000
40
1.0000000000
10
-1.3168780256
20
15.8114563749
30
0.0000000000
10
-1.3400275214
20
15.8230234868
30
0.0000000000
10
-1.3843481826
20
15.8545595140
30
0.0000000000
10
-1.4169474613
20
15.8992743180
30
0.0000000000
10
-1.4296124723
20
15.9249650049
30
0.0000000000
10
-1.4300670490
20
15.9259019157
30
0.0000000000
11
-1.3168780256
21
15.8114563749
31
0.0000000000
11
-1.3801022999
21
15.8565002516
31
0.0000000000
11
-1.4286857015
21
15.9230999136
31
0.0000000000
11
-1.4300670490
21
15.9259019157
31
0.0000000000
0
SPLINE
5
3AE
100
AcDbEntity
8
0
100
AcDbSpline
62
7
6
CONTINUOUS
70
0
71
3
72
8
73
4
74
2
42
0.0000001000
43
0.0000001000
44
0.0000000001
12
-0.0356613752
22
0.0735002957
32
0.0000000000
13
-0.0102277675
23
0.0810665090
33
0.0000000000
40
0.0000000000
40
0.0000000000
40
0.0000000000
40
0.0000000000
40
1.0000000000
40
1.0000000000
40
1.0000000000
40
1.0000000000
10
-1.4300670490
20
15.9259019157
30
0.0000000000
10
-1.4419541741
20
15.9504020143
30
0.0000000000
10
-1.4498200957
20
15.9768739639
30
0.0000000000
10
-1.4532293515
20
16.0038961336
30
0.0000000000
11
-1.4300670490
21
15.9259019157
31
0.0000000000
11
-1.4532293515
21
16.0038961336
31
0.0000000000
0
SPLINE
5
3AF
100
AcDbEntity
8
0
100
AcDbSpline
62
7
6
CONTINUOUS
70
0
71
3
72
8
73
4
74
2
42
0.0000001000
43
0.0000001000
44
0.0000000001
12
-0.0039220517
22
0.0310866507
32
0.0000000000
13
0.0000047161
23
0.0313350284
33
0.0000000000
40
0.0000000000
40
0.0000000000
40
0.0000000000
40
0.0000000000
40
1.0000000000
40
1.0000000000
40
1.0000000000
40
1.0000000000
10
-1.4532293515
20
16.0038961336
30
0.0000000000
10
-1.4545367021
20
16.0142583505
30
0.0000000000
10
-1.4551887001
20
16.0247014772
30
0.0000000000
10
-1.4551871281
20
16.0351464867
30
0.0000000000
11
-1.4532293515
21
16.0038961336
31
0.0000000000
11
-1.4551871281
21
16.0351464867
31
0.0000000000
0
SPLINE
5
3B0
100
AcDbEntity
8
0
100
AcDbSpline
62
7
6
CONTINUOUS
70
0
71
3
72
9
73
5
74
3
42
0.0000001000
43
0.0000001000
44
0.0000000001
12
0.0819691639
22
0.0997643872
32
0.0000000000
13
0.0217273409
23
0.1280739987
33
0.0000000000
40
0.0000000000
40
0.0000000000
40
0.0000000000
40
0.0000000000
40
0.7495755289
40
1.0000000000
40
1.0000000000
40
1.0000000000
40
1.0000000000
10
-9.5096528289
20
22.2465456217
30
0.0000000000
10
-9.4891721358
20
22.2714726028
30
0.0000000000
10
-9.4681645969
20
22.3105254963
30
0.0000000000
10
-9.4581374943
20
22.3527584125
30
0.0000000000
10
-9.4563238083
20
22.3634493669
30
0.0000000000
11
-9.5096528289
21
22.2465456217
31
0.0000000000
11
-9.4638481677
21
22.3318055280
31
0.0000000000
11
-9.4563238083
21
22.3634493669
31
0.0000000000
0
SPLINE
5
3B1
100
AcDbEntity
8
0
100
AcDbSpline
62
7
6
CONTINUOUS
70
0
71
3
72
8
73
4
74
2
42
0.0000001000
43
0.0000001000
44
0.0000000001
12
0.0070236331
22
0.0414015123
32
0.0000000000
13
-0.0000047265
23
0.0420031585
33
0.0000000000
40
0.0000000000
40
0.0000000000
40
0.0000000000
40
0.0000000000
40
1.0000000000
40
1.0000000000
40
1.0000000000
40
1.0000000000
10
-9.4563238083
20
22.3634493669
30
0.0000000000
10
-9.4539825973
20
22.3772498710
30
0.0000000000
10
-9.4528033838
20
22.3912416660
30
0.0000000000
10
-9.4528049593
20
22.4052427188
30
0.0000000000
11
-9.4563238083
21
22.3634493669
31
0.0000000000
11
-9.4528049593
21
22.4052427188
31
0.0000000000
0
SPLINE
5
3B2
100
AcDbEntity
8
0
100
AcDbSpline
62
7
6
CONTINUOUS
70
0
71
3
72
10
73
6
74
4
42
0.0000001000
43
0.0000001000
44
0.0000000001
12
-0.0630753370
22
0.0131701889
32
0.0000000000
13
-0.0576456729
23
0.0288243802
33
0.0000000000
40
0.0000000000
40
0.0000000000
40
0.0000000000
40
0.0000000000
40
0.3622431597
40
0.7258119006
40
1.0000000000
40
1.0000000000
40
1.0000000000
40
1.0000000000
10
-11.8814048574
20
21.1029563866
30
0.0000000000
10
-11.8890210605
20
21.1045466569
30
0.0000000000
10
-11.9041422383
20
21.1084485891
30
0.0000000000
10
-11.9243740151
20
21.1157448247
30
0.0000000000
10
-11.9368493592
20
21.1214413995
30
0.0000000000
10
-11.9421179450
20
21.1240758335
30
0.0000000000
11
-11.8814048574
21
21.1029563866
31
0.0000000000
11
-11.9040058419
21
21.1087886319
31
0.0000000000
11
-11.9260433776
21
21.1167360399
31
0.0000000000
11
-11.9421179450
21
21.1240758335
31
0.0000000000
0
SPLINE
5
3B3
100
AcDbEntity
8
0
100
AcDbSpline
62
7
6
CONTINUOUS
70
0
71
3
72
10
73
6
74
4
42
0.0000001000
43
0.0000001000
44
0.0000000001
12
-0.2300489078
22
0.1150244539
32
0.0000000000
13
-0.0188332625
23
0.2582029365
33
0.0000000000
40
0.0000000000
40
0.0000000000
40
0.0000000000
40
0.0000000000
40
0.3282269566
40
0.6593034003
40
1.0000000000
40
1.0000000000
40
1.0000000000
40
1.0000000000
10
-13.6206480975
20
21.9633408564
30
0.0000000000
10
-13.6458175152
20
21.9759255652
30
0.0000000000
10
-13.6924394308
20
22.0101078309
30
0.0000000000
10
-13.7414886151
20
22.0824049389
30
0.0000000000
10
-13.7560359444
20
22.1393347147
30
0.0000000000
10
-13.7581747539
20
22.1686576689
30
0.0000000000
11
-13.6206480975
21
21.9633408564
31
0.0000000000
11
-13.6886978270
21
22.0133018876
31
0.0000000000
11
-13.7365469307
21
22.0837406121
31
0.0000000000
11
-13.7581747539
21
22.1686576689
31
0.0000000000
0
SPLINE
5
3B4
100
AcDbEntity
8
0
100
AcDbSpline
62
7
6
CONTINUOUS
70
0
71
3
72
8
73
4
74
2
42
0.0000001000
43
0.0000001000
44
0.0000000001
12
-0.0013448604
22
0.0184379576
32
0.0000000000
13
0.0000280280
23
0.0184976325
33
0.0000000000
40
0.0000000000
40
0.0000000000
40
0.0000000000
40
0.0000000000
40
1.0000000000
40
1.0000000000
40
1.0000000000
40
1.0000000000
10
-13.7581747539
20
22.1686576689
30
0.0000000000
10
-13.7586230407
20
22.1748036548
30
0.0000000000
10
-13.7588411740
20
22.1809694285
30
0.0000000000
10
-13.7588318313
20
22.1871353060
30
0.0000000000
11
-13.7581747539
21
22.1686576689
31
0.0000000000
11
-13.7588318313
21
22.1871353060
31
0.0000000000
0
SPLINE
5
3B5
100
AcDbEntity
8
0
100
AcDbSpline
62
7
6
CONTINUOUS
70
0
71
3
72
10
73
6
74
4
42
0.0000001000
43
0.0000001000
44
0.0000000001
12
-0.2423056845
22
-0.1243074027
32
0.0000000000
13
-0.0001350977
23
-0.2743587970
33
0.0000000000
40
0.0000000000
40
0.0000000000
40
0.0000000000
40
0.0000000000
40
0.3628437031
40
0.7343496445
40
1.0000000000
40
1.0000000000
40
1.0000000000
40
1.0000000000
10
-13.6229588041
20
22.7493580307
30
0.0000000000
10
-13.6522651681
20
22.7343233113
30
0.0000000000
10
-13.7060691637
20
22.6915339395
30
0.0000000000
10
-13.7503073493
20
22.6094458068
30
0.0000000000
10
-13.7588289150
20
22.5512330103
30
0.0000000000
10
-13.7588408779
20
22.5269385063
30
0.0000000000
11
-13.6229588041
21
22.7493580307
31
0.0000000000
11
-13.7002300659
21
22.6877682270
31
0.0000000000
11
-13.7483046894
21
22.5987471607
31
0.0000000000
11
-13.7588408779
21
22.5269385063
31
0.0000000000
0
SPLINE
5
3B6
100
AcDbEntity
8
0
100
AcDbSpline
62
7
6
CONTINUOUS
70
0
71
3
72
9
73
5
74
3
42
0.0000001000
43
0.0000001000
44
0.0000000001
12
0.1398420459
22
0.0681214906
32
0.0000000000
13
0.1541160003
23
-0.0268465772
33
0.0000000000
40
0.0000000000
40
0.0000000000
40
0.0000000000
40
0.0000000000
40
0.5938370469
40
1.0000000000
40
1.0000000000
40
1.0000000000
40
1.0000000000
10
0.8004792254
20
17.6711474142
30
0.0000000000
10
0.8281603546
20
17.6846317691
30
0.0000000000
10
0.8795143389
20
17.6987562388
30
0.0000000000
10
0.9320437018
20
17.6963066310
30
0.0000000000
10
0.9529091050
20
17.6926719360
30
0.0000000000
11
0.8004792254
21
17.6711474142
31
0.0000000000
11
0.8895666397
21
17.6955623127
31
0.0000000000
11
0.9529091050
21
17.6926719360
31
0.0000000000
0
SPLINE
5
3B7
100
AcDbEntity
8
0
100
AcDbSpline
62
7
6
CONTINUOUS
70
0
71
3
72
9
73
5
74
3
42
0.0000001000
43
0.0000001000
44
0.0000000001
12
0.0625006415
22
-0.0108874373
32
0.0000000000
13
0.0577537469
23
-0.0262448079
33
0.0000000000
40
0.0000000000
40
0.0000000000
40
0.0000000000
40
0.0000000000
40
0.4989616510
40
1.0000000000
40
1.0000000000
40
1.0000000000
40
1.0000000000
10
0.9529091050
20
17.6926719360
30
0.0000000000
10
0.9633042461
20
17.6908611314
30
0.0000000000
10
0.9839039581
20
17.6859188678
30
0.0000000000
10
1.0037052420
20
17.6783918114
30
0.0000000000
10
1.0133508560
20
17.6740085930
30
0.0000000000
11
0.9529091050
21
17.6926719360
31
0.0000000000
11
0.9836623999
21
17.6852856143
31
0.0000000000
11
1.0133508560
21
17.6740085930
31
0.0000000000
0
SPLINE
5
3B8
100
AcDbEntity
8
0
100
AcDbSpline
62
7
6
CONTINUOUS
70
0
71
3
72
8
73
4
74
2
42
0.0000001000
43
0.0000001000
44
0.0000000001
12
0.0086478544
22
-0.0039298104
32
0.0000000000
13
0.0084941549
23
-0.0042547368
33
0.0000000000
40
0.0000000000
40
0.0000000000
40
0.0000000000
40
0.0000000000
40
1.0000000000
40
1.0000000000
40
1.0000000000
40
1.0000000000
10
1.0133508560
20
17.6740085930
30
0.0000000000
10
1.0162334741
20
17.6726986562
30
0.0000000000
10
1.0190914786
20
17.6713340711
30
0.0000000000
10
1.0219228636
20
17.6699158255
30
0.0000000000
11
1.0133508560
21
17.6740085930
31
0.0000000000
11
1.0219228636
21
17.6699158255
31
0.0000000000
0
SPLINE
5
3B9
100
AcDbEntity
8
0
100
AcDbSpline
62
7
6
CONTINUOUS
70
0
71
3
72
10
73
6
74
4
42
0.0000001000
43
0.0000001000
44
0.0000000001
12
-0.2423056845
22
-0.1243074027
32
0.0000000000
13
-0.0001350977
23
-0.2743587970
33
0.0000000000
40
0.0000000000
40
0.0000000000
40
0.0000000000
40
0.0000000000
40
0.3628437031
40
0.7343496445
40
1.0000000000
40
1.0000000000
40
1.0000000000
40
1.0000000000
10
-1.3193008115
20
16.5975290344
30
0.0000000000
10
-1.3486071754
20
16.5824943149
30
0.0000000000
10
-1.4024111710
20
16.5397049432
30
0.0000000000
10
-1.4466493567
20
16.4576168105
30
0.0000000000
10
-1.4551709224
20
16.3994040140
30
0.0000000000
10
-1.4551828853
20
16.3751095100
30
0.0000000000
11
-1.3193008115
21
16.5975290344
31
0.0000000000
11
-1.3965720733
21
16.5359392307
31
0.0000000000
11
-1.4446466967
21
16.4469181643
31
0.0000000000
11
-1.4551828853
21
16.3751095100
31
0.0000000000
0
SPLINE
5
3BA
100
AcDbEntity
8
0
100
AcDbSpline
62
7
6
CONTINUOUS
70
0
71
3
72
10
73
6
74
4
42
0.0000001000
43
0.0000001000
44
0.0000000001
12
0.2458564392
22
-0.1229282196
32
0.0000000000
13
0.0001475012
23
-0.2769543424
33
0.0000000000
40
0.0000000000
40
0.0000000000
40
0.0000000000
40
0.0000000000
40
0.3612552928
40
0.7311258029
40
1.0000000000
40
1.0000000000
40
1.0000000000
40
1.0000000000
10
2.7126458472
20
16.8245627387
30
0.0000000000
10
2.7422514938
20
16.8097599153
30
0.0000000000
10
2.7967375330
20
16.7672564890
30
0.0000000000
10
2.8420090410
20
16.6847099981
30
0.0000000000
10
2.8508258089
20
16.6258029145
30
0.0000000000
10
2.8508390287
20
16.6009809557
30
0.0000000000
11
2.7126458472
21
16.8245627387
31
0.0000000000
11
2.7908740428
21
16.7633997561
31
0.0000000000
11
2.8398415357
21
16.6743005810
31
0.0000000000
11
2.8508390287
21
16.6009809557
31
0.0000000000
0
SPLINE
5
3BB
100
AcDbEntity
8
0
100
AcDbSpline
62
7
6
CONTINUOUS
70
0
71
3
72
10
73
6
74
4
42
0.0000001000
43
0.0000001000
44
0.0000000001
12
0.1548432886
22
0.0792643149
32
0.0000000000
13
0.0679947440
23
0.1598056268
33
0.0000000000
40
0.0000000000
40
0.0000000000
40
0.0000000000
40
0.0000000000
40
0.2502119492
40
0.8109766530
40
1.0000000000
40
1.0000000000
40
1.0000000000
40
1.0000000000
10
2.7147697848
20
-25.6162083938
30
0.0000000000
10
2.7276843318
20
-25.6095974343
30
0.0000000000
10
2.7677567354
20
-25.5845411917
30
0.0000000000
10
2.8069790200
20
-25.5405081144
30
0.0000000000
10
2.8265799530
20
-25.5016911294
30
0.0000000000
10
2.8308641510
20
-25.4916221313
30
0.0000000000
11
2.7147697848
21
-25.6162083938
31
0.0000000000
11
2.7516248706
21
-25.5931220168
31
0.0000000000
11
2.8160737500
21
-25.5208941190
31
0.0000000000
11
2.8308641510
21
-25.4916221313
31
0.0000000000
0
SPLINE
5
3BC
100
AcDbEntity
8
0
100
AcDbSpline
62
7
6
CONTINUOUS
70
0
71
3
72
9
73
5
74
3
42
0.0000001000
43
0.0000001000
44
0.0000000001
12
0.0392784821
22
0.0923148186
32
0.0000000000
13
-0.0000116853
23
0.1005960081
33
0.0000000000
40
0.0000000000
40
0.0000000000
40
0.0000000000
40
0.0000000000
40
0.6582232838
40
1.0000000000
40
1.0000000000
40
1.0000000000
40
1.0000000000
10
2.8308641510
20
-25.4916221313
30
0.0000000000
10
2.8394821549
20
-25.4713675436
30
0.0000000000
10
2.8485345532
20
-25.4388552989
30
0.0000000000
10
2.8508112204
20
-25.4053063172
30
0.0000000000
10
2.8508098891
20
-25.3938458594
30
0.0000000000
11
2.8308641510
21
-25.4916221313
31
0.0000000000
11
2.8484635146
21
-25.4281177361
31
0.0000000000
11
2.8508098891
21
-25.3938458594
31
0.0000000000
0
SPLINE
5
3BD
100
AcDbEntity
8
0
100
AcDbSpline
62
7
6
CONTINUOUS
70
0
71
3
72
8
73
4
74
2
42
0.0000001000
43
0.0000001000
44
0.0000000001
12
-0.0333179828
22
0.0263014040
32
0.0000000000
13
-0.0339518165
23
0.0254934502
33
0.0000000000
40
0.0000000000
40
0.0000000000
40
0.0000000000
40
0.0000000000
40
1.0000000000
40
1.0000000000
40
1.0000000000
40
1.0000000000
10
8.8874844143
20
19.2665380457
30
0.0000000000
10
8.8763784200
20
19.2753051803
30
0.0000000000
10
8.8651669995
20
19.2839424198
30
0.0000000000
10
8.8538497274
20
19.2924402366
30
0.0000000000
11
8.8874844143
21
19.2665380457
31
0.0000000000
11
8.8538497274
21
19.2924402366
31
0.0000000000
0
SPLINE
5
3BE
100
AcDbEntity
8
0
100
AcDbSpline
62
7
6
CONTINUOUS
70
0
71
3
72
10
73
6
74
4
42
0.0000001000
43
0.0000001000
44
0.0000000001
12
-0.2119410988
22
0.1591405234
32
0.0000000000
13
-0.2371149823
23
0.1184424999
33
0.0000000000
40
0.0000000000
40
0.0000000000
40
0.0000000000
40
0.0000000000
40
0.3073115005
40
0.7370553336
40
1.0000000000
40
1.0000000000
40
1.0000000000
40
1.0000000000
10
8.8538497274
20
19.2924402366
30
0.0000000000
10
8.8321390817
20
19.3087421409
30
0.0000000000
10
8.7791340207
20
19.3466099984
30
0.0000000000
10
8.7041557491
20
19.3934578717
30
0.0000000000
10
8.6501777222
20
19.4223506366
30
0.0000000000
10
8.6293950156
20
19.4327319111
30
0.0000000000
11
8.8538497274
21
19.2924402366
31
0.0000000000
11
8.7875461459
21
19.3397394102
31
0.0000000000
11
8.6908636937
21
19.3999025141
31
0.0000000000
11
8.6293950156
21
19.4327319111
31
0.0000000000
0
SPLINE
5
3BF
100
AcDbEntity
8
0
100
AcDbSpline
62
7
6
CONTINUOUS
70
0
71
3
72
14
73
10
74
8
42
0.0000001000
43
0.0000001000
44
0.0000000001
12
0.4124812599
22
0.2033015536
32
0.0000000000
13
0.4118176649
23
-0.2059063785
33
0.0000000000
40
0.0000000000
40
0.0000000000
40
0.0000000000
40
0.0000000000
40
0.1741747360
40
0.3394143230
40
0.4961314172
40
0.6457035274
40
0.7893866376
40
0.9296309077
40
1.0000000000
40
1.0000000000
40
1.0000000000
40
1.0000000000
10
4.9768522844
20
21.0110931611
30
0.0000000000
10
5.0008002226
20
21.0228964926
30
0.0000000000
10
5.0486649598
20
21.0435886282
30
0.0000000000
10
5.1216180786
20
21.0656879064
30
0.0000000000
10
5.1931000483
20
21.0777661979
30
0.0000000000
10
5.2622993562
20
21.0796251621
30
0.0000000000
10
5.3284941367
20
21.0711773199
30
0.0000000000
10
5.3807575202
20
21.0554914361
30
0.0000000000
10
5.4102911603
20
21.0422802290
30
0.0000000000
10
5.4199509054
20
21.0374504140
30
0.0000000000
11
4.9768522844
21
21.0110931611
31
0.0000000000
11
5.0504632886
21
21.0426656405
31
0.0000000000
11
5.1232573216
21
21.0644623002
31
0.0000000000
11
5.1943587696
21
21.0762265010
31
0.0000000000
11
5.2631220702
21
21.0778476607
31
0.0000000000
11
5.3286421965
21
21.0693080897
31
0.0000000000
11
5.3903845821
21
21.0506744769
31
0.0000000000
11
5.4199509054
21
21.0374504140
31
0.0000000000
0
SPLINE
5
3C0
100
AcDbEntity
8
0
100
AcDbSpline
62
7
6
CONTINUOUS
70
0
71
3
72
16
73
12
74
10
42
0.0000001000
43
0.0000001000
44
0.0000000001
12
0.0000000000
22
0.6312910545
32
0.0000000000
13
-0.5653375740
23
0.2826654183
33
0.0000000000
40
0.0000000000
40
0.0000000000
40
0.0000000000
40
0.0000000000
40
0.1399435214
40
0.2734426103
40
0.4001748734
40
0.5204828508
40
0.6345329124
40
0.7434403612
40
0.8480430070
40
0.9501849209
40
1.0000000000
40
1.0000000000
40
1.0000000000
40
1.0000000000
10
1.4372046212
20
22.6178992687
30
0.0000000000
10
1.4372046212
20
22.6473476331
30
0.0000000000
10
1.4348131546
20
22.7049269864
30
0.0000000000
10
1.4235099663
20
22.7885035200
30
0.0000000000
10
1.4046706688
20
22.8664940931
30
0.0000000000
10
1.3784770203
20
22.9380159538
30
0.0000000000
10
1.3451488509
20
23.0023431389
30
0.0000000000
10
1.3050245212
20
23.0586970123
30
0.0000000000
10
1.2584589986
20
23.1064587628
30
0.0000000000
10
1.2147344308
20
23.1385617019
30
0.0000000000
10
1.1866976636
20
23.1540770909
30
0.0000000000
10
1.1773102183
20
23.1587707576
30
0.0000000000
11
1.4372046212
21
22.6178992687
31
0.0000000000
11
1.4333601974
21
22.7061606753
31
0.0000000000
11
1.4218627539
21
22.7896495042
31
0.0000000000
11
1.4028551168
21
22.8673637294
31
0.0000000000
11
1.3765067873
21
22.9385962310
31
0.0000000000
11
1.3431675264
21
23.0024109514
31
0.0000000000
11
1.3031069065
21
23.0582860374
31
0.0000000000
11
1.2568837764
21
23.1054454032
31
0.0000000000
11
1.2048499849
21
23.1435284646
31
0.0000000000
11
1.1773102183
21
23.1587707576
31
0.0000000000
0
SPLINE
5
3C1
100
AcDbEntity
8
0
100
AcDbSpline
62
7
6
CONTINUOUS
70
0
71
3
72
16
73
12
74
10
42
0.0000001000
43
0.0000001000
44
0.0000000001
12
0.2733578754
22
0.1363194232
32
0.0000000000
13
0.2869159443
23
-0.1526113723
33
0.0000000000
40
0.0000000000
40
0.0000000000
40
0.0000000000
40
0.0000000000
40
0.1864484450
40
0.3568091343
40
0.5102756710
40
0.6466546961
40
0.7642602472
40
0.8616680786
40
0.9367868553
40
0.9882907023
40
1.0000000000
40
1.0000000000
40
1.0000000000
40
1.0000000000
10
-2.3162682519
20
24.6576534293
30
0.0000000000
10
-2.2992792016
20
24.6661256108
30
0.0000000000
10
-2.2666603513
20
24.6821264450
30
0.0000000000
10
-2.2196441999
20
24.7042472898
30
0.0000000000
10
-2.1768423531
20
24.7233246618
30
0.0000000000
10
-2.1385181918
20
24.7392421488
30
0.0000000000
10
-2.1049722213
20
24.7516805164
30
0.0000000000
10
-2.0767946608
20
24.7607043866
30
0.0000000000
10
-2.0543812581
20
24.7651224281
30
0.0000000000
10
-2.0403582438
20
24.7667274522
30
0.0000000000
10
-2.0338067906
20
24.7641342498
30
0.0000000000
10
-2.0326869292
20
24.7635385925
30
0.0000000000
11
-2.3162682519
21
24.6576534293
31
0.0000000000
11
-2.2651194387
21
24.6827023835
31
0.0000000000
11
-2.2180098843
21
24.7048096641
31
0.0000000000
11
-2.1751675915
21
24.7238389687
31
0.0000000000
11
-2.1366493174
21
24.7397069002
31
0.0000000000
11
-2.1029376392
21
24.7521191961
31
0.0000000000
11
-2.0744690082
21
24.7607716748
31
0.0000000000
11
-2.0519595817
21
24.7652263589
31
0.0000000000
11
-2.0362289895
21
24.7649808103
31
0.0000000000
11
-2.0326869292
21
24.7635385925
31
0.0000000000
0
SPLINE
5
3C2
100
AcDbEntity
8
0
100
AcDbSpline
62
7
6
CONTINUOUS
70
0
71
3
72
18
73
14
74
12
42
0.0000001000
43
0.0000001000
44
0.0000000001
12
0.8877857936
22
0.4450469868
32
0.0000000000
13
0.8401489964
23
0.5295093007
33
0.0000000000
40
0.0000000000
40
0.0000000000
40
0.0000000000
40
0.0000000000
40
0.0630866230
40
0.1312892766
40
0.2045932515
40
0.2835188951
40
0.3680856664
40
0.4587112323
40
0.5554355326
40
0.6583165237
40
0.7671448001
40
0.8813546003
40
1.0000000000
40
1.0000000000
40
1.0000000000
40
1.0000000000
10
8.0273321336
20
-19.2011816840
30
0.0000000000
10
8.0460012695
20
-19.1918228468
30
0.0000000000
10
8.0847188011
20
-19.1720768073
30
0.0000000000
10
8.1446952482
20
-19.1406144417
30
0.0000000000
10
8.2089657747
20
-19.1060592599
30
0.0000000000
10
8.2776606275
20
-19.0683012075
30
0.0000000000
10
8.3510296002
20
-19.0271494787
30
0.0000000000
10
8.4291769944
20
-18.9824791378
30
0.0000000000
10
8.5122119516
20
-18.9341486724
30
0.0000000000
10
8.6000579081
20
-18.8821113328
30
0.0000000000
10
8.6924603467
20
-18.8264149385
30
0.0000000000
10
8.7888758766
20
-18.7672741575
30
0.0000000000
10
8.8542578098
20
-18.7264449782
30
0.0000000000
10
8.8874844143
20
-18.7055036973
30
0.0000000000
11
8.0273321336
21
-19.2011816840
31
0.0000000000
11
8.0831569369
21
-19.1727438299
31
0.0000000000
11
8.1431477343
21
-19.1413009346
31
0.0000000000
11
8.2072749780
21
-19.1068454710
31
0.0000000000
11
8.2759715205
21
-19.0691059942
31
0.0000000000
11
8.3492261986
21
-19.0280351120
31
0.0000000000
11
8.4273674812
21
-18.9833826338
31
0.0000000000
11
8.5103902269
21
-18.9350712319
31
0.0000000000
11
8.5982990601
21
-18.8830059705
31
0.0000000000
11
8.6908636937
21
-18.8272179680
31
0.0000000000
11
8.7875461459
21
-18.7679155786
31
0.0000000000
11
8.8874844143
21
-18.7055036973
31
0.0000000000
0
SPLINE
5
3C3
100
AcDbEntity
8
0
100
AcDbSpline
62
7
6
CONTINUOUS
70
0
71
3
72
10
73
6
74
4
42
0.0000001000
43
0.0000001000
44
0.0000000001
12
-0.1962262671
22
0.0981131335
32
0.0000000000
13
-0.2015218056
23
-0.0898126603
33
0.0000000000
40
0.0000000000
40
0.0000000000
40
0.0000000000
40
0.0000000000
40
0.4224563660
40
0.8553983587
40
1.0000000000
40
1.0000000000
40
1.0000000000
40
1.0000000000
10
-11.2818916966
20
23.8218315106
30
0.0000000000
10
-11.3095240418
20
23.8356476832
30
0.0000000000
10
-11.3713220391
20
23.8532930206
30
0.0000000000
10
-11.4458225993
20
23.8457334372
30
0.0000000000
10
-11.4857094153
20
23.8309132998
30
0.0000000000
10
-11.4954228766
20
23.8265842804
30
0.0000000000
11
-11.2818916966
21
23.8218315106
31
0.0000000000
11
-11.3710351685
21
23.8471956503
31
0.0000000000
11
-11.4655393403
21
23.8376791020
31
0.0000000000
11
-11.4954228766
21
23.8265842804
31
0.0000000000
0
SPLINE
5
3C4
100
AcDbEntity
8
0
100
AcDbSpline
62
7
6
CONTINUOUS
70
0
71
3
72
8
73
4
74
2
42
0.0000001000
43
0.0000001000
44
0.0000000001
12
-0.0079797705
22
-0.0035563616
32
0.0000000000
13
-0.0078521780
23
-0.0038323458
33
0.0000000000
40
0.0000000000
40
0.0000000000
40
0.0000000000
40
0.0000000000
40
1.0000000000
40
1.0000000000
40
1.0000000000
40
1.0000000000
10
-11.4954228766
20
23.8265842804
30
0.0000000000
10
-11.4980828001
20
23.8253988266
30
0.0000000000
10
-11.5007222413
20
23.8241669966
30
0.0000000000
10
-11.5033396339
20
23.8228895480
30
0.0000000000
11
-11.4954228766
21
23.8265842804
31
0.0000000000
11
-11.5033396339
21
23.8228895480
31
0.0000000000
0
SPLINE
5
3C5
100
AcDbEntity
8
0
100
AcDbSpline
62
7
6
CONTINUOUS
70
0
71
3
72
10
73
6
74
4
42
0.0000001000
43
0.0000001000
44
0.0000000001
12
0.2458564392
22
-0.1229282196
32
0.0000000000
13
0.0001475012
23
-0.2769543424
33
0.0000000000
40
0.0000000000
40
0.0000000000
40
0.0000000000
40
0.0000000000
40
0.3612552928
40
0.7311258029
40
1.0000000000
40
1.0000000000
40
1.0000000000
40
1.0000000000
10
-9.5910121455
20
22.9763917350
30
0.0000000000
10
-9.5614064988
20
22.9615889117
30
0.0000000000
10
-9.5069204596
20
22.9190854853
30
0.0000000000
10
-9.4616489517
20
22.8365389945
30
0.0000000000
10
-9.4528321837
20
22.7776319109
30
0.0000000000
10
-9.4528189640
20
22.7528099520
30
0.0000000000
11
-9.5910121455
21
22.9763917350
31
0.0000000000
11
-9.5127839498
21
22.9152287524
31
0.0000000000
11
-9.4638164569
21
22.8261295773
31
0.0000000000
11
-9.4528189640
21
22.7528099520
31
0.0000000000
0
SPLINE
5
3C6
100
AcDbEntity
8
0
100
AcDbSpline
62
7
6
CONTINUOUS
70
0
71
3
72
10
73
6
74
4
42
0.0000001000
43
0.0000001000
44
0.0000000001
12
0.2039963472
22
-0.1019981736
32
0.0000000000
13
0.2061517533
23
0.1006147329
33
0.0000000000
40
0.0000000000
40
0.0000000000
40
0.0000000000
40
0.0000000000
40
0.4063652945
40
0.8228168254
40
1.0000000000
40
1.0000000000
40
1.0000000000
40
1.0000000000
10
0.3615479655
20
-26.6673352487
30
0.0000000000
10
0.3891803107
20
-26.6811514213
30
0.0000000000
10
0.4509783080
20
-26.6987967587
30
0.0000000000
10
0.5284289081
20
-26.6909378343
30
0.0000000000
10
0.5708203622
20
-26.6743356987
30
0.0000000000
10
0.5829959029
20
-26.6683932861
30
0.0000000000
11
0.3615479655
21
-26.6673352487
31
0.0000000000
11
0.4506914374
21
-26.6926993884
31
0.0000000000
11
0.5451956092
21
-26.6831828401
31
0.0000000000
11
0.5829959029
21
-26.6683932861
31
0.0000000000
0
SPLINE
5
3C7
100
AcDbEntity
8
0
100
AcDbSpline
62
7
6
CONTINUOUS
70
0
71
3
72
10
73
6
74
4
42
0.0000001000
43
0.0000001000
44
0.0000000001
12
0.0000000000
22
0.2188826785
32
0.0000000000
13
0.1965690954
23
0.0997689057
33
0.0000000000
40
0.0000000000
40
0.0000000000
40
0.0000000000
40
0.0000000000
40
0.3525965293
40
0.7108436838
40
1.0000000000
40
1.0000000000
40
1.0000000000
40
1.0000000000
10
-4.4903603064
20
18.9166517739
30
0.0000000000
10
-4.4903603064
20
18.9423775315
30
0.0000000000
10
-4.4801081716
20
18.9947924569
30
0.0000000000
10
-4.4386972600
20
19.0571109690
30
0.0000000000
10
-4.3997770473
20
19.0854040845
30
0.0000000000
10
-4.3808306488
20
19.0950203542
30
0.0000000000
11
-4.4903603064
21
18.9166517739
31
0.0000000000
11
-4.4754694778
21
18.9923788804
31
0.0000000000
11
-4.4321277783
21
19.0577261653
31
0.0000000000
11
-4.3808306488
21
19.0950203542
31
0.0000000000
0
SPLINE
5
3C8
100
AcDbEntity
8
0
100
AcDbSpline
62
7
6
CONTINUOUS
70
0
71
3
72
12
73
8
74
6
42
0.0000001000
43
0.0000001000
44
0.0000000001
12
0.0830613441
22
0.0409677831
32
0.0000000000
13
0.0826080532
23
-0.0413040266
33
0.0000000000
40
0.0000000000
40
0.0000000000
40
0.0000000000
40
0.0000000000
40
0.0699680866
40
0.2811644663
40
0.5031567930
40
0.7416934967
40
1.0000000000
40
1.0000000000
40
1.0000000000
40
1.0000000000
10
-3.4601729020
20
19.5518234591
30
0.0000000000
10
-3.4582356876
20
19.5527789382
30
0.0000000000
10
-3.4502869916
20
19.5562839463
30
0.0000000000
10
-3.4350846989
20
19.5600211962
30
0.0000000000
10
-3.4142270237
20
19.5600188044
30
0.0000000000
10
-3.3924546803
20
19.5553595034
30
0.0000000000
10
-3.3782342233
20
19.5495086880
30
0.0000000000
10
-3.3711214909
20
19.5459523218
30
0.0000000000
11
-3.4601729020
21
19.5518234591
31
0.0000000000
11
-3.4542457698
21
19.5544356610
31
0.0000000000
11
-3.4353246959
21
19.5591758473
31
0.0000000000
11
-3.4148223402
21
19.5593256426
31
0.0000000000
11
-3.3932443534
21
19.5548813355
31
0.0000000000
11
-3.3711214909
21
19.5459523218
31
0.0000000000
0
SPLINE
5
3C9
100
AcDbEntity
8
0
100
AcDbSpline
62
7
6
CONTINUOUS
70
0
71
3
72
9
73
5
74
3
42
0.0000001000
43
0.0000001000
44
0.0000000001
12
-0.0003653793
22
0.0095468576
32
0.0000000000
13
-0.0085030318
23
0.0051307478
33
0.0000000000
40
0.0000000000
40
0.0000000000
40
0.0000000000
40
0.0000000000
40
0.2172331805
40
1.0000000000
40
1.0000000000
40
1.0000000000
40
1.0000000000
10
3.6581361973
20
20.7153667360
30
0.0000000000
10
3.6581097398
20
20.7160580341
30
0.0000000000
10
3.6576409219
20
20.7191947365
30
0.0000000000
10
3.6552184985
20
20.7219968682
30
0.0000000000
10
3.6529998681
20
20.7233355946
30
0.0000000000
11
3.6581361973
21
20.7153667360
31
0.0000000000
11
3.6578138631
21
20.7174050373
31
0.0000000000
11
3.6529998681
21
20.7233355946
31
0.0000000000
0
SPLINE
5
3CA
100
AcDbEntity
8
0
100
AcDbSpline
62
7
6
CONTINUOUS
70
0
71
3
72
9
73
5
74
3
42
0.0000001000
43
0.0000001000
44
0.0000000001
12
-0.0002915661
22
0.0095821353
32
0.0000000000
13
-0.0085878303
23
0.0051799366
33
0.0000000000
40
0.0000000000
40
0.0000000000
40
0.0000000000
40
0.0000000000
40
0.2397017390
40
1.0000000000
40
1.0000000000
40
1.0000000000
40
1.0000000000
10
-1.9323109976
20
23.5105919533
30
0.0000000000
10
-1.9323342939
20
23.5113575715
30
0.0000000000
10
-1.9328128682
20
23.5144935733
30
0.0000000000
10
-1.9352849695
20
23.5172302471
30
0.0000000000
10
-1.9374614069
20
23.5185430127
30
0.0000000000
11
-1.9323109976
21
23.5105919533
31
0.0000000000
11
-1.9326782660
21
23.5128380375
31
0.0000000000
11
-1.9374614069
21
23.5185430127
31
0.0000000000
0
SPLINE
5
3CB
100
AcDbEntity
8
0
100
AcDbSpline
62
7
6
CONTINUOUS
70
0
71
3
72
17
73
13
74
11
42
0.0000001000
43
0.0000001000
44
0.0000000001
12
0.3368359012
22
0.4070400689
32
0.0000000000
13
-0.2179357261
23
0.4812941526
33
0.0000000000
40
0.0000000000
40
0.0000000000
40
0.0000000000
40
0.0000000000
40
0.0779683167
40
0.1606217195
40
0.2486522507
40
0.3423320892
40
0.4415691156
40
0.5459701958
40
0.6549011498
40
0.7675403237
40
0.8829261315
40
1.0000000000
40
1.0000000000
40
1.0000000000
40
1.0000000000
10
3.4923159239
20
19.7270552941
30
0.0000000000
10
3.5010700999
20
19.7376340370
30
0.0000000000
10
3.5170844269
20
19.7611579977
30
0.0000000000
10
3.5355460523
20
19.8010449099
30
0.0000000000
10
3.5488585577
20
19.8458104217
30
0.0000000000
10
3.5568502445
20
19.8947572901
30
0.0000000000
10
3.5594313169
20
19.9471541223
30
0.0000000000
10
3.5565764704
20
20.0022122764
30
0.0000000000
10
3.5483371433
20
20.0591008733
30
0.0000000000
10
3.5348417415
20
20.1169583404
30
0.0000000000
10
3.5162995735
20
20.1749000622
30
0.0000000000
10
3.5008207834
20
20.2128513578
30
0.0000000000
10
3.4923159239
20
20.2316336806
30
0.0000000000
11
3.4923159239
21
19.7270552941
31
0.0000000000
11
3.5156539036
21
19.7610000628
31
0.0000000000
11
3.5341906263
21
19.8005393955
31
0.0000000000
11
3.5476396300
21
19.8450622548
31
0.0000000000
11
3.5557930766
21
19.8938805894
31
0.0000000000
11
3.5585249648
21
19.9462399669
31
0.0000000000
11
3.5557930766
21
20.0013312326
31
0.0000000000
11
3.5476396300
21
20.0583030138
31
0.0000000000
11
3.5341906263
21
20.1162748767
31
0.0000000000
11
3.5156539036
21
20.1743509322
31
0.0000000000
11
3.4923159239
21
20.2316336806
31
0.0000000000
0
SPLINE
5
3CC
100
AcDbEntity
8
0
100
AcDbSpline
62
7
6
CONTINUOUS
70
0
71
3
72
9
73
5
74
3
42
0.0000001000
43
0.0000001000
44
0.0000000001
12
-0.5104580767
22
-0.2424838669
32
0.0000000000
13
-0.5128996060
23
-0.2372745126
33
0.0000000000
40
0.0000000000
40
0.0000000000
40
0.0000000000
40
0.0000000000
40
0.2521952613
40
1.0000000000
40
1.0000000000
40
1.0000000000
40
1.0000000000
10
4.1001379260
20
-19.9316490224
30
0.0000000000
10
4.0572262233
20
-19.9520334498
30
0.0000000000
10
3.8870062959
20
-20.0327202624
30
0.0000000000
10
3.7164846858
20
-20.1127728685
30
0.0000000000
10
3.5886351005
20
-20.1719178701
30
0.0000000000
11
4.1001379260
21
-19.9316490224
31
0.0000000000
11
3.9713497174
21
-19.9926907763
31
0.0000000000
11
3.5886351005
21
-20.1719178701
31
0.0000000000
0
SPLINE
5
3CD
100
AcDbEntity
8
0
100
AcDbSpline
62
7
6
CONTINUOUS
70
0
71
3
72
9
73
5
74
3
42
0.0000001000
43
0.0000001000
44
0.0000000001
12
0.7679353794
22
0.4261991003
32
0.0000000000
13
0.7731183149
23
0.4167235189
33
0.0000000000
40
0.0000000000
40
0.0000000000
40
0.0000000000
40
0.0000000000
40
0.4971691592
40
1.0000000000
40
1.0000000000
40
1.0000000000
40
1.0000000000
10
3.5886351005
20
10.6035019612
30
0.0000000000
10
3.7158996962
20
10.6741329773
30
0.0000000000
10
3.9726189839
20
10.8148638553
30
0.0000000000
10
4.2300820723
20
10.9542225219
30
0.0000000000
10
4.3596646497
20
11.0240696677
30
0.0000000000
11
3.5886351005
21
10.6035019612
31
0.0000000000
11
3.9713493716
21
10.8137279025
31
0.0000000000
11
4.3596646497
21
11.0240696677
31
0.0000000000
0
SPLINE
5
3CE
100
AcDbEntity
8
0
100
AcDbSpline
62
7
6
CONTINUOUS
70
0
71
3
72
9
73
5
74
3
42
0.0000001000
43
0.0000001000
44
0.0000000001
12
-0.5104580767
22
-0.2424838669
32
0.0000000000
13
-0.5128996060
23
-0.2372745126
33
0.0000000000
40
0.0000000000
40
0.0000000000
40
0.0000000000
40
0.0000000000
40
0.2521952613
40
1.0000000000
40
1.0000000000
40
1.0000000000
40
1.0000000000
10
4.1001379260
20
10.0328299485
30
0.0000000000
10
4.0572262233
20
10.0124455211
30
0.0000000000
10
3.8870062959
20
9.9317587085
30
0.0000000000
10
3.7164846858
20
9.8517061025
30
0.0000000000
10
3.5886351005
20
9.7925611008
30
0.0000000000
11
4.1001379260
21
10.0328299485
31
0.0000000000
11
3.9713497174
21
9.9717881946
31
0.0000000000
11
3.5886351005
21
9.7925611008
31
0.0000000000
0
SPLINE
5
3CF
100
AcDbEntity
8
0
100
AcDbSpline
62
7
6
CONTINUOUS
70
0
71
3
72
9
73
5
74
3
42
0.0000001000
43
0.0000001000
44
0.0000000001
12
0.7679353794
22
0.4261991003
32
0.0000000000
13
0.7731183149
23
0.4167235189
33
0.0000000000
40
0.0000000000
40
0.0000000000
40
0.0000000000
40
0.0000000000
40
0.4971691592
40
1.0000000000
40
1.0000000000
40
1.0000000000
40
1.0000000000
10
3.5886351005
20
-19.3609770097
30
0.0000000000
10
3.7158996962
20
-19.2903459936
30
0.0000000000
10
3.9726189839
20
-19.1496151156
30
0.0000000000
10
4.2300820723
20
-19.0102564491
30
0.0000000000
10
4.3596646497
20
-18.9404093033
30
0.0000000000
11
3.5886351005
21
-19.3609770097
31
0.0000000000
11
3.9713493716
21
-19.1507510684
31
0.0000000000
11
4.3596646497
21
-18.9404093033
31
0.0000000000
0
SPLINE
5
3D0
100
AcDbEntity
8
0
100
AcDbSpline
62
7
6
CONTINUOUS
70
0
71
3
72
21
73
17
74
15
42
0.0000001000
43
0.0000001000
44
0.0000000001
12
0.6584971561
22
-0.3292485780
32
0.0000000000
13
0.0000000000
23
-0.7362222020
33
0.0000000000
40
0.0000000000
40
0.0000000000
40
0.0000000000
40
0.0000000000
40
0.0616498586
40
0.1268425999
40
0.1948830368
40
0.2652427250
40
0.3381908518
40
0.4129212258
40
0.4883816947
40
0.5643707689
40
0.6406913235
40
0.7162544483
40
0.7901468873
40
0.8625455162
40
0.9328006887
40
1.0000000000
40
1.0000000000
40
1.0000000000
40
1.0000000000
10
3.3051797927
20
14.8221610340
30
0.0000000000
10
3.3187118782
20
14.8153949912
30
0.0000000000
10
3.3457882524
20
14.7999031866
30
0.0000000000
10
3.3848161804
20
14.7721470994
30
0.0000000000
10
3.4228246043
20
14.7396210315
30
0.0000000000
10
3.4593615308
20
14.7027323393
30
0.0000000000
10
3.4940103972
20
14.6618913275
30
0.0000000000
10
3.5263091101
20
14.6176124662
30
0.0000000000
10
3.5558030777
20
14.5705380476
30
0.0000000000
10
3.5821741181
20
14.5212037925
30
0.0000000000
10
3.6051142124
20
14.4701553370
30
0.0000000000
10
3.6242845712
20
14.4181218182
30
0.0000000000
10
3.6394551586
20
14.3657848442
30
0.0000000000
10
3.6504618138
20
14.3137420801
30
0.0000000000
10
3.6571587446
20
14.2626267645
30
0.0000000000
10
3.6587286959
20
14.2288797445
30
0.0000000000
10
3.6587286959
20
14.2123885362
30
0.0000000000
11
3.3051797927
21
14.8221610340
31
0.0000000000
11
3.3446364186
21
14.7997279172
31
0.0000000000
11
3.3838128549
21
14.7719996675
31
0.0000000000
11
3.4219295829
21
14.7394971798
31
0.0000000000
11
3.4584316907
21
14.7027429434
31
0.0000000000
11
3.4932167627
21
14.6618242864
31
0.0000000000
11
3.5256699733
21
14.6173969626
31
0.0000000000
11
3.5551844089
21
14.5703296614
31
0.0000000000
11
3.5815629458
21
14.5209940929
31
0.0000000000
11
3.6045859844
21
14.4697385499
31
0.0000000000
11
3.6237949998
21
14.4175288792
31
0.0000000000
11
3.6389021790
21
14.3652673294
31
0.0000000000
11
3.6498757368
21
14.3131076842
31
0.0000000000
11
3.6565204679
21
14.2618128551
31
0.0000000000
11
3.6587286959
21
14.2123885362
31
0.0000000000
0
SPLINE
5
3D1
100
AcDbEntity
8
0
100
AcDbSpline
62
7
6
CONTINUOUS
70
0
71
3
72
15
73
11
74
9
42
0.0000001000
43
0.0000001000
44
0.0000000001
12
0.0000000000
22
-0.3132138264
32
0.0000000000
13
-0.2786999341
23
-0.1438653620
33
0.0000000000
40
0.0000000000
40
0.0000000000
40
0.0000000000
40
0.0000000000
40
0.1509119217
40
0.2950365225
40
0.4311190004
40
0.5591729897
40
0.6810838044
40
0.7973936723
40
0.9090404296
40
1.0000000000
40
1.0000000000
40
1.0000000000
40
1.0000000000
10
3.6587286959
20
-23.7094766843
30
0.0000000000
10
3.6587286959
20
-23.7252325844
30
0.0000000000
10
3.6573591877
20
-23.7560598889
30
0.0000000000
10
3.6508496894
20
-23.8006798431
30
0.0000000000
10
3.6399901970
20
-23.8420015817
30
0.0000000000
10
3.6249064592
20
-23.8795044687
30
0.0000000000
10
3.6057297212
20
-23.9127531026
30
0.0000000000
10
3.5826425442
20
-23.9412735782
30
0.0000000000
10
3.5574496847
20
-23.9633091987
30
0.0000000000
10
3.5393664767
20
-23.9744595488
30
0.0000000000
10
3.5309163346
20
-23.9788215260
30
0.0000000000
11
3.6587286959
21
-23.7094766843
31
0.0000000000
11
3.6565204679
21
-23.7566927751
31
0.0000000000
11
3.6498757368
21
-23.8013428731
31
0.0000000000
11
3.6389021790
21
-23.8425289605
31
0.0000000000
11
3.6237949998
21
-23.8796833312
31
0.0000000000
11
3.6045859844
21
-23.9126839865
31
0.0000000000
11
3.5815629458
21
-23.9409164908
31
0.0000000000
11
3.5551844089
21
-23.9638735224
31
0.0000000000
11
3.5309163346
21
-23.9788215260
31
0.0000000000
0
SPLINE
5
3D2
100
AcDbEntity
8
0
100
AcDbSpline
62
7
6
CONTINUOUS
70
0
71
3
72
10
73
6
74
4
42
0.0000001000
43
0.0000001000
44
0.0000000001
12
0.1434180991
22
-0.6043235300
32
0.0000000000
13
-0.2542173387
23
-0.5696594086
33
0.0000000000
40
0.0000000000
40
0.0000000000
40
0.0000000000
40
0.0000000000
40
0.2649276521
40
0.6624000507
40
1.0000000000
40
1.0000000000
40
1.0000000000
40
1.0000000000
10
-0.3660733896
20
-20.7739058403
30
0.0000000000
10
-0.3534082495
20
-20.8272731782
30
0.0000000000
10
-0.3294152051
20
-20.9625077917
30
0.0000000000
10
-0.3266362881
20
-21.1709712563
30
0.0000000000
10
-0.3632063222
20
-21.3206084735
30
0.0000000000
10
-0.3918142424
20
-21.3847141360
30
0.0000000000
11
-0.3660733896
21
-20.7739058403
31
0.0000000000
11
-0.3377596592
21
-20.9359037964
31
0.0000000000
11
-0.3377596592
21
-21.1824003270
31
0.0000000000
11
-0.3918142424
21
-21.3847141360
31
0.0000000000
0
SPLINE
5
3D3
100
AcDbEntity
8
0
100
AcDbSpline
62
7
6
CONTINUOUS
70
0
71
3
72
14
73
10
74
8
42
0.0000001000
43
0.0000001000
44
0.0000000001
12
0.0000000000
22
0.3038415087
32
0.0000000000
13
0.2628898890
23
0.1532771476
33
0.0000000000
40
0.0000000000
40
0.0000000000
40
0.0000000000
40
0.0000000000
40
0.1680527131
40
0.3269376581
40
0.4764812062
40
0.6170722554
40
0.7497468560
40
0.8762303492
40
1.0000000000
40
1.0000000000
40
1.0000000000
40
1.0000000000
10
-13.8525261696
20
21.1369948546
30
0.0000000000
10
-13.8525261696
20
21.1540153179
30
0.0000000000
10
-13.8509406400
20
21.1871587066
30
0.0000000000
10
-13.8433866401
20
21.2349265303
30
0.0000000000
10
-13.8308088210
20
21.2787641832
30
0.0000000000
10
-13.8133537942
20
21.3180374655
30
0.0000000000
10
-13.7912262529
20
21.3521649685
30
0.0000000000
10
-13.7646240591
20
21.3806852374
30
0.0000000000
10
-13.7439912734
20
21.3956869646
30
0.0000000000
10
-13.7331453435
20
21.4020106509
30
0.0000000000
11
-13.8525261696
21
21.1369948546
31
0.0000000000
11
-13.8499456188
21
21.1879909946
31
0.0000000000
11
-13.8422434279
21
21.2356484507
31
0.0000000000
11
-13.8295350756
21
21.2792726135
31
0.0000000000
11
-13.8120092572
21
21.3182292772
31
0.0000000000
11
-13.7899246999
21
21.3519536567
31
0.0000000000
11
-13.7636059309
21
21.3799582848
31
0.0000000000
11
-13.7331453435
21
21.4020106509
31
0.0000000000
0
SPLINE
5
3D4
100
AcDbEntity
8
0
100
AcDbSpline
62
7
6
CONTINUOUS
70
0
71
3
72
9
73
5
74
3
42
0.0000001000
43
0.0000001000
44
0.0000000001
12
0.0305169333
22
0.0150410226
32
0.0000000000
13
0.0317561143
23
0.0122092091
33
0.0000000000
40
0.0000000000
40
0.0000000000
40
0.0000000000
40
0.0000000000
40
0.5062732526
40
1.0000000000
40
1.0000000000
40
1.0000000000
40
1.0000000000
10
-2.0962724061
20
23.4740145551
30
0.0000000000
10
-2.0911224370
20
23.4765528442
30
0.0000000000
10
-2.0808408527
20
23.4813482560
30
0.0000000000
10
-2.0703517475
20
23.4856722110
30
0.0000000000
10
-2.0651254665
20
23.4876815487
30
0.0000000000
11
-2.0962724061
21
23.4740145551
31
0.0000000000
11
-2.0806586645
21
23.4812875813
31
0.0000000000
11
-2.0651254665
21
23.4876815487
31
0.0000000000
0
SPLINE
5
3D5
100
AcDbEntity
8
0
100
AcDbSpline
62
9
6
CONTINUOUS
70
0
71
3
72
14
73
10
74
8
42
0.0000001000
43
0.0000001000
44
0.0000000001
12
0.0000000000
22
-0.1577506517
32
0.0000000000
13
0.1413592678
23
-0.0707335876
33
0.0000000000
40
0.0000000000
40
0.0000000000
40
0.0000000000
40
0.0000000000
40
0.1746337547
40
0.3389393274
40
0.4927930526
40
0.6368233318
40
0.7725428451
40
0.9023589738
40
1.0000000000
40
1.0000000000
40
1.0000000000
40
1.0000000000
10
-12.0070833236
20
21.2592902713
30
0.0000000000
10
-12.0070833236
20
21.2501074084
30
0.0000000000
10
-12.0061605242
20
21.2322647563
30
0.0000000000
10
-12.0017418315
20
21.2066634676
30
0.0000000000
10
-11.9943845384
20
21.1834106183
30
0.0000000000
10
-11.9841819750
20
21.1629036140
30
0.0000000000
10
-11.9712692390
20
21.1455103697
30
0.0000000000
10
-11.9569918391
20
21.1326221308
30
0.0000000000
10
-11.9467185174
20
21.1263784976
30
0.0000000000
10
-11.9421176961
20
21.1240763309
30
0.0000000000
11
-12.0070833236
21
21.2592902713
31
0.0000000000
11
-12.0055705826
21
21.2317832476
31
0.0000000000
11
-12.0010582496
21
21.2062597380
31
0.0000000000
11
-11.9936233384
21
21.1831560479
31
0.0000000000
11
-11.9833933258
21
21.1628684952
31
0.0000000000
11
-11.9705431064
21
21.1457438585
31
0.0000000000
11
-11.9552932761
21
21.1320758348
31
0.0000000000
11
-11.9421176961
21
21.1240763309
31
0.0000000000
0
SPLINE
5
3D6
100
AcDbEntity
8
0
100
AcDbSpline
62
9
6
CONTINUOUS
70
0
71
3
72
14
73
10
74
8
42
0.0000001000
43
0.0000001000
44
0.0000000001
12
0.0000000000
22
-0.1577595609
32
0.0000000000
13
0.1413741542
23
-0.0707242065
33
0.0000000000
40
0.0000000000
40
0.0000000000
40
0.0000000000
40
0.0000000000
40
0.1746019291
40
0.3388789790
40
0.4927038383
40
0.6367102002
40
0.7724064306
40
0.9022039386
40
1.0000000000
40
1.0000000000
40
1.0000000000
40
1.0000000000
10
-13.6856213940
20
22.0985593065
30
0.0000000000
10
-13.6856213940
20
22.0893775986
30
0.0000000000
10
-13.6846988221
20
22.0715371219
30
0.0000000000
10
-13.6802812876
20
22.0459389378
30
0.0000000000
10
-13.6729259818
20
22.0226885515
30
0.0000000000
10
-13.6627262635
20
22.0021832214
30
0.0000000000
10
-13.6498169379
20
21.9847903312
30
0.0000000000
10
-13.6355363213
20
21.9718951501
30
0.0000000000
10
-13.6252564436
20
21.9656469038
30
0.0000000000
10
-13.6206478318
20
21.9633413875
30
0.0000000000
11
-13.6856213940
21
22.0985593065
31
0.0000000000
11
-13.6841090448
21
22.0710557314
31
0.0000000000
11
-13.6795978741
21
22.0455350994
31
0.0000000000
11
-13.6721650693
21
22.0224340753
31
0.0000000000
11
-13.6619378076
21
22.0021479242
31
0.0000000000
11
-13.6490910804
21
21.9850237477
31
0.0000000000
11
-13.6338446987
21
21.9713545452
31
0.0000000000
11
-13.6206478318
21
21.9633413875
31
0.0000000000
0
SPLINE
5
3D7
100
AcDbEntity
8
0
100
AcDbSpline
62
9
6
CONTINUOUS
70
0
71
3
72
17
73
13
74
11
42
0.0000001000
43
0.0000001000
44
0.0000000001
12
-0.1071215747
22
-0.2788736077
32
0.0000000000
13
-0.2928427406
23
0.0611333747
33
0.0000000000
40
0.0000000000
40
0.0000000000
40
0.0000000000
40
0.0000000000
40
0.1174001578
40
0.2325962789
40
0.3448722947
40
0.4537009878
40
0.5587962401
40
0.6601587203
40
0.7581072288
40
0.8532839516
40
0.9466201971
40
1.0000000000
40
1.0000000000
40
1.0000000000
40
1.0000000000
10
-11.6545613639
20
21.2587775474
30
0.0000000000
10
-11.6587533938
20
21.2478642789
30
0.0000000000
10
-11.6682757021
20
21.2266854317
30
0.0000000000
10
-11.6859223977
20
21.1971345558
30
0.0000000000
10
-11.7064924707
20
21.1705971237
30
0.0000000000
10
-11.7295807814
20
21.1476134473
30
0.0000000000
10
-11.7547363581
20
21.1286507645
30
0.0000000000
10
-11.7814659017
20
21.1141046478
30
0.0000000000
10
-11.8092401187
20
21.1042906157
30
0.0000000000
10
-11.8374960320
20
21.0994356746
30
0.0000000000
10
-11.8617168395
20
21.0996353819
30
0.0000000000
10
-11.8761940986
20
21.1018692449
30
0.0000000000
10
-11.8814047278
20
21.1029570074
30
0.0000000000
11
-11.6545613639
21
21.2587775474
31
0.0000000000
11
-11.6689721003
21
21.2268028140
31
0.0000000000
11
-11.6866550102
21
21.1972796736
31
0.0000000000
11
-11.7072514504
21
21.1708069122
31
0.0000000000
11
-11.7303436854
21
21.1479214481
31
0.0000000000
11
-11.7554633607
21
21.1290874424
31
0.0000000000
11
-11.7821010008
21
21.1146868849
31
0.0000000000
11
-11.8097163435
21
21.1050118464
31
0.0000000000
11
-11.8377492967
21
21.1002585553
31
0.0000000000
11
-11.8656312983
21
21.1005234175
31
0.0000000000
11
-11.8814047278
21
21.1029570074
31
0.0000000000
0
SPLINE
5
3D8
100
AcDbEntity
8
0
100
AcDbSpline
62
9
6
CONTINUOUS
70
0
71
3
72
13
73
9
74
7
42
0.0000001000
43
0.0000001000
44
0.0000000001
12
0.0000104830
22
-0.1197820078
32
0.0000000000
13
-0.1065074733
23
-0.0538770051
33
0.0000000000
40
0.0000000000
40
0.0000000000
40
0.0000000000
40
0.0000000000
40
0.0712762288
40
0.2244083091
40
0.3896427768
40
0.5724464072
40
0.7756749721
40
1.0000000000
40
1.0000000000
40
1.0000000000
40
1.0000000000
10
2.8508375195
20
16.6009559582
30
0.0000000000
10
2.8508377686
20
16.5981100882
30
0.0000000000
10
2.8502348368
20
16.5891503448
30
0.0000000000
10
2.8458781276
20
16.5740708959
30
0.0000000000
10
2.8356124471
20
16.5567703407
30
0.0000000000
10
2.8206676308
20
16.5405435124
30
0.0000000000
10
2.8013942693
20
16.5256251519
30
0.0000000000
10
2.7866086886
20
16.5171119623
30
0.0000000000
10
2.7786445913
20
16.5130833087
30
0.0000000000
11
2.8508375195
21
16.6009559582
31
0.0000000000
11
2.8502624594
21
16.5924462687
31
0.0000000000
11
2.8453282951
21
16.5748471747
31
0.0000000000
11
2.8354524940
21
16.5577757184
31
0.0000000000
11
2.8208346413
21
16.5415769989
31
0.0000000000
11
2.8017701871
21
16.5265784514
31
0.0000000000
11
2.7786445913
21
16.5130833087
31
0.0000000000
0
SPLINE
5
3D9
100
AcDbEntity
8
0
100
AcDbSpline
62
7
6
CONTINUOUS
70
0
71
3
72
17
73
13
74
11
42
0.0000001000
43
0.0000001000
44
0.0000000001
12
0.0000000000
22
0.2935029237
32
0.0000000000
13
0.2617666824
23
0.1327485223
33
0.0000000000
40
0.0000000000
40
0.0000000000
40
0.0000000000
40
0.0000000000
40
0.0951039487
40
0.1951393493
40
0.2988491105
40
0.4047571080
40
0.5112804368
40
0.6167905986
40
0.7197127878
40
0.8186269403
40
0.9123376102
40
1.0000000000
40
1.0000000000
40
1.0000000000
40
1.0000000000
10
-7.7551835342
20
20.5076420316
30
0.0000000000
10
-7.7551835342
20
20.5169464606
30
0.0000000000
10
-7.7539328689
20
20.5360519029
30
0.0000000000
10
-7.7487343221
20
20.5648771859
30
0.0000000000
10
-7.7402870780
20
20.5940246245
30
0.0000000000
10
-7.7287946073
20
20.6227909639
30
0.0000000000
10
-7.7145331669
20
20.6504876469
30
0.0000000000
10
-7.6978451162
20
20.6764486600
30
0.0000000000
10
-7.6791311327
20
20.7000504895
30
0.0000000000
10
-7.6588347884
20
20.7207289090
30
0.0000000000
10
-7.6374424977
20
20.7379857371
30
0.0000000000
10
-7.6222339604
20
20.7472644660
30
0.0000000000
10
-7.6145849294
20
20.7511434836
30
0.0000000000
11
-7.7551835342
21
20.5076420316
31
0.0000000000
11
-7.7534552647
21
20.5355017637
31
0.0000000000
11
-7.7483127558
21
20.5644085844
31
0.0000000000
11
-7.7398815177
21
20.5936567320
31
0.0000000000
11
-7.7283680018
21
20.6225301296
31
0.0000000000
11
-7.7140526427
21
20.6503251830
31
0.0000000000
11
-7.6972858655
21
20.6763610002
31
0.0000000000
11
-7.6784785103
21
20.7000000451
31
0.0000000000
11
-7.6580889329
21
20.7206664072
31
0.0000000000
11
-7.6366163148
21
20.7378540844
31
0.0000000000
11
-7.6145849294
21
20.7511434836
31
0.0000000000
0
SPLINE
5
3DA
100
AcDbEntity
8
0
100
AcDbSpline
62
9
6
CONTINUOUS
70
0
71
3
72
12
73
8
74
6
42
0.0000001000
43
0.0000001000
44
0.0000000001
12
0.0388152697
22
-0.0631894887
32
0.0000000000
13
-0.0412266856
23
-0.0624729094
33
0.0000000000
40
0.0000000000
40
0.0000000000
40
0.0000000000
40
0.0000000000
40
0.2989687631
40
0.5493217573
40
0.7517111555
40
0.9129241476
40
1.0000000000
40
1.0000000000
40
1.0000000000
40
1.0000000000
10
-9.5250134013
20
22.3173807883
30
0.0000000000
10
-9.5211452169
20
22.3110835606
30
0.0000000000
10
-9.5144959598
20
22.2992154806
30
0.0000000000
10
-9.5073675868
20
22.2819859204
30
0.0000000000
10
-9.5040500950
20
22.2670761121
30
0.0000000000
10
-9.5046358958
20
22.2557088841
30
0.0000000000
10
-9.5072744002
20
22.2499903464
30
0.0000000000
10
-9.5084710164
20
22.2481770524
30
0.0000000000
11
-9.5250134013
21
22.3173807883
31
0.0000000000
11
-9.5143340657
21
22.2979510909
31
0.0000000000
11
-9.5074774958
21
22.2806976905
31
0.0000000000
11
-9.5045827560
21
22.2659705190
31
0.0000000000
11
-9.5057085573
21
22.2540682719
31
0.0000000000
11
-9.5084710164
21
22.2481770524
31
0.0000000000
0
SPLINE
5
3DB
100
AcDbEntity
8
0
100
AcDbSpline
62
9
6
CONTINUOUS
70
0
71
3
72
8
73
4
74
2
42
0.0000001000
43
0.0000001000
44
0.0000000001
12
-0.0011115853
22
-0.0016844421
32
0.0000000000
13
-0.0012664445
23
-0.0015626989
33
0.0000000000
40
0.0000000000
40
0.0000000000
40
0.0000000000
40
0.0000000000
40
1.0000000000
40
1.0000000000
40
1.0000000000
40
1.0000000000
10
-9.5084710164
20
22.2481770524
30
0.0000000000
10
-9.5088415449
20
22.2476155717
30
0.0000000000
10
-9.5092380842
20
22.2470725212
30
0.0000000000
10
-9.5096602323
20
22.2465516216
30
0.0000000000
11
-9.5084710164
21
22.2481770524
31
0.0000000000
11
-9.5096602323
21
22.2465516216
31
0.0000000000
0
SPLINE
5
3DC
100
AcDbEntity
8
0
100
AcDbSpline
62
9
6
CONTINUOUS
70
0
71
3
72
17
73
13
74
11
42
0.0000001000
43
0.0000001000
44
0.0000000001
12
0.0000000000
22
0.2935029484
32
0.0000000000
13
0.2617667045
23
0.1327485335
33
0.0000000000
40
0.0000000000
40
0.0000000000
40
0.0000000000
40
0.0000000000
40
0.0951248516
40
0.1951845763
40
0.2989176042
40
0.4048508556
40
0.5113920684
40
0.6169163707
40
0.7198562270
40
0.8187741003
40
0.9124874805
40
1.0000000000
40
1.0000000000
40
1.0000000000
40
1.0000000000
10
-6.1288379375
20
19.6944692332
30
0.0000000000
10
-6.1288379375
20
19.7037757080
30
0.0000000000
10
-6.1275867094
20
19.7228855843
30
0.0000000000
10
-6.1223859145
20
19.7517173072
30
0.0000000000
10
-6.1139350578
20
19.7808711526
30
0.0000000000
10
-6.1024380327
20
19.8096427037
30
0.0000000000
10
-6.0881714680
20
19.8373430821
30
0.0000000000
10
-6.0714779405
20
19.8633063850
30
0.0000000000
10
-6.0527586302
20
19.8869084851
30
0.0000000000
10
-6.0324572782
20
19.9075853181
30
0.0000000000
10
-6.0110725090
20
19.9248292286
30
0.0000000000
10
-5.9958752873
20
19.9340982990
30
0.0000000000
10
-5.9882393327
20
19.9379706852
30
0.0000000000
11
-6.1288379375
21
19.6944692332
31
0.0000000000
11
-6.1271089292
21
19.7223350688
31
0.0000000000
11
-6.1219641360
21
19.7512487368
31
0.0000000000
11
-6.1135293840
21
19.7805029810
31
0.0000000000
11
-6.1020109735
21
19.8093824092
31
0.0000000000
11
-6.0876906342
21
19.8371808047
31
0.0000000000
11
-6.0709187371
21
19.8632182641
31
0.0000000000
11
-6.0521049651
21
19.8868588329
31
0.0000000000
11
-6.0317112330
21
19.9075226330
31
0.0000000000
11
-6.0102346065
21
19.9247065784
31
0.0000000000
11
-5.9882393327
21
19.9379706852
31
0.0000000000
0
SPLINE
5
3DD
100
AcDbEntity
8
0
100
AcDbSpline
62
9
6
CONTINUOUS
70
0
71
3
72
11
73
7
74
5
42
0.0000001000
43
0.0000001000
44
0.0000000001
12
0.0000000000
22
0.1187597617
32
0.0000000000
13
0.0492611365
23
0.1081119530
33
0.0000000000
40
0.0000000000
40
0.0000000000
40
0.0000000000
40
0.0000000000
40
0.2346409787
40
0.4818824824
40
0.7382074695
40
1.0000000000
40
1.0000000000
40
1.0000000000
40
1.0000000000
10
-4.4317816626
20
18.8459410958
30
0.0000000000
10
-4.4317816626
20
18.8552297314
30
0.0000000000
10
-4.4305340974
20
18.8743198719
30
0.0000000000
10
-4.4253430475
20
18.9031317351
30
0.0000000000
10
-4.4168991945
20
18.9322835513
30
0.0000000000
10
-4.4092804927
20
18.9513605956
30
0.0000000000
10
-4.4049817602
20
18.9607948962
30
0.0000000000
11
-4.4317816626
21
18.8459410958
31
0.0000000000
11
-4.4300590916
21
18.8737537099
31
0.0000000000
11
-4.4249212893
21
18.9026630531
31
0.0000000000
11
-4.4164938634
21
18.9319143559
31
0.0000000000
11
-4.4049817602
21
18.9607948962
31
0.0000000000
0
SPLINE
5
3DE
100
AcDbEntity
8
0
100
AcDbSpline
62
9
6
CONTINUOUS
70
0
71
3
72
13
73
9
74
7
42
0.0000001000
43
0.0000001000
44
0.0000000001
12
0.0690086423
22
0.1514512175
32
0.0000000000
13
0.1445678238
23
0.0825570551
33
0.0000000000
40
0.0000000000
40
0.0000000000
40
0.0000000000
40
0.0000000000
40
0.1879560840
40
0.3741302035
40
0.5557499094
40
0.7302936774
40
0.8956577640
40
1.0000000000
40
1.0000000000
40
1.0000000000
40
1.0000000000
10
-4.4049817602
20
18.9607948962
30
0.0000000000
10
-4.4006582288
20
18.9702836221
30
0.0000000000
10
-4.3911477038
20
18.9887585797
30
0.0000000000
10
-4.3744587854
20
19.0147263074
30
0.0000000000
10
-4.3557424550
20
19.0383349201
30
0.0000000000
10
-4.3354423848
20
19.0590196776
30
0.0000000000
10
-4.3162237243
20
19.0745244062
30
0.0000000000
10
-4.3035857271
20
19.0825960331
30
0.0000000000
10
-4.2985575505
20
19.0854674290
30
0.0000000000
11
-4.4049817602
21
18.9607948962
31
0.0000000000
11
-4.3906671802
21
18.9885958251
31
0.0000000000
11
-4.3738997365
21
19.0146380800
31
0.0000000000
11
-4.3550894839
21
19.0382845889
31
0.0000000000
11
-4.3346963837
21
19.0589570412
31
0.0000000000
11
-4.3132191206
21
19.0761498717
31
0.0000000000
11
-4.2985575505
21
19.0854674290
31
0.0000000000
0
SPLINE
5
3DF
100
AcDbEntity
8
0
100
AcDbSpline
62
9
6
CONTINUOUS
70
0
71
3
72
8
73
4
74
2
42
0.0000001000
43
0.0000001000
44
0.0000000001
12
0.0072782181
22
0.0041563070
32
0.0000000000
13
0.0074700539
23
0.0037882537
33
0.0000000000
40
0.0000000000
40
0.0000000000
40
0.0000000000
40
0.0000000000
40
1.0000000000
40
1.0000000000
40
1.0000000000
40
1.0000000000
10
-4.2985575505
20
19.0854674290
30
0.0000000000
10
-4.2961314778
20
19.0868528647
30
0.0000000000
10
-4.2936730758
20
19.0881797965
30
0.0000000000
10
-4.2911830579
20
19.0894425478
30
0.0000000000
11
-4.2985575505
21
19.0854674290
31
0.0000000000
11
-4.2911830579
21
19.0894425478
31
0.0000000000
0
SPLINE
5
3E0
100
AcDbEntity
8
0
100
AcDbSpline
62
9
6
CONTINUOUS
70
0
71
3
72
14
73
10
74
8
42
0.0000001000
43
0.0000001000
44
0.0000000001
12
0.0000000000
22
-0.1577567877
32
0.0000000000
13
0.1413696471
23
-0.0707271728
33
0.0000000000
40
0.0000000000
40
0.0000000000
40
0.0000000000
40
0.0000000000
40
0.1744511310
40
0.3387585213
40
0.4926109093
40
0.6366463928
40
0.7723670359
40
0.9021877439
40
1.0000000000
40
1.0000000000
40
1.0000000000
40
1.0000000000
10
0.2965746691
20
15.1074612749
30
0.0000000000
10
0.2965746691
20
15.0982876583
30
0.0000000000
10
0.2974960899
20
15.0804538943
30
0.0000000000
10
0.3019099277
20
15.0548604946
30
0.0000000000
10
0.3092639707
20
15.0316053461
30
0.0000000000
10
0.3194633127
20
15.0110954793
30
0.0000000000
10
0.3323732834
20
14.9936984621
30
0.0000000000
10
0.3466553028
20
14.9808002426
30
0.0000000000
10
0.3569365327
20
14.9745505863
30
0.0000000000
10
0.3615457608
20
14.9722445915
30
0.0000000000
11
0.2965746691
21
15.1074612749
31
0.0000000000
11
0.2980842750
21
15.0799818594
31
0.0000000000
11
0.3025934234
21
15.0544564720
31
0.0000000000
11
0.3100249397
21
15.0313509196
31
0.0000000000
11
0.3202520313
21
15.0110599851
31
0.0000000000
11
0.3330993404
21
14.9939319012
31
0.0000000000
11
0.3483472697
21
14.9802594814
31
0.0000000000
11
0.3615457608
21
14.9722445915
31
0.0000000000
0
SPLINE
5
3E1
100
AcDbEntity
8
0
100
AcDbSpline
62
9
6
CONTINUOUS
70
0
71
3
72
14
73
10
74
8
42
0.0000001000
43
0.0000001000
44
0.0000000001
12
0.0000000000
22
-0.1490361395
32
0.0000000000
13
0.1267771955
23
-0.0788611232
33
0.0000000000
40
0.0000000000
40
0.0000000000
40
0.0000000000
40
0.0000000000
40
0.1848450229
40
0.3587579493
40
0.5216078829
40
0.6740599693
40
0.8177153386
40
0.9551221380
40
1.0000000000
40
1.0000000000
40
1.0000000000
40
1.0000000000
10
-1.3819634013
20
15.9467303101
30
0.0000000000
10
-1.3819634013
20
15.9375474473
30
0.0000000000
10
-1.3810406020
20
15.9197047952
30
0.0000000000
10
-1.3766219093
20
15.8941035065
30
0.0000000000
10
-1.3692646162
20
15.8708506572
30
0.0000000000
10
-1.3590620528
20
15.8503436529
30
0.0000000000
10
-1.3461493168
20
15.8329504086
30
0.0000000000
10
-1.3340436332
20
15.8220225826
30
0.0000000000
10
-1.3265102073
20
15.8169591485
30
0.0000000000
10
-1.3246137108
20
15.8157794423
30
0.0000000000
11
-1.3819634013
21
15.9467303101
31
0.0000000000
11
-1.3804506604
21
15.9192232865
31
0.0000000000
11
-1.3759383274
21
15.8936997769
31
0.0000000000
11
-1.3685034162
21
15.8705960867
31
0.0000000000
11
-1.3582734035
21
15.8503085340
31
0.0000000000
11
-1.3454231841
21
15.8331838974
31
0.0000000000
11
-1.3301733539
21
15.8195158737
31
0.0000000000
11
-1.3246137108
21
15.8157794423
31
0.0000000000
0
SPLINE
5
3E2
100
AcDbEntity
8
0
100
AcDbSpline
62
9
6
CONTINUOUS
70
0
71
3
72
8
73
4
74
2
42
0.0000001000
43
0.0000001000
44
0.0000000001
12
0.0074217256
22
-0.0046166475
32
0.0000000000
13
0.0078186634
23
-0.0039112413
33
0.0000000000
40
0.0000000000
40
0.0000000000
40
0.0000000000
40
0.0000000000
40
1.0000000000
40
1.0000000000
40
1.0000000000
40
1.0000000000
10
-1.3246137108
20
15.8157794423
30
0.0000000000
10
-1.3221398023
20
15.8142405598
30
0.0000000000
10
-1.3195947783
20
15.8128155056
30
0.0000000000
10
-1.3169885572
20
15.8115117585
30
0.0000000000
11
-1.3246137108
21
15.8157794423
31
0.0000000000
11
-1.3169885572
21
15.8115117585
31
0.0000000000
0
SPLINE
5
3E3
100
AcDbEntity
8
0
100
AcDbSpline
62
7
6
CONTINUOUS
70
0
71
3
72
21
73
17
74
15
42
0.0000001000
43
0.0000001000
44
0.0000000001
12
-0.2294421987
22
-0.2746997681
32
0.0000000000
13
-0.3506308322
23
0.0730922906
33
0.0000000000
40
0.0000000000
40
0.0000000000
40
0.0000000000
40
0.0000000000
40
0.0745833692
40
0.1507491057
40
0.2281482373
40
0.3064038866
40
0.3851180399
40
0.4638795582
40
0.5422714814
40
0.6198805498
40
0.6963092492
40
0.7711917554
40
0.8442154395
40
0.9151497249
40
0.9838856802
40
1.0000000000
40
1.0000000000
40
1.0000000000
40
1.0000000000
10
1.3603172368
20
14.9584450282
30
0.0000000000
10
1.3546130461
20
14.9516156835
30
0.0000000000
10
1.3426211575
20
14.9381916947
30
0.0000000000
10
1.3232005839
20
14.9190944676
30
0.0000000000
10
1.3022592482
20
14.9009983887
30
0.0000000000
10
1.2799481426
20
14.8841116355
30
0.0000000000
10
1.2564371816
20
14.8686400782
30
0.0000000000
10
1.2319167851
20
14.8547878781
30
0.0000000000
10
1.2065975196
20
14.8427555925
30
0.0000000000
10
1.1807105693
20
14.8327388787
30
0.0000000000
10
1.1545080358
20
14.8249267353
30
0.0000000000
10
1.1282632646
20
14.8194993001
30
0.0000000000
10
1.1022706387
20
14.8166255761
30
0.0000000000
10
1.0768455805
20
14.8164592792
30
0.0000000000
10
1.0583231898
20
14.8184836421
30
0.0000000000
10
1.0483733600
20
14.8203930697
30
0.0000000000
10
1.0464899676
20
14.8207856806
30
0.0000000000
11
1.3603172368
21
14.9584450282
31
0.0000000000
11
1.3425413523
21
14.9385297676
31
0.0000000000
11
1.3231086931
21
14.9194109460
31
0.0000000000
11
1.3021494895
21
14.9012965043
31
0.0000000000
11
1.2798146789
21
14.8843951325
31
0.0000000000
11
1.2562757882
21
14.8689148049
31
0.0000000000
11
1.2317247228
21
14.8550612634
31
0.0000000000
11
1.2063742349
21
14.8430368081
31
0.0000000000
11
1.1804584372
21
14.8330387393
31
0.0000000000
11
1.1542334687
21
14.8252574161
31
0.0000000000
11
1.1279781277
21
14.8198737037
31
0.0000000000
11
1.1019941742
21
14.8170555949
31
0.0000000000
11
1.0766058800
21
14.8169538637
31
0.0000000000
11
1.0521576000
21
14.8196969131
31
0.0000000000
11
1.0464899676
21
14.8207856806
31
0.0000000000
0
SPLINE
5
3E4
100
AcDbEntity
8
0
100
AcDbSpline
62
7
6
CONTINUOUS
70
0
71
3
72
10
73
6
74
4
42
0.0000001000
43
0.0000001000
44
0.0000000001
12
0.1317500075
22
0.0653489750
32
0.0000000000
13
0.1394428683
23
-0.0467358479
33
0.0000000000
40
0.0000000000
40
0.0000000000
40
0.0000000000
40
0.0000000000
40
0.4838203615
40
0.8259330683
40
1.0000000000
40
1.0000000000
40
1.0000000000
40
1.0000000000
10
8.7506338268
20
-18.7568940131
30
0.0000000000
10
8.7718816055
20
-18.7463549582
30
0.0000000000
10
8.8088288424
20
-18.7282297430
30
0.0000000000
10
8.8532060218
20
-18.7118852293
30
0.0000000000
10
8.8793936169
20
-18.7027919754
30
0.0000000000
10
8.8874844143
20
-18.7055036973
30
0.0000000000
11
8.7506338268
21
-18.7568940131
31
0.0000000000
11
8.8150668733
21
-18.7267072521
31
0.0000000000
11
8.8621046806
21
-18.7088501973
31
0.0000000000
11
8.8874844143
21
-18.7055036973
31
0.0000000000
0
SPLINE
5
3E5
100
AcDbEntity
8
0
100
AcDbSpline
62
9
6
CONTINUOUS
70
0
71
3
72
17
73
13
74
11
42
0.0000001000
43
0.0000001000
44
0.0000000001
12
-0.1071215768
22
-0.2788736131
32
0.0000000000
13
-0.2928428155
23
0.0611334054
33
0.0000000000
40
0.0000000000
40
0.0000000000
40
0.0000000000
40
0.0000000000
40
0.1173242883
40
0.2325238537
40
0.3448036063
40
0.4536426182
40
0.5587477059
40
0.6601200320
40
0.7580776417
40
0.8532627790
40
0.9466069026
40
1.0000000000
40
1.0000000000
40
1.0000000000
40
1.0000000000
10
0.6490966287
20
15.1069485511
30
0.0000000000
10
0.6449073078
20
15.0960423350
30
0.0000000000
10
0.6353887613
20
15.0748698205
30
0.0000000000
10
0.6177478263
20
15.0453234758
30
0.0000000000
10
0.5971787653
20
15.0187830582
30
0.0000000000
10
0.5740905427
20
14.9957958985
30
0.0000000000
10
0.5489339441
20
14.9768295783
30
0.0000000000
10
0.5222028258
20
14.9622803094
30
0.0000000000
10
0.4944265782
20
14.9524637604
30
0.0000000000
10
0.4661683670
20
14.9476070647
30
0.0000000000
10
0.4419445688
20
14.9478059825
30
0.0000000000
10
0.4274651783
20
14.9500399803
30
0.0000000000
10
0.4222532500
20
14.9511280143
30
0.0000000000
11
0.6490966287
21
15.1069485511
31
0.0000000000
11
0.6346963948
21
15.0749939444
31
0.0000000000
11
0.6170152125
21
15.0454685692
31
0.0000000000
11
0.5964201658
21
15.0189933086
31
0.0000000000
11
0.5733275161
21
14.9961038828
31
0.0000000000
11
0.5482068539
21
14.9772662947
31
0.0000000000
11
0.5215675737
21
14.9628625848
31
0.0000000000
11
0.4939502164
21
14.9531850717
31
0.0000000000
11
0.4659150039
21
14.9484300655
31
0.0000000000
11
0.4380306397
21
14.9486940240
31
0.0000000000
11
0.4222532500
21
14.9511280143
31
0.0000000000
0
SPLINE
5
3E6
100
AcDbEntity
8
0
100
AcDbSpline
62
9
6
CONTINUOUS
70
0
71
3
72
12
73
8
74
6
42
0.0000001000
43
0.0000001000
44
0.0000000001
12
0.0398618365
22
-0.0648932518
32
0.0000000000
13
-0.0482365783
23
-0.0595203730
33
0.0000000000
40
0.0000000000
40
0.0000000000
40
0.0000000000
40
0.0000000000
40
0.2911193810
40
0.5348993931
40
0.7319750866
40
0.8889554546
40
1.0000000000
40
1.0000000000
40
1.0000000000
40
1.0000000000
10
2.7786445913
20
16.1655517920
30
0.0000000000
10
2.7825127757
20
16.1592545642
30
0.0000000000
10
2.7891620329
20
16.1473864843
30
0.0000000000
10
2.7962904058
20
16.1301569241
30
0.0000000000
10
2.7996078977
20
16.1152471158
30
0.0000000000
10
2.7989870501
20
16.1031998198
30
0.0000000000
10
2.7957832300
20
16.0969257629
30
0.0000000000
10
2.7939977603
20
16.0947226253
30
0.0000000000
11
2.7786445913
21
16.1655517920
31
0.0000000000
11
2.7893239270
21
16.1461220946
31
0.0000000000
11
2.7961804968
21
16.1288686941
31
0.0000000000
11
2.7990752366
21
16.1141415227
31
0.0000000000
11
2.7979494354
21
16.1022392755
31
0.0000000000
11
2.7939977603
21
16.0947226253
31
0.0000000000
0
SPLINE
5
3E7
100
AcDbEntity
8
0
100
AcDbSpline
62
7
6
CONTINUOUS
70
0
71
3
72
12
73
8
74
6
42
0.0000001000
43
0.0000001000
44
0.0000000001
12
-0.0882344620
22
0.0441172310
32
0.0000000000
13
-0.0000088153
23
0.0989577355
33
0.0000000000
40
0.0000000000
40
0.0000000000
40
0.0000000000
40
0.0000000000
40
0.2398059241
40
0.4563658315
40
0.6514132241
40
0.8297886218
40
1.0000000000
40
1.0000000000
40
1.0000000000
40
1.0000000000
10
-4.4317816626
20
17.6123267441
30
0.0000000000
10
-4.4388347115
20
17.6158532686
30
0.0000000000
10
-4.4518617425
20
17.6234249682
30
0.0000000000
10
-4.4685111757
20
17.6370745156
30
0.0000000000
10
-4.4808953262
20
17.6522123613
30
0.0000000000
10
-4.4886055955
20
17.6685784064
30
0.0000000000
10
-4.4903598102
20
17.6800813440
30
0.0000000000
10
-4.4903603104
20
17.6856959216
30
0.0000000000
11
-4.4317816626
21
17.6123267441
31
0.0000000000
11
-4.4521490101
21
17.6243603644
31
0.0000000000
11
-4.4685405112
21
17.6380612956
31
0.0000000000
11
-4.4805517119
21
17.6530931602
31
0.0000000000
11
-4.4878861619
21
17.6690883276
31
0.0000000000
11
-4.4903603104
21
17.6856959216
31
0.0000000000
0
SPLINE
5
3E8
100
AcDbEntity
8
0
100
AcDbSpline
62
7
6
CONTINUOUS
70
0
71
3
72
11
73
7
74
5
42
0.0000001000
43
0.0000001000
44
0.0000000001
12
-0.0411805884
22
0.0248389675
32
0.0000000000
13
-0.0455140504
23
-0.0117630803
33
0.0000000000
40
0.0000000000
40
0.0000000000
40
0.0000000000
40
0.0000000000
40
0.0049185286
40
0.2369771380
40
0.5699633257
40
1.0000000000
40
1.0000000000
40
1.0000000000
40
1.0000000000
10
-1.9374614069
20
23.5185430127
30
0.0000000000
10
-1.9375289229
20
23.5185837364
30
0.0000000000
10
-1.9407956415
20
23.5205102207
30
0.0000000000
10
-1.9501051890
20
23.5209282453
30
0.0000000000
10
-1.9654362356
20
23.5194383449
30
0.0000000000
10
-1.9771269575
20
23.5167433741
30
0.0000000000
10
-1.9836511945
20
23.5150571888
30
0.0000000000
11
-1.9374614069
21
23.5185430127
31
0.0000000000
11
-1.9376647864
21
23.5186629508
31
0.0000000000
11
-1.9483683546
21
23.5206416284
31
0.0000000000
11
-1.9639286093
21
23.5192879796
31
0.0000000000
11
-1.9836511945
21
23.5150571888
31
0.0000000000
0
SPLINE
5
3E9
100
AcDbEntity
8
0
100
AcDbSpline
62
7
6
CONTINUOUS
70
0
71
3
72
10
73
6
74
4
42
0.0000001000
43
0.0000001000
44
0.0000000001
12
-0.0834376104
22
-0.0215644026
32
0.0000000000
13
-0.0802616271
23
-0.0308580255
33
0.0000000000
40
0.0000000000
40
0.0000000000
40
0.0000000000
40
0.0000000000
40
0.2857859049
40
0.6202419717
40
1.0000000000
40
1.0000000000
40
1.0000000000
40
1.0000000000
10
-1.9836511945
20
23.5150571888
30
0.0000000000
10
-1.9915996255
20
23.5130029214
30
0.0000000000
10
-2.0086420106
20
23.5080055911
30
0.0000000000
10
-2.0357872290
20
23.4987457589
30
0.0000000000
10
-2.0549654674
20
23.4915877430
30
0.0000000000
10
-2.0651254665
20
23.4876815487
30
0.0000000000
11
-1.9836511945
21
23.5150571888
31
0.0000000000
11
-2.0072610125
21
23.5082393493
31
0.0000000000
11
-2.0345116086
21
23.4990458405
31
0.0000000000
11
-2.0651254665
21
23.4876815487
31
0.0000000000
0
SPLINE
5
3EA
100
AcDbEntity
8
0
100
AcDbSpline
62
7
6
CONTINUOUS
70
0
71
3
72
10
73
6
74
4
42
0.0000001000
43
0.0000001000
44
0.0000000001
12
-0.0400403124
22
0.0241604109
32
0.0000000000
13
-0.0446378892
23
-0.0113911328
33
0.0000000000
40
0.0000000000
40
0.0000000000
40
0.0000000000
40
0.0000000000
40
0.2321106866
40
0.5668595299
40
1.0000000000
40
1.0000000000
40
1.0000000000
40
1.0000000000
10
3.6529998681
20
20.7233355946
30
0.0000000000
10
3.6499019400
20
20.7252048911
30
0.0000000000
10
3.6407907356
20
20.7257200580
30
0.0000000000
10
3.6257085707
20
20.7243307943
30
0.0000000000
10
3.6141659287
20
20.7217142991
30
0.0000000000
10
3.6077211032
20
20.7200696455
30
0.0000000000
11
3.6529998681
21
20.7233355946
31
0.0000000000
11
3.6425346343
21
20.7254083665
31
0.0000000000
11
3.6271999012
21
20.7241729850
31
0.0000000000
11
3.6077211032
21
20.7200696455
31
0.0000000000
0
SPLINE
5
3EB
100
AcDbEntity
8
0
100
AcDbSpline
62
7
6
CONTINUOUS
70
0
71
3
72
10
73
6
74
4
42
0.0000001000
43
0.0000001000
44
0.0000000001
12
-0.0825135484
22
-0.0210566137
32
0.0000000000
13
-0.0793327042
23
-0.0303890289
33
0.0000000000
40
0.0000000000
40
0.0000000000
40
0.0000000000
40
0.0000000000
40
0.2856383134
40
0.6200899467
40
1.0000000000
40
1.0000000000
40
1.0000000000
40
1.0000000000
10
3.6077211032
20
20.7200696455
30
0.0000000000
10
3.5998647596
20
20.7180647870
30
0.0000000000
10
3.5830223648
20
20.7131679909
30
0.0000000000
10
3.5561865072
20
20.7040672497
30
0.0000000000
10
3.5372258636
20
20.6970197550
30
0.0000000000
10
3.5271794330
20
20.6931713891
30
0.0000000000
11
3.6077211032
21
20.7200696455
31
0.0000000000
11
3.5843910028
21
20.7133950699
31
0.0000000000
11
3.5574524242
21
20.7043612146
31
0.0000000000
11
3.5271794330
21
20.6931713891
31
0.0000000000
0
SPLINE
5
3EC
100
AcDbEntity
8
0
100
AcDbSpline
62
9
6
CONTINUOUS
70
0
71
3
72
13
73
9
74
7
42
0.0000001000
43
0.0000001000
44
0.0000000001
12
-0.0862260643
22
0.0431130322
32
0.0000000000
13
-0.0000000000
23
0.0967481053
33
0.0000000000
40
0.0000000000
40
0.0000000000
40
0.0000000000
40
0.0000000000
40
0.2237962451
40
0.4265563558
40
0.6088866355
40
0.7735685378
40
0.9259995157
40
1.0000000000
40
1.0000000000
40
1.0000000000
40
1.0000000000
10
-4.4317816626
20
18.8459410958
30
0.0000000000
10
-4.4382140191
20
18.8491572740
30
0.0000000000
10
-4.4501610249
20
18.8559591471
30
0.0000000000
10
-4.4657541860
20
18.8678952918
30
0.0000000000
10
-4.4778700229
20
18.8808925957
30
0.0000000000
10
-4.4862246758
20
18.8947620779
30
0.0000000000
10
-4.4898406411
20
18.9069630334
30
0.0000000000
10
-4.4903562814
20
18.9142653050
30
0.0000000000
10
-4.4903562814
20
18.9166517739
30
0.0000000000
11
-4.4317816626
21
18.8459410958
31
0.0000000000
11
-4.4504685546
21
18.8567240073
31
0.0000000000
11
-4.4658961043
21
18.8687268753
31
0.0000000000
11
-4.4777502514
21
18.8817053560
31
0.0000000000
11
-4.4857896796
21
18.8953952450
31
0.0000000000
11
-4.4898507293
21
18.9095178556
31
0.0000000000
11
-4.4903562814
21
18.9166517739
31
0.0000000000
0
SPLINE
5
3ED
100
AcDbEntity
8
0
100
AcDbSpline
62
9
6
CONTINUOUS
70
0
71
3
72
12
73
8
74
6
42
0.0000001000
43
0.0000001000
44
0.0000000001
12
-0.0832315549
22
0.0416157774
32
0.0000000000
13
-0.0831914066
23
-0.0421529975
33
0.0000000000
40
0.0000000000
40
0.0000000000
40
0.0000000000
40
0.0000000000
40
0.2339206868
40
0.4513027418
40
0.6542509927
40
0.8466314457
40
1.0000000000
40
1.0000000000
40
1.0000000000
40
1.0000000000
10
-4.2911830579
20
19.0894425478
30
0.0000000000
10
-4.2976729187
20
19.0926874782
30
0.0000000000
10
-4.3106385322
20
19.0981231277
30
0.0000000000
10
-4.3304616089
20
19.1029036478
30
0.0000000000
10
-4.3495687761
20
19.1038736127
30
0.0000000000
10
-4.3665068062
20
19.1011149299
30
0.0000000000
10
-4.3765650626
20
19.0971802665
30
0.0000000000
10
-4.3808180445
20
19.0950252850
30
0.0000000000
11
-4.2911830579
21
19.0894425478
31
0.0000000000
11
-4.3113039821
21
19.0977479202
31
0.0000000000
11
-4.3309985170
21
19.1023656260
31
0.0000000000
11
-4.3498654991
21
19.1032015883
31
0.0000000000
11
-4.3675207267
21
19.1002388037
31
0.0000000000
11
-4.3808180445
21
19.0950252850
31
0.0000000000
0
SPLINE
5
3EE
100
AcDbEntity
8
0
100
AcDbSpline
62
7
6
CONTINUOUS
70
0
71
3
72
13
73
9
74
7
42
0.0000001000
43
0.0000001000
44
0.0000000001
12
-0.0826605977
22
0.0413302989
32
0.0000000000
13
-0.0830397523
23
-0.0409544820
33
0.0000000000
40
0.0000000000
40
0.0000000000
40
0.0000000000
40
0.0000000000
40
0.2166199280
40
0.4192906031
40
0.6095062040
40
0.7899981979
40
0.9646612274
40
1.0000000000
40
1.0000000000
40
1.0000000000
40
1.0000000000
10
-4.0782282720
20
19.1974373196
30
0.0000000000
10
-4.0841969163
20
19.2004216417
30
0.0000000000
10
-4.0961268883
20
19.2054931291
30
0.0000000000
10
-4.1143615242
20
19.2102691949
30
0.0000000000
10
-4.1320473910
20
19.2118551066
30
0.0000000000
10
-4.1488750431
20
19.2101810662
30
0.0000000000
10
-4.1604324408
20
19.2065299284
30
0.0000000000
10
-4.1663076092
20
19.2037900244
30
0.0000000000
10
-4.1672857835
20
19.2033075974
30
0.0000000000
11
-4.0782282720
21
19.1974373196
31
0.0000000000
11
-4.0966876588
21
19.2051851629
31
0.0000000000
11
-4.1148311597
21
19.2098367296
31
0.0000000000
11
-4.1323483327
21
19.2113124465
31
0.0000000000
11
-4.1489394539
21
19.2095870809
31
0.0000000000
11
-4.1643206465
21
19.2046901727
31
0.0000000000
11
-4.1672857835
21
19.2033075974
31
0.0000000000
0
SPLINE
5
3EF
100
AcDbEntity
8
0
100
AcDbSpline
62
7
6
CONTINUOUS
70
0
71
3
72
19
73
15
74
13
42
0.0000001000
43
0.0000001000
44
0.0000000001
12
0.2633824730
22
-0.1316912365
32
0.0000000000
13
0.0000000000
23
-0.2944705568
33
0.0000000000
40
0.0000000000
40
0.0000000000
40
0.0000000000
40
0.0000000000
40
0.0724762471
40
0.1492586289
40
0.2299202296
40
0.3138455594
40
0.4002771916
40
0.4883572384
40
0.5771652356
40
0.6657538939
40
0.7531839692
40
0.8385593913
40
0.9210638234
40
1.0000000000
40
1.0000000000
40
1.0000000000
40
1.0000000000
10
-5.7752845469
20
20.0459654570
30
0.0000000000
10
-5.7689215558
20
20.0427839615
30
0.0000000000
10
-5.7562400473
20
20.0353630892
30
0.0000000000
10
-5.7381376592
20
20.0218198892
30
0.0000000000
10
-5.7206716896
20
20.0057561110
30
0.0000000000
10
-5.7041370365
20
19.9874449067
30
0.0000000000
10
-5.6888091540
20
19.9671942694
30
0.0000000000
10
-5.6749463271
20
19.9453461638
30
0.0000000000
10
-5.6627823790
20
19.9222697157
30
0.0000000000
10
-5.6525228993
20
19.8983549494
30
0.0000000000
10
-5.6443413596
20
19.8740062563
30
0.0000000000
10
-5.6383761921
20
19.8496333768
30
0.0000000000
10
-5.6347287304
20
19.8256503134
30
0.0000000000
10
-5.6338631907
20
19.8097948936
30
0.0000000000
10
-5.6338631907
20
19.8020467669
30
0.0000000000
11
-5.7752845469
21
20.0459654570
31
0.0000000000
11
-5.7568251602
21
20.0352539136
31
0.0000000000
11
-5.7386816592
21
20.0217619793
31
0.0000000000
11
-5.7211644862
21
20.0057205232
31
0.0000000000
11
-5.7045733650
21
19.9874040364
31
0.0000000000
11
-5.6891921724
21
19.9671259356
31
0.0000000000
11
-5.6752840797
21
19.9452331991
31
0.0000000000
11
-5.6630870501
21
19.9221004286
31
0.0000000000
11
-5.6528097665
21
19.8981234387
31
0.0000000000
11
-5.6446280623
21
19.8737124830
31
0.0000000000
11
-5.6386819133
21
19.8492852344
31
0.0000000000
11
-5.6350730445
21
19.8252596394
31
0.0000000000
11
-5.6338631907
21
19.8020467669
31
0.0000000000
0
SPLINE
5
3F0
100
AcDbEntity
8
0
100
AcDbSpline
62
9
6
CONTINUOUS
70
0
71
3
72
18
73
14
74
12
42
0.0000001000
43
0.0000001000
44
0.0000000001
12
0.2633031070
22
-0.1316515535
32
0.0000000000
13
0.0014016971
23
-0.2943784859
33
0.0000000000
40
0.0000000000
40
0.0000000000
40
0.0000000000
40
0.0000000000
40
0.0793146232
40
0.1637412334
40
0.2526761866
40
0.3452624229
40
0.4404596569
40
0.5371064943
40
0.6339774122
40
0.7298371586
40
0.8234947706
40
0.9138593500
40
1.0000000000
40
1.0000000000
40
1.0000000000
40
1.0000000000
10
-5.9882393327
20
19.9379706852
30
0.0000000000
10
-5.9812780705
20
19.9344900541
30
0.0000000000
10
-5.9674108022
20
19.9262675905
30
0.0000000000
10
-5.9477272734
20
19.9111092299
30
0.0000000000
10
-5.9288503161
20
19.8930217881
30
0.0000000000
10
-5.9111581638
20
19.8723698669
30
0.0000000000
10
-5.8950008498
20
19.8495657157
30
0.0000000000
10
-5.8807019051
20
19.8250666071
30
0.0000000000
10
-5.8685478552
20
19.7993638886
30
0.0000000000
10
-5.8587826794
20
19.7729736459
30
0.0000000000
10
-5.8516024458
20
19.7464231696
30
0.0000000000
10
-5.8471518366
20
19.7202478359
30
0.0000000000
10
-5.8460354727
20
19.7029218846
30
0.0000000000
10
-5.8459952250
20
19.6944692332
30
0.0000000000
11
-5.9882393327
21
19.9379706852
31
0.0000000000
11
-5.9681046008
21
19.9261487455
31
0.0000000000
11
-5.9483630052
21
19.9110499446
31
0.0000000000
11
-5.9294164278
21
19.8929816505
31
0.0000000000
11
-5.9116505662
21
19.8723116815
31
0.0000000000
11
-5.8954270822
21
19.8494608186
31
0.0000000000
11
-5.8810762391
21
19.8248942394
31
0.0000000000
11
-5.8688901787
21
19.7991120488
31
0.0000000000
11
-5.8591169741
21
19.7726390977
31
0.0000000000
11
-5.8519555795
21
19.7460142990
31
0.0000000000
11
-5.8475517803
21
19.7197796570
31
0.0000000000
11
-5.8459952250
21
19.6944692332
31
0.0000000000
0
SPLINE
5
3F1
100
AcDbEntity
8
0
100
AcDbSpline
62
9
6
CONTINUOUS
70
0
71
3
72
11
73
7
74
5
42
0.0000001000
43
0.0000001000
44
0.0000000001
12
0.0501450437
22
0.1323657729
32
0.0000000000
13
-0.0127858339
23
0.1410495762
33
0.0000000000
40
0.0000000000
40
0.0000000000
40
0.0000000000
40
0.0000000000
40
0.2507046888
40
0.5022377312
40
0.7526361462
40
1.0000000000
40
1.0000000000
40
1.0000000000
40
1.0000000000
10
2.7786445913
20
-25.1340523474
30
0.0000000000
10
2.7828351238
20
-25.1229907741
30
0.0000000000
10
2.7899756714
20
-25.1003337469
30
0.0000000000
10
2.7968284291
20
-25.0654193433
30
0.0000000000
10
2.7997388915
20
-25.0301104599
30
0.0000000000
10
2.7990034238
20
-25.0065848014
30
0.0000000000
10
2.7979491728
20
-24.9949546125
30
0.0000000000
11
2.7786445913
21
-25.1340523474
31
0.0000000000
11
2.7893240927
21
-25.1002112636
31
0.0000000000
11
2.7961806812
21
-25.0652742752
31
0.0000000000
11
2.7990752912
21
-25.0299498215
31
0.0000000000
11
2.7979491728
21
-24.9949546125
31
0.0000000000
0
SPLINE
5
3F2
100
AcDbEntity
8
0
100
AcDbSpline
62
9
6
CONTINUOUS
70
0
71
3
72
9
73
5
74
3
42
0.0000001000
43
0.0000001000
44
0.0000000001
12
-0.0041191722
22
0.0454415022
32
0.0000000000
13
-0.0113717548
23
0.0441925292
33
0.0000000000
40
0.0000000000
40
0.0000000000
40
0.0000000000
40
0.0000000000
40
0.7530613320
40
1.0000000000
40
1.0000000000
40
1.0000000000
40
1.0000000000
10
2.7979491728
20
-24.9949546125
30
0.0000000000
10
2.7969151764
20
-24.9835478665
30
0.0000000000
10
2.7946623128
20
-24.9684785289
30
0.0000000000
10
2.7911805508
20
-24.9536680700
30
0.0000000000
10
2.7902445088
20
-24.9500304552
30
0.0000000000
11
2.7979491728
21
-24.9949546125
31
0.0000000000
11
2.7928251775
21
-24.9609984061
31
0.0000000000
11
2.7902445088
21
-24.9500304552
31
0.0000000000
0
SPLINE
5
3F3
100
AcDbEntity
8
0
100
AcDbSpline
62
9
6
CONTINUOUS
70
0
71
3
72
9
73
5
74
3
42
0.0000001000
43
0.0000001000
44
0.0000000001
12
-0.0109615648
22
0.0425984628
32
0.0000000000
13
-0.0181635487
23
0.0400636285
33
0.0000000000
40
0.0000000000
40
0.0000000000
40
0.0000000000
40
0.0000000000
40
0.5051728933
40
1.0000000000
40
1.0000000000
40
1.0000000000
40
1.0000000000
10
2.7902445088
20
-24.9500304552
30
0.0000000000
10
2.7883986803
20
-24.9428572590
30
0.0000000000
10
2.7841578085
20
-24.9288091068
30
0.0000000000
10
2.7787151519
20
-24.9151769346
30
0.0000000000
10
2.7757192131
20
-24.9085687448
30
0.0000000000
11
2.7902445088
21
-24.9500304552
31
0.0000000000
11
2.7838072383
21
-24.9287699256
31
0.0000000000
11
2.7757192131
21
-24.9085687448
31
0.0000000000
0
SPLINE
5
3F4
100
AcDbEntity
8
0
100
AcDbSpline
62
9
6
CONTINUOUS
70
0
71
3
72
12
73
8
74
6
42
0.0000001000
43
0.0000001000
44
0.0000000001
12
-0.0498894692
22
0.1100419967
32
0.0000000000
13
-0.1048051150
23
0.0602108041
33
0.0000000000
40
0.0000000000
40
0.0000000000
40
0.0000000000
40
0.0000000000
40
0.0886008355
40
0.3483288028
40
0.5991382361
40
0.8419125615
40
1.0000000000
40
1.0000000000
40
1.0000000000
40
1.0000000000
10
2.7757192131
20
-24.9085687448
30
0.0000000000
10
2.7742457969
20
-24.9053188072
30
0.0000000000
10
2.7681652504
20
-24.8926725087
30
0.0000000000
10
2.7557327553
20
-24.8719161304
30
0.0000000000
10
2.7363879088
20
-24.8484145251
30
0.0000000000
10
2.7166284011
20
-24.8309986629
30
0.0000000000
10
2.7030834053
20
-24.8221248263
30
0.0000000000
10
2.6975606146
20
-24.8189519691
30
0.0000000000
11
2.7757192131
21
-24.9085687448
31
0.0000000000
11
2.7710782624
21
-24.8989228416
31
0.0000000000
11
2.7548963945
21
-24.8720624888
31
0.0000000000
11
2.7355900217
21
-24.8487338886
31
0.0000000000
11
2.7135506201
21
-24.8294099971
31
0.0000000000
11
2.6975606146
21
-24.8189519691
31
0.0000000000
0
SPLINE
5
3F5
100
AcDbEntity
8
0
100
AcDbSpline
62
9
6
CONTINUOUS
70
0
71
3
72
8
73
4
74
2
42
0.0000001000
43
0.0000001000
44
0.0000000001
12
-0.0082009990
22
0.0047114947
32
0.0000000000
13
-0.0084543728
23
0.0042164286
33
0.0000000000
40
0.0000000000
40
0.0000000000
40
0.0000000000
40
0.0000000000
40
1.0000000000
40
1.0000000000
40
1.0000000000
40
1.0000000000
10
2.6975606146
20
-24.8189519691
30
0.0000000000
10
2.6948269482
20
-24.8173814708
30
0.0000000000
10
2.6920489202
20
-24.8158910176
30
0.0000000000
10
2.6892307960
20
-24.8144855414
30
0.0000000000
11
2.6975606146
21
-24.8189519691
31
0.0000000000
11
2.6892307960
21
-24.8144855414
31
0.0000000000
0
SPLINE
5
3F6
100
AcDbEntity
8
0
100
AcDbSpline
62
9
6
CONTINUOUS
70
0
71
3
72
18
73
14
74
12
42
0.0000001000
43
0.0000001000
44
0.0000000001
12
0.2604604098
22
-0.1302302049
32
0.0000000000
13
0.2604604098
23
0.1302302049
33
0.0000000000
40
0.0000000000
40
0.0000000000
40
0.0000000000
40
0.0000000000
40
0.0807217251
40
0.1673236997
40
0.2587701252
40
0.3538164207
40
0.4510764237
40
0.5490821470
40
0.6463380921
40
0.7413783739
40
0.8328117125
40
0.9193994957
40
1.0000000000
40
1.0000000000
40
1.0000000000
40
1.0000000000
10
-6.1288379375
20
19.6944692332
30
0.0000000000
10
-6.1218296663
20
19.6909650976
30
0.0000000000
10
-6.1068672226
20
19.6845549081
30
0.0000000000
10
-6.0829014818
20
19.6769295522
30
0.0000000000
10
-6.0570173857
20
19.6710712238
30
0.0000000000
10
-6.0297358536
20
19.6670993972
30
0.0000000000
10
-6.0016028070
20
19.6650938597
30
0.0000000000
10
-5.9731845194
20
19.6650954922
30
0.0000000000
10
-5.9450526808
20
19.6671042246
30
0.0000000000
10
-5.9177738466
20
19.6710790084
30
0.0000000000
10
-5.8918936502
20
19.6769398967
30
0.0000000000
10
-5.8679426566
20
19.6845641035
30
0.0000000000
10
-5.8529929718
20
19.6909703598
30
0.0000000000
10
-5.8459952250
20
19.6944692332
30
0.0000000000
11
-6.1288379375
21
19.6944692332
31
0.0000000000
11
-6.1072687476
21
19.6851245271
31
0.0000000000
11
-6.0832588807
21
19.6774099654
31
0.0000000000
11
-6.0572973860
21
19.6714826954
31
0.0000000000
11
-6.0299129524
21
19.6674634101
31
0.0000000000
11
-6.0016632951
21
19.6654339451
31
0.0000000000
11
-5.9731236766
21
19.6654355971
31
0.0000000000
11
-5.9448754356
21
19.6674682809
31
0.0000000000
11
-5.9174932222
21
19.6714906325
31
0.0000000000
11
-5.8915361988
21
19.6774203645
31
0.0000000000
11
-5.8675313131
21
19.6851369190
31
0.0000000000
11
-5.8459952250
21
19.6944692332
31
0.0000000000
0
SPLINE
5
3F7
100
AcDbEntity
8
0
100
AcDbSpline
62
9
6
CONTINUOUS
70
0
71
3
72
18
73
14
74
12
42
0.0000001000
43
0.0000001000
44
0.0000000001
12
0.3245465297
22
-0.1622732649
32
0.0000000000
13
0.3252956663
23
0.1607662650
33
0.0000000000
40
0.0000000000
40
0.0000000000
40
0.0000000000
40
0.0000000000
40
0.0806602437
40
0.1671780028
40
0.2585287416
40
0.3534787968
40
0.4506549529
40
0.5486020717
40
0.6458367763
40
0.7409024534
40
0.8324161725
40
0.9191443834
40
1.0000000000
40
1.0000000000
40
1.0000000000
40
1.0000000000
10
0.2965746691
20
-26.1921428644
30
0.0000000000
10
0.3053006698
20
-26.1965058648
30
0.0000000000
10
0.3239262818
20
-26.2044904213
30
0.0000000000
10
0.3537556315
20
-26.2139989913
30
0.0000000000
10
0.3859699603
20
-26.2213165130
30
0.0000000000
10
0.4199258905
20
-26.2262948676
30
0.0000000000
10
0.4549489498
20
-26.2288347556
30
0.0000000000
10
0.4903394687
20
-26.2288847650
30
0.0000000000
10
0.5253906303
20
-26.2264439058
30
0.0000000000
10
0.5594016040
20
-26.2215617029
30
0.0000000000
10
0.5916969761
20
-26.2143356935
30
0.0000000000
10
0.6216258028
20
-26.2049142114
30
0.0000000000
10
0.6403293015
20
-26.1969885401
30
0.0000000000
10
0.6490966287
20
-26.1926555883
30
0.0000000000
11
0.2965746691
21
-26.1921428644
31
0.0000000000
11
0.3234281592
21
-26.2037833033
31
0.0000000000
11
0.3533115593
21
-26.2134021857
31
0.0000000000
11
0.3856212839
21
-26.2208051821
31
0.0000000000
11
0.4197040483
21
-26.2258425644
31
0.0000000000
11
0.4548710303
21
-26.2284125262
31
0.0000000000
11
0.4904115032
21
-26.2284631288
31
0.0000000000
11
0.5256069616
21
-26.2259933737
31
0.0000000000
11
0.5597463405
21
-26.2210531827
31
0.0000000000
11
0.5921377979
21
-26.2137429062
31
0.0000000000
11
0.6221288865
21
-26.2042100404
31
0.0000000000
11
0.6490966287
21
-26.1926555883
31
0.0000000000
0
SPLINE
5
3F8
100
AcDbEntity
8
0
100
AcDbSpline
62
9
6
CONTINUOUS
70
0
71
3
72
18
73
14
74
12
42
0.0000001000
43
0.0000001000
44
0.0000000001
12
0.3245465336
22
-0.1622732668
32
0.0000000000
13
0.3252956702
23
0.1607662669
33
0.0000000000
40
0.0000000000
40
0.0000000000
40
0.0000000000
40
0.0000000000
40
0.0805551721
40
0.1670661703
40
0.2584105715
40
0.3533608806
40
0.4505383769
40
0.5484896854
40
0.6457313776
40
0.7408057878
40
0.8323347676
40
0.9190782196
40
1.0000000000
40
1.0000000000
40
1.0000000000
40
1.0000000000
10
0.2965746691
20
-26.5321167986
30
0.0000000000
10
0.3052893030
20
-26.5364741156
30
0.0000000000
10
0.3239017560
20
-26.5444546805
30
0.0000000000
10
0.3537164343
20
-26.5539622863
30
0.0000000000
10
0.3859284983
20
-26.5612827553
30
0.0000000000
10
0.4198834056
20
-26.5662642003
30
0.0000000000
10
0.4549069467
20
-26.5688071746
30
0.0000000000
10
0.4902989797
20
-26.5688601126
30
0.0000000000
10
0.5253527441
20
-26.5664219045
30
0.0000000000
10
0.5593678185
20
-26.5615418840
30
0.0000000000
10
0.5916684047
20
-26.5543173867
30
0.0000000000
10
0.6216091095
20
-26.5448946945
30
0.0000000000
10
0.6403221271
20
-26.5369660199
30
0.0000000000
10
0.6490966287
20
-26.5326295224
30
0.0000000000
11
0.2965746691
21
-26.5321167986
31
0.0000000000
11
0.3233924131
21
-26.5437438409
31
0.0000000000
11
0.3532723767
21
-26.5533653935
31
0.0000000000
11
0.3855790964
21
-26.5607712091
31
0.0000000000
11
0.4196614770
21
-26.5658118200
31
0.0000000000
11
0.4548287197
21
-26.5683848904
31
0.0000000000
11
0.4903707089
21
-26.5684384565
31
0.0000000000
11
0.5255688969
21
-26.5659713743
31
0.0000000000
11
0.5597118094
21
-26.5610334738
31
0.0000000000
11
0.5921092485
21
-26.5537245474
31
0.0000000000
11
0.6221063434
21
-26.5441923203
31
0.0000000000
11
0.6490966287
21
-26.5326295224
31
0.0000000000
0
SPLINE
5
3F9
100
AcDbEntity
8
0
100
AcDbSpline
62
9
6
CONTINUOUS
70
0
71
3
72
18
73
14
74
12
42
0.0000001000
43
0.0000001000
44
0.0000000001
12
-0.1868959021
22
0.3018192785
32
0.0000000000
13
-0.3165685944
23
0.1606526692
33
0.0000000000
40
0.0000000000
40
0.0000000000
40
0.0000000000
40
0.0000000000
40
0.0724312684
40
0.1534121140
40
0.2416012311
40
0.3354422156
40
0.4332240419
40
0.5331331639
40
0.6333021542
40
0.7318570661
40
0.8269646634
40
0.9168805534
40
1.0000000000
40
1.0000000000
40
1.0000000000
40
1.0000000000
10
0.6490966287
20
-26.1926555883
30
0.0000000000
10
0.6445842597
20
-26.1853685372
30
0.0000000000
10
0.6343275268
20
-26.1703644802
30
0.0000000000
10
0.6166682010
20
-26.1478624751
30
0.0000000000
10
0.5961406871
20
-26.1244505551
30
0.0000000000
10
0.5731540820
20
-26.1006036669
30
0.0000000000
10
0.5481673679
20
-26.0768034579
30
0.0000000000
10
0.5216833195
20
-26.0535317046
30
0.0000000000
10
0.4942360423
20
-26.0312587561
30
0.0000000000
10
0.4663801782
20
-26.0104341394
30
0.0000000000
10
0.4386783578
20
-25.9914763030
30
0.0000000000
10
0.4116918023
20
-25.9747656304
30
0.0000000000
10
0.3937340189
20
-25.9648998109
30
0.0000000000
10
0.3849630167
20
-25.9604486906
30
0.0000000000
11
0.6490966287
21
-26.1926555883
31
0.0000000000
11
0.6346858924
21
-26.1713601905
31
0.0000000000
11
0.6170029824
21
-26.1486936201
31
0.0000000000
11
0.5964065423
21
-26.1251155984
31
0.0000000000
11
0.5733143072
21
-26.1011043331
31
0.0000000000
11
0.5481946320
21
-26.0771468186
31
0.0000000000
11
0.5215569918
21
-26.0537289592
31
0.0000000000
11
0.4939416491
21
-26.0313257140
31
0.0000000000
11
0.4659086959
21
-26.0103914638
31
0.0000000000
11
0.4380266944
21
-25.9913507954
31
0.0000000000
11
0.4108611448
21
-25.9745898899
31
0.0000000000
11
0.3849630167
21
-25.9604486906
31
0.0000000000
0
SPLINE
5
3FA
100
AcDbEntity
8
0
100
AcDbSpline
62
7
6
CONTINUOUS
70
0
71
3
72
22
73
18
74
16
42
0.0000001000
43
0.0000001000
44
0.0000000001
12
-0.3676327130
22
0.0767686124
32
0.0000000000
13
-0.3359133597
23
0.1679566799
33
0.0000000000
40
0.0000000000
40
0.0000000000
40
0.0000000000
40
0.0000000000
40
0.0484860306
40
0.1017719328
40
0.1595328658
40
0.2213818258
40
0.2868708470
40
0.3554921096
40
0.4266769445
40
0.4997945492
40
0.5741501667
40
0.6489832730
40
0.7234666436
40
0.7967075626
40
0.8677548451
40
0.9356080525
40
1.0000000000
40
1.0000000000
40
1.0000000000
40
1.0000000000
10
1.3603172368
20
-25.3411591112
30
0.0000000000
10
1.3543755532
20
-25.3399183761
30
0.0000000000
10
1.3419399722
20
-25.3371403463
30
0.0000000000
10
1.3225493134
20
-25.3323533379
30
0.0000000000
10
1.3016389449
20
-25.3267596077
30
0.0000000000
10
1.2793597462
20
-25.3203854267
30
0.0000000000
10
1.2558829556
20
-25.3132658175
30
0.0000000000
10
1.2314005157
20
-25.3054449812
30
0.0000000000
10
1.2061252094
20
-25.2969765488
30
0.0000000000
10
1.1802912106
20
-25.2879241075
30
0.0000000000
10
1.1541546955
20
-25.2783617271
30
0.0000000000
10
1.1279942229
20
-25.2683749177
30
0.0000000000
10
1.1021113495
20
-25.2580603188
30
0.0000000000
10
1.0768279004
20
-25.2475298288
30
0.0000000000
10
1.0524904363
20
-25.2368973867
30
0.0000000000
10
1.0293560966
20
-25.2262858502
30
0.0000000000
10
1.0144910873
20
-25.2189942924
30
0.0000000000
10
1.0072810488
20
-25.2153892731
30
0.0000000000
11
1.3603172368
21
-25.3411591112
31
0.0000000000
11
1.3425413523
21
-25.3372087714
31
0.0000000000
11
1.3231086931
21
-25.3324276121
31
0.0000000000
11
1.3021494895
21
-25.3268337544
31
0.0000000000
11
1.2798146789
21
-25.3204538372
31
0.0000000000
11
1.2562757882
21
-25.3133232226
31
0.0000000000
11
1.2317247228
21
-25.3054861727
31
0.0000000000
11
1.2063742349
21
-25.2969962563
31
0.0000000000
11
1.1804584372
21
-25.2879168346
31
0.0000000000
11
1.1542334687
21
-25.2783216786
31
0.0000000000
11
1.1279781277
21
-25.2682956778
31
0.0000000000
11
1.1019941742
21
-25.2579355565
31
0.0000000000
11
1.0766058800
21
-25.2473504436
31
0.0000000000
11
1.0521576000
21
-25.2366617568
31
0.0000000000
11
1.0290107211
21
-25.2260028827
31
0.0000000000
11
1.0072810488
21
-25.2153892731
31
0.0000000000
0
SPLINE
5
3FB
100
AcDbEntity
8
0
100
AcDbSpline
62
9
6
CONTINUOUS
70
0
71
3
72
15
73
11
74
9
42
0.0000001000
43
0.0000001000
44
0.0000000001
12
0.0000000000
22
0.2525633806
32
0.0000000000
13
0.1611233069
23
0.1944930364
33
0.0000000000
40
0.0000000000
40
0.0000000000
40
0.0000000000
40
0.0000000000
40
0.1150569247
40
0.2353154471
40
0.3597619254
40
0.4872014800
40
0.6163302140
40
0.7457729725
40
0.8741534281
40
1.0000000000
40
1.0000000000
40
1.0000000000
40
1.0000000000
10
0.2965746691
20
-26.1921428644
30
0.0000000000
10
0.2965746691
20
-26.1824564758
30
0.0000000000
10
0.2976569065
20
-26.1626346364
30
0.0000000000
10
0.3022175371
20
-26.1326517316
30
0.0000000000
10
0.3096761288
20
-26.1021815068
30
0.0000000000
10
0.3199060207
20
-26.0717415641
30
0.0000000000
10
0.3327336831
20
-26.0418450724
30
0.0000000000
10
0.3479426644
20
-26.0129968585
30
0.0000000000
10
0.3652678107
20
-25.9856963980
30
0.0000000000
10
0.3782040781
20
-25.9686074513
30
0.0000000000
10
0.3849630167
20
-25.9604486906
30
0.0000000000
11
0.2965746691
21
-26.1921428644
31
0.0000000000
11
0.2980874100
21
-26.1631230999
31
0.0000000000
11
0.3025997431
21
-26.1330872572
31
0.0000000000
11
0.3100346543
21
-26.1025486559
31
0.0000000000
11
0.3202646669
21
-26.0720310906
31
0.0000000000
11
0.3331148863
21
-26.0420562345
31
0.0000000000
11
0.3483647166
21
-26.0131383805
31
0.0000000000
11
0.3657535979
21
-25.9857713260
31
0.0000000000
11
0.3849630167
21
-25.9604486906
31
0.0000000000
0
SPLINE
5
3FC
100
AcDbEntity
8
0
100
AcDbSpline
62
7
6
CONTINUOUS
70
0
71
3
72
17
73
13
74
11
42
0.0000001000
43
0.0000001000
44
0.0000000001
12
-0.2546551481
22
-0.1436729099
32
0.0000000000
13
-0.2615204000
23
0.1307602000
33
0.0000000000
40
0.0000000000
40
0.0000000000
40
0.0000000000
40
0.0000000000
40
0.0908404133
40
0.1881219793
40
0.2904656387
40
0.3961985535
40
0.5035170354
40
0.6105103721
40
0.7153126918
40
0.8161547060
40
0.9114736163
40
1.0000000000
40
1.0000000000
40
1.0000000000
40
1.0000000000
10
-5.8459952250
20
18.4699321752
30
0.0000000000
10
-5.8537062180
20
18.4655817397
30
0.0000000000
10
-5.8702744870
20
18.4576128558
30
0.0000000000
10
-5.8969975909
20
18.4481366394
30
0.0000000000
10
-5.9259092288
20
18.4408999124
30
0.0000000000
10
-5.9563058774
20
18.4360791893
30
0.0000000000
10
-5.9874503069
20
18.4337897242
30
0.0000000000
10
-6.0185869330
20
18.4340858216
30
0.0000000000
10
-6.0489600466
20
18.4369578393
30
0.0000000000
10
-6.0778405417
20
18.4423353963
30
0.0000000000
10
-6.1045306312
20
18.4500855450
30
0.0000000000
10
-6.1211207857
20
18.4569963057
30
0.0000000000
10
-6.1288379375
20
18.4608548816
30
0.0000000000
11
-5.8459952250
21
18.4699321752
31
0.0000000000
11
-5.8698795464
21
18.4583127731
31
0.0000000000
11
-5.8966589332
21
18.4487249006
31
0.0000000000
11
-5.9256736715
21
18.4414038032
31
0.0000000000
11
-5.9562021972
21
18.4365300894
31
0.0000000000
11
-5.9874958842
21
18.4342217007
31
0.0000000000
11
-6.0187779652
21
18.4345342292
31
0.0000000000
11
-6.0492811855
21
18.4374578970
31
0.0000000000
11
-6.0782560804
21
18.4429190802
31
0.0000000000
11
-6.1049938552
21
18.4507827869
31
0.0000000000
11
-6.1288379375
21
18.4608548816
31
0.0000000000
0
SPLINE
5
3FD
100
AcDbEntity
8
0
100
AcDbSpline
62
7
6
CONTINUOUS
70
0
71
3
72
15
73
11
74
9
42
0.0000001000
43
0.0000001000
44
0.0000000001
12
0.1708106307
22
0.3465374803
32
0.0000000000
13
-0.1211274767
23
0.3668686839
33
0.0000000000
40
0.0000000000
40
0.0000000000
40
0.0000000000
40
0.0000000000
40
0.1045967298
40
0.2153592470
40
0.3324738237
40
0.4558021131
40
0.5849344065
40
0.7192395231
40
0.8579095852
40
1.0000000000
40
1.0000000000
40
1.0000000000
40
1.0000000000
10
-1.7801312332
20
17.1235213461
30
0.0000000000
10
-1.7741758221
20
17.1356035751
30
0.0000000000
10
-1.7637204732
20
17.1613997509
30
0.0000000000
10
-1.7527505209
20
17.2028849507
30
0.0000000000
10
-1.7461633758
20
17.2477202949
30
0.0000000000
10
-1.7440306386
20
17.2953400484
30
0.0000000000
10
-1.7463680110
20
17.3451576934
30
0.0000000000
10
-1.7531425507
20
17.3965548200
30
0.0000000000
10
-1.7642666219
20
17.4488881892
30
0.0000000000
10
-1.7743942154
20
17.4836368934
30
0.0000000000
10
-1.7801312332
20
17.5010130678
30
0.0000000000
11
-1.7801312332
21
17.1235213461
31
0.0000000000
11
-1.7648099452
21
17.1609149654
31
0.0000000000
11
-1.7537267052
21
17.2022476240
31
0.0000000000
11
-1.7470206378
21
17.2469948501
31
0.0000000000
11
-1.7447758941
21
17.2945895374
31
0.0000000000
11
-1.7470206378
21
17.3444289684
31
0.0000000000
11
-1.7537267052
21
17.3958822619
31
0.0000000000
11
-1.7648099452
21
17.4482981606
31
0.0000000000
11
-1.7801312332
21
17.5010130678
31
0.0000000000
0
SPLINE
5
3FE
100
AcDbEntity
8
0
100
AcDbSpline
62
7
6
CONTINUOUS
70
0
71
3
72
10
73
6
74
4
42
0.0000001000
43
0.0000001000
44
0.0000000001
12
5.2665313906
22
2.7420195129
32
0.0000000000
13
5.2768701529
23
2.7220700371
33
0.0000000000
40
0.0000000000
40
0.0000000000
40
0.0000000000
40
0.0000000000
40
0.3227146047
40
0.6560905502
40
1.0000000000
40
1.0000000000
40
1.0000000000
40
1.0000000000
10
-1.7801312332
20
17.5010130678
30
0.0000000000
10
-1.2136023678
20
17.7959763156
30
0.0000000000
10
-0.0612642733
20
18.3945637924
30
0.0000000000
10
1.6963402437
20
19.3045378239
30
0.0000000000
10
2.8873940869
20
19.9195851443
30
0.0000000000
10
3.4923159239
20
20.2316336806
30
0.0000000000
11
-1.7801312332
21
17.5010130678
31
0.0000000000
11
-0.0797936574
21
18.3844589256
31
0.0000000000
11
1.6779849563
21
19.2946461671
31
0.0000000000
11
3.4923159239
21
20.2316336806
31
0.0000000000
0
SPLINE
5
3FF
100
AcDbEntity
8
0
100
AcDbSpline
62
7
6
CONTINUOUS
70
0
71
3
72
9
73
5
74
3
42
0.0000001000
43
0.0000001000
44
0.0000000001
12
0.0321079182
22
0.0160117315
32
0.0000000000
13
0.0335048459
23
0.0128343001
33
0.0000000000
40
0.0000000000
40
0.0000000000
40
0.0000000000
40
0.0000000000
40
0.5067221146
40
1.0000000000
40
1.0000000000
40
1.0000000000
40
1.0000000000
10
3.4943608359
20
20.6786979341
30
0.0000000000
10
3.4997841000
20
20.6814024335
30
0.0000000000
10
3.5106101868
20
20.6864962187
30
0.0000000000
10
3.5216703664
20
20.6910610970
30
0.0000000000
10
3.5271794330
20
20.6931713891
30
0.0000000000
11
3.4943608359
21
20.6786979341
31
0.0000000000
11
3.5108158426
21
20.6864288947
31
0.0000000000
11
3.5271794330
21
20.6931713891
31
0.0000000000
0
SPLINE
5
400
100
AcDbEntity
8
0
100
AcDbSpline
62
7
6
CONTINUOUS
70
0
71
3
72
9
73
5
74
3
42
0.0000001000
43
0.0000001000
44
0.0000000001
12
0.0459767399
22
0.0237353854
32
0.0000000000
13
0.0380271145
23
0.0350851516
33
0.0000000000
40
0.0000000000
40
0.0000000000
40
0.0000000000
40
0.0000000000
40
0.5512331004
40
1.0000000000
40
1.0000000000
40
1.0000000000
40
1.0000000000
10
2.8299864312
20
-24.3404955954
30
0.0000000000
10
2.8384343981
20
-24.3361343520
30
0.0000000000
10
2.8531584240
20
-24.3270549585
30
0.0000000000
10
2.8665045564
20
-24.3160868125
30
0.0000000000
10
2.8721929931
20
-24.3108384610
30
0.0000000000
11
2.8299864312
21
-24.3404955954
31
0.0000000000
11
2.8542484551
21
-24.3255507151
31
0.0000000000
11
2.8721929931
21
-24.3108384610
31
0.0000000000
0
SPLINE
5
401
100
AcDbEntity
8
0
100
AcDbSpline
62
7
6
CONTINUOUS
70
0
71
3
72
14
73
10
74
8
42
0.0000001000
43
0.0000001000
44
0.0000000001
12
0.1924747791
22
0.1775839921
32
0.0000000000
13
0.0000056771
23
0.2615356096
33
0.0000000000
40
0.0000000000
40
0.0000000000
40
0.0000000000
40
0.0000000000
40
0.0450450570
40
0.1843372123
40
0.3303370354
40
0.4836938958
40
0.6466656366
40
0.8192685864
40
1.0000000000
40
1.0000000000
40
1.0000000000
40
1.0000000000
10
2.8721929931
20
-24.3108384610
30
0.0000000000
10
2.8750830056
20
-24.3081720340
30
0.0000000000
10
2.8865919617
20
-24.2969156844
30
0.0000000000
10
2.9047937680
20
-24.2744302953
30
0.0000000000
10
2.9239705032
20
-24.2411816614
30
0.0000000000
10
2.9390542524
20
-24.2036787744
30
0.0000000000
10
2.9499136981
20
-24.1623570358
30
0.0000000000
10
2.9564233855
20
-24.1177370816
30
0.0000000000
10
2.9577924001
20
-24.0869097771
30
0.0000000000
10
2.9577927421
20
-24.0711538770
30
0.0000000000
11
2.8721929931
21
-24.3108384610
31
0.0000000000
11
2.8806269920
21
-24.3025936835
31
0.0000000000
11
2.9036500306
21
-24.2743611792
31
0.0000000000
11
2.9228590460
21
-24.2413605239
31
0.0000000000
11
2.9379662252
21
-24.2042061532
31
0.0000000000
11
2.9489397830
21
-24.1630200658
31
0.0000000000
11
2.9555845141
21
-24.1183699678
31
0.0000000000
11
2.9577927421
21
-24.0711538770
31
0.0000000000
0
SPLINE
5
402
100
AcDbEntity
8
0
100
AcDbSpline
62
7
6
CONTINUOUS
70
0
71
3
72
10
73
6
74
4
42
0.0000001000
43
0.0000001000
44
0.0000000001
12
-5.2681459399
22
-2.6122333457
32
0.0000000000
13
-5.2781914313
23
-2.5918757515
33
0.0000000000
40
0.0000000000
40
0.0000000000
40
0.0000000000
40
0.0000000000
40
0.3443158395
40
0.6777179116
40
1.0000000000
40
1.0000000000
40
1.0000000000
40
1.0000000000
10
3.4923159239
20
19.7270552941
30
0.0000000000
10
2.8876805598
20
19.4272441882
30
0.0000000000
10
1.6973193513
20
18.8376402304
30
0.0000000000
10
-0.0600461468
20
17.9695556880
30
0.0000000000
10
-1.2131090473
20
17.4019597228
30
0.0000000000
10
-1.7801312332
20
17.1235213461
30
0.0000000000
11
3.4923159239
21
19.7270552941
31
0.0000000000
11
1.6779857428
21
18.8284777528
31
0.0000000000
11
-0.0797912903
21
17.9603145573
31
0.0000000000
11
-1.7801312332
21
17.1235213461
31
0.0000000000
0
SPLINE
5
403
100
AcDbEntity
8
0
100
AcDbSpline
62
7
6
CONTINUOUS
70
0
71
3
72
21
73
17
74
15
42
0.0000001000
43
0.0000001000
44
0.0000000001
12
-0.0000159813
22
0.7362222018
32
0.0000000000
13
-0.6584870966
23
0.3292686961
33
0.0000000000
40
0.0000000000
40
0.0000000000
40
0.0000000000
40
0.0000000000
40
0.0671993113
40
0.1374544838
40
0.2098531127
40
0.2837455517
40
0.3593086765
40
0.4356292311
40
0.5116183053
40
0.5870787742
40
0.6618091482
40
0.7347572750
40
0.8051169632
40
0.8731574001
40
0.9383501414
40
1.0000000000
40
1.0000000000
40
1.0000000000
40
1.0000000000
10
2.9577927421
20
13.8607881203
30
0.0000000000
10
2.9577923841
20
13.8772793287
30
0.0000000000
10
2.9562229647
20
13.9110263486
30
0.0000000000
10
2.9495258110
20
13.9621416642
30
0.0000000000
10
2.9385192184
20
14.0141844283
30
0.0000000000
10
2.9233486137
20
14.0665214023
30
0.0000000000
10
2.9041782596
20
14.1185549211
30
0.0000000000
10
2.8812381640
20
14.1696033766
30
0.0000000000
10
2.8548671240
20
14.2189376318
30
0.0000000000
10
2.8253731561
20
14.2660120500
30
0.0000000000
10
2.7930744440
20
14.3102909129
30
0.0000000000
10
2.7584255747
20
14.3511319187
30
0.0000000000
10
2.7218886587
20
14.3880206321
30
0.0000000000
10
2.6838801975
20
14.4205466252
30
0.0000000000
10
2.6448524001
20
14.4483029737
30
0.0000000000
10
2.6177757177
20
14.4637941619
30
0.0000000000
10
2.6042438389
20
14.4705606181
30
0.0000000000
11
2.9577927421
21
13.8607881203
31
0.0000000000
11
2.9555845141
21
13.9102124392
31
0.0000000000
11
2.9489397830
21
13.9615072683
31
0.0000000000
11
2.9379662252
21
14.0136669135
31
0.0000000000
11
2.9228590460
21
14.0659284634
31
0.0000000000
11
2.9036500306
21
14.1181381340
31
0.0000000000
11
2.8806269920
21
14.1693936770
31
0.0000000000
11
2.8542484551
21
14.2187292455
31
0.0000000000
11
2.8247340196
21
14.2657965467
31
0.0000000000
11
2.7922808089
21
14.3102238705
31
0.0000000000
11
2.7574957369
21
14.3511425275
31
0.0000000000
11
2.7209936292
21
14.3878967640
31
0.0000000000
11
2.6828769011
21
14.4203992516
31
0.0000000000
11
2.6437004648
21
14.4481275013
31
0.0000000000
11
2.6042438389
21
14.4705606181
31
0.0000000000
0
SPLINE
5
404
100
AcDbEntity
8
0
100
AcDbSpline
62
7
6
CONTINUOUS
70
0
71
3
72
9
73
5
74
3
42
0.0000001000
43
0.0000001000
44
0.0000000001
12
-0.0158681748
22
-0.1391201640
32
0.0000000000
13
-0.0648546214
23
-0.1248708020
33
0.0000000000
40
0.0000000000
40
0.0000000000
40
0.0000000000
40
0.0000000000
40
0.7699017785
40
1.0000000000
40
1.0000000000
40
1.0000000000
40
1.0000000000
10
8.8874844143
20
19.2665380457
30
0.0000000000
10
8.8834121023
20
19.2308350918
30
0.0000000000
10
8.8731922418
20
19.1846661642
30
0.0000000000
10
8.8538221277
20
19.1418465268
30
0.0000000000
10
8.8488478167
20
19.1322690103
30
0.0000000000
11
8.8874844143
21
19.2665380457
31
0.0000000000
11
8.8622517234
21
19.1617293004
31
0.0000000000
11
8.8488478167
21
19.1322690103
31
0.0000000000
0
SPLINE
5
405
100
AcDbEntity
8
0
100
AcDbSpline
62
7
6
CONTINUOUS
70
0
71
3
72
9
73
5
74
3
42
0.0000001000
43
0.0000001000
44
0.0000000001
12
-0.0665106618
22
-0.1280593348
32
0.0000000000
13
-0.1263775253
23
-0.0681835742
33
0.0000000000
40
0.0000000000
40
0.0000000000
40
0.0000000000
40
0.0000000000
40
0.4205148010
40
1.0000000000
40
1.0000000000
40
1.0000000000
40
1.0000000000
10
8.8488478167
20
19.1322690103
30
0.0000000000
10
8.8395249108
20
19.1143187284
30
0.0000000000
10
8.8130337030
20
19.0739311472
30
0.0000000000
10
8.7750451286
20
19.0426543114
30
0.0000000000
10
8.7506338268
20
19.0294838540
30
0.0000000000
11
8.8488478167
21
19.1322690103
31
0.0000000000
11
8.8152119105
21
19.0819626548
31
0.0000000000
11
8.7506338268
21
19.0294838540
31
0.0000000000
0
SPLINE
5
406
100
AcDbEntity
8
0
100
AcDbSpline
62
9
6
CONTINUOUS
70
0
71
3
72
14
73
10
74
8
42
0.0000001000
43
0.0000001000
44
0.0000000001
12
0.0007405727
22
-0.1564452422
32
0.0000000000
13
-0.1395231833
23
-0.0715218887
33
0.0000000000
40
0.0000000000
40
0.0000000000
40
0.0000000000
40
0.0000000000
40
0.1910761376
40
0.3697166628
40
0.5359297403
40
0.6908515116
40
0.8368929838
40
0.9776959034
40
1.0000000000
40
1.0000000000
40
1.0000000000
40
1.0000000000
10
2.7786445913
20
-25.4815838641
30
0.0000000000
10
2.7786917599
20
-25.4915481817
30
0.0000000000
10
2.7776916633
20
-25.5108602611
30
0.0000000000
10
2.7725618458
20
-25.5384253446
30
0.0000000000
10
2.7639211125
20
-25.5631384025
30
0.0000000000
10
2.7518909455
20
-25.5844912405
30
0.0000000000
10
2.7366547326
20
-25.6020069183
30
0.0000000000
10
2.7235063970
20
-25.6115852946
30
0.0000000000
10
2.7159935284
20
-25.6156152961
30
0.0000000000
10
2.7149562155
20
-25.6161470398
30
0.0000000000
11
2.7786445913
21
-25.4815838641
31
0.0000000000
11
2.7769799200
21
-25.5114307653
31
0.0000000000
11
2.7717287292
21
-25.5388807750
31
0.0000000000
11
2.7629979571
21
-25.5633748054
31
0.0000000000
11
2.7509654054
21
-25.5844141039
31
0.0000000000
11
2.7358761389
21
-25.6015702600
31
0.0000000000
11
2.7180374584
21
-25.6144939899
31
0.0000000000
11
2.7149562155
21
-25.6161470398
31
0.0000000000
0
SPLINE
5
407
100
AcDbEntity
8
0
100
AcDbSpline
62
7
6
CONTINUOUS
70
0
71
3
72
14
73
10
74
8
42
0.0000001000
43
0.0000001000
44
0.0000000001
12
0.0000000000
22
-0.1567540012
32
0.0000000000
13
-0.1397989498
23
-0.0716622433
33
0.0000000000
40
0.0000000000
40
0.0000000000
40
0.0000000000
40
0.0000000000
40
0.1911658276
40
0.3699263789
40
0.5362431835
40
0.6911951393
40
0.8371323080
40
0.9776446192
40
1.0000000000
40
1.0000000000
40
1.0000000000
40
1.0000000000
10
2.2503774196
20
-25.7525949228
30
0.0000000000
10
2.2503774196
20
-25.7625835922
30
0.0000000000
10
2.2492895171
20
-25.7819392190
30
0.0000000000
10
2.2440491816
20
-25.8095549898
30
0.0000000000
10
2.2353258597
20
-25.8343059490
30
0.0000000000
10
2.2232433466
20
-25.8556842417
30
0.0000000000
10
2.2079857467
20
-25.8732142593
30
0.0000000000
10
2.1948299355
20
-25.8828051700
30
0.0000000000
10
2.1873137289
20
-25.8868380190
30
0.0000000000
10
2.1862719760
20
-25.8873720312
30
0.0000000000
11
2.2503774196
21
-25.7525949228
31
0.0000000000
11
2.2485781681
21
-25.7825068661
31
0.0000000000
11
2.2432170030
21
-25.8100106575
31
0.0000000000
11
2.2344030092
21
-25.8345463745
31
0.0000000000
11
2.2223155745
21
-25.8556145000
31
0.0000000000
11
2.2072007433
21
-25.8727861048
31
0.0000000000
11
2.1893662094
21
-25.8857115918
31
0.0000000000
11
2.1862719760
21
-25.8873720312
31
0.0000000000
0
SPLINE
5
408
100
AcDbEntity
8
0
100
AcDbSpline
62
9
6
CONTINUOUS
70
0
71
3
72
14
73
10
74
8
42
0.0000001000
43
0.0000001000
44
0.0000000001
12
-0.0007569433
22
-0.1588062495
32
0.0000000000
13
-0.1429761102
23
-0.0699340330
33
0.0000000000
40
0.0000000000
40
0.0000000000
40
0.0000000000
40
0.0000000000
40
0.1891923884
40
0.3661408429
40
0.5307607172
40
0.6840648807
40
0.8283202428
40
0.9670294790
40
1.0000000000
40
1.0000000000
40
1.0000000000
40
1.0000000000
10
0.6490966287
20
-26.5326295224
30
0.0000000000
10
0.6490488928
20
-26.5426445003
30
0.0000000000
10
0.6478715249
20
-26.5620473586
30
0.0000000000
10
0.6425163307
20
-26.5897185338
30
0.0000000000
10
0.6337044488
20
-26.6145104966
30
0.0000000000
10
0.6215622811
20
-26.6359153206
30
0.0000000000
10
0.6062750501
20
-26.6534584708
30
0.0000000000
10
0.5926393459
20
-26.6633991677
30
0.0000000000
10
0.5845699115
20
-26.6676301852
30
0.0000000000
10
0.5829985792
20
-26.6683987724
30
0.0000000000
11
0.6490966287
21
-26.5326295224
31
0.0000000000
11
0.6471601498
21
-26.5626123274
31
0.0000000000
11
0.6416845671
21
-26.5901745331
31
0.0000000000
11
0.6327813891
21
-26.6147547665
31
0.0000000000
11
0.6206319280
21
-26.6358525195
31
0.0000000000
11
0.6054836289
21
-26.6530381920
31
0.0000000000
11
0.5876449936
21
-26.6659618993
31
0.0000000000
11
0.5829985792
21
-26.6683987724
31
0.0000000000
0
SPLINE
5
409
100
AcDbEntity
8
0
100
AcDbSpline
62
7
6
CONTINUOUS
70
0
71
3
72
18
73
14
74
12
42
0.0000001000
43
0.0000001000
44
0.0000000001
12
-0.3181467074
22
-0.1775356350
32
0.0000000000
13
-0.3258665114
23
0.1629332557
33
0.0000000000
40
0.0000000000
40
0.0000000000
40
0.0000000000
40
0.0000000000
40
0.0824711995
40
0.1703927471
40
0.2624911810
40
0.3579786781
40
0.4549885733
40
0.5527374323
40
0.6491673466
40
0.7435257574
40
0.8339975930
40
0.9198803357
40
1.0000000000
40
1.0000000000
40
1.0000000000
40
1.0000000000
10
1.3603172368
20
14.1508129065
30
0.0000000000
10
1.3515712566
20
14.1459323809
30
0.0000000000
10
1.3328989926
20
14.1369059688
30
0.0000000000
10
1.3029351485
20
14.1259039328
30
0.0000000000
10
1.2705958488
20
14.1171659673
30
0.0000000000
10
1.2365737632
20
14.1108800124
30
0.0000000000
10
1.2014883855
20
14.1071581867
30
0.0000000000
10
1.1661083740
20
14.1060811350
30
0.0000000000
10
1.1310690335
20
14.1076664835
30
0.0000000000
10
1.0971353818
20
14.1118770353
30
0.0000000000
10
1.0649182177
20
14.1186366841
30
0.0000000000
10
1.0351025046
20
14.1277986391
30
0.0000000000
10
1.0164980490
20
14.1356936389
30
0.0000000000
10
1.0077952772
20
14.1400450248
30
0.0000000000
11
1.3603172368
21
14.1508129065
31
0.0000000000
11
1.3333139174
21
14.1376361831
31
0.0000000000
11
1.3032732906
21
14.1265169140
31
0.0000000000
11
1.2708957903
21
14.1177088328
31
0.0000000000
11
1.2366924707
21
14.1113524530
31
0.0000000000
11
1.2015477243
21
14.1076085512
31
0.0000000000
11
1.1659512763
21
14.1065286230
31
0.0000000000
11
1.1308559410
21
14.1081397048
31
0.0000000000
11
1.0967454757
21
14.1124169067
31
0.0000000000
11
1.0645000043
21
14.1192503482
31
0.0000000000
11
1.0346182095
21
14.1285304482
31
0.0000000000
11
1.0077952772
21
14.1400450248
31
0.0000000000
0
SPLINE
5
40A
100
AcDbEntity
8
0
100
AcDbSpline
62
7
6
CONTINUOUS
70
0
71
3
72
12
73
8
74
6
42
0.0000001000
43
0.0000001000
44
0.0000000001
12
0.0149063552
22
-0.1789640901
32
0.0000000000
13
-0.1638788093
23
-0.0758088607
33
0.0000000000
40
0.0000000000
40
0.0000000000
40
0.0000000000
40
0.0000000000
40
0.2595931527
40
0.4912744672
40
0.6975392873
40
0.8863861341
40
1.0000000000
40
1.0000000000
40
1.0000000000
40
1.0000000000
10
0.1592798806
20
-9.6319846071
30
0.0000000000
10
0.1605697432
20
-9.6474705579
30
0.0000000000
10
0.1608489570
20
-9.6770456885
30
0.0000000000
10
0.1532050465
20
-9.7184143342
30
0.0000000000
10
0.1374290486
20
-9.7529892580
30
0.0000000000
10
0.1164878296
20
-9.7759090724
30
0.0000000000
10
0.1007655080
20
-9.7852878131
30
0.0000000000
10
0.0945592063
20
-9.7881587923
30
0.0000000000
11
0.1592798806
21
-9.6319846071
31
0.0000000000
11
0.1592836862
21
-9.6786033345
31
0.0000000000
11
0.1511847723
21
-9.7194136834
31
0.0000000000
11
0.1352683588
21
-9.7528616188
31
0.0000000000
11
0.1121154672
21
-9.7776424966
31
0.0000000000
11
0.0945592063
21
-9.7881587923
31
0.0000000000
0
SPLINE
5
40B
100
AcDbEntity
8
0
100
AcDbSpline
62
7
6
CONTINUOUS
70
0
71
3
72
13
73
9
74
7
42
0.0000001000
43
0.0000001000
44
0.0000000001
12
0.2110094684
22
0.1230284267
32
0.0000000000
13
0.2181323899
23
-0.1090661950
33
0.0000000000
40
0.0000000000
40
0.0000000000
40
0.0000000000
40
0.0000000000
40
0.1501519207
40
0.3040749742
40
0.4637350501
40
0.6318343932
40
0.8102466806
40
1.0000000000
40
1.0000000000
40
1.0000000000
40
1.0000000000
10
-13.7331453435
20
21.4020106509
30
0.0000000000
10
-13.7225841845
20
21.4081683024
30
0.0000000000
10
-13.6999664944
20
21.4185359867
30
0.0000000000
10
-13.6630642269
20
21.4273139940
30
0.0000000000
10
-13.6237434887
20
21.4291739488
30
0.0000000000
10
-13.5827268430
20
21.4241328018
30
0.0000000000
10
-13.5406133261
20
21.4123322612
30
0.0000000000
10
-13.5130390190
20
21.4004621729
30
0.0000000000
10
-13.4992419040
20
21.3935636154
30
0.0000000000
11
-13.7331453435
21
21.4020106509
31
0.0000000000
11
-13.6998618727
21
21.4172828600
31
0.0000000000
11
-13.6633654280
21
21.4260669915
31
0.0000000000
11
-13.6244789910
21
21.4280664605
31
0.0000000000
11
-13.5837665572
21
21.4232532078
31
0.0000000000
11
-13.5418182002
21
21.4116968254
31
0.0000000000
11
-13.4992419040
21
21.3935636154
31
0.0000000000
0
SPLINE
5
40C
100
AcDbEntity
8
0
100
AcDbSpline
62
9
6
CONTINUOUS
70
0
71
3
72
13
73
9
74
7
42
0.0000001000
43
0.0000001000
44
0.0000000001
12
-0.0003441253
22
-0.1195935750
32
0.0000000000
13
-0.1063406336
23
-0.0537926089
33
0.0000000000
40
0.0000000000
40
0.0000000000
40
0.0000000000
40
0.0000000000
40
0.0699053973
40
0.2232653471
40
0.3887464851
40
0.5718216948
40
0.7753481550
40
1.0000000000
40
1.0000000000
40
1.0000000000
40
1.0000000000
10
2.8508372589
20
-25.0463673720
30
0.0000000000
10
2.8508292401
20
-25.0491541175
30
0.0000000000
10
2.8502163498
20
-25.0580523563
30
0.0000000000
10
2.8458743568
20
-25.0730728679
30
0.0000000000
10
2.8356079319
20
-25.0903710272
30
0.0000000000
10
2.8206636049
20
-25.1065955972
30
0.0000000000
10
2.8013918267
20
-25.1215119642
30
0.0000000000
10
2.7866077978
20
-25.1300241444
30
0.0000000000
10
2.7786445913
20
-25.1340523474
30
0.0000000000
11
2.8508372589
21
-25.0463673720
31
0.0000000000
11
2.8502610586
21
-25.0546996456
31
0.0000000000
11
2.8453248163
21
-25.0722966243
31
0.0000000000
11
2.8354481439
21
-25.0893658460
31
0.0000000000
11
2.8208306000
21
-25.1055624002
31
0.0000000000
11
2.8017676999
21
-25.1205588845
31
0.0000000000
11
2.7786445913
21
-25.1340523474
31
0.0000000000
0
SPLINE
5
40D
100
AcDbEntity
8
0
100
AcDbSpline
62
9
6
CONTINUOUS
70
0
71
3
72
9
73
5
74
3
42
0.0000001000
43
0.0000001000
44
0.0000000001
12
-0.0222198959
22
0.0111157836
32
0.0000000000
13
-0.0242799489
23
0.0050285421
33
0.0000000000
40
0.0000000000
40
0.0000000000
40
0.0000000000
40
0.0000000000
40
0.1862442843
40
1.0000000000
40
1.0000000000
40
1.0000000000
40
1.0000000000
10
2.7126455815
20
-24.8225734486
30
0.0000000000
10
2.7112661386
20
-24.8218833649
30
0.0000000000
10
2.7037674403
20
-24.8183605781
30
0.0000000000
10
2.6958167784
20
-24.8158495430
30
0.0000000000
10
2.6892307960
20
-24.8144855414
30
0.0000000000
11
2.7126455815
21
-24.8225734486
31
0.0000000000
11
2.7084572820
21
-24.8206062617
31
0.0000000000
11
2.6892307960
21
-24.8144855414
31
0.0000000000
0
SPLINE
5
40E
100
AcDbEntity
8
0
100
AcDbSpline
62
9
6
CONTINUOUS
70
0
71
3
72
13
73
9
74
7
42
0.0000001000
43
0.0000001000
44
0.0000000001
12
-0.0000103605
22
-0.1197713150
32
0.0000000000
13
-0.1064979830
23
-0.0538722044
33
0.0000000000
40
0.0000000000
40
0.0000000000
40
0.0000000000
40
0.0000000000
40
0.0713649499
40
0.2245117645
40
0.3897673676
40
0.5725838447
40
0.7758233750
40
1.0000000000
40
1.0000000000
40
1.0000000000
40
1.0000000000
10
2.8508375185
20
16.2534137217
30
0.0000000000
10
2.8508372720
20
16.2505645637
30
0.0000000000
10
2.8502318604
20
16.2416015843
30
0.0000000000
10
2.8458695285
20
16.2265200730
30
0.0000000000
10
2.8355995734
20
16.2092219783
30
0.0000000000
10
2.8206520215
20
16.1929980195
30
0.0000000000
10
2.8013824687
20
16.1780864852
30
0.0000000000
10
2.7866027108
20
16.1695774217
30
0.0000000000
10
2.7786445913
20
16.1655517920
30
0.0000000000
11
2.8508375185
21
16.2534137217
31
0.0000000000
11
2.8502596724
21
16.2448943548
31
0.0000000000
11
2.8453201621
21
16.2272966256
31
0.0000000000
11
2.8354397801
21
16.2102269361
31
0.0000000000
11
2.8208192271
21
16.1940312074
31
0.0000000000
11
2.8017534956
21
16.1790356631
31
0.0000000000
11
2.7786445913
21
16.1655517920
31
0.0000000000
0
SPLINE
5
40F
100
AcDbEntity
8
0
100
AcDbSpline
62
9
6
CONTINUOUS
70
0
71
3
72
14
73
10
74
8
42
0.0000001000
43
0.0000001000
44
0.0000000001
12
0.0000000000
22
-0.1577272144
32
0.0000000000
13
0.1414103592
23
-0.0706460082
33
0.0000000000
40
0.0000000000
40
0.0000000000
40
0.0000000000
40
0.0000000000
40
0.1893088629
40
0.3663812135
40
0.5311737743
40
0.6847360083
40
0.8293612095
40
0.9685595038
40
1.0000000000
40
1.0000000000
40
1.0000000000
40
1.0000000000
10
0.2965746691
20
-26.5321167986
30
0.0000000000
10
0.2965746691
20
-26.5420698518
30
0.0000000000
10
0.2976550210
20
-26.5613587812
30
0.0000000000
10
0.3028575527
20
-26.5888863972
30
0.0000000000
10
0.3115179441
20
-26.6135733448
30
0.0000000000
10
0.3235137883
20
-26.6349171232
30
0.0000000000
10
0.3386634932
20
-26.6524475102
30
0.0000000000
10
0.3521300348
20
-26.6623626515
30
0.0000000000
10
0.3600665127
20
-26.6665937636
30
0.0000000000
10
0.3615485167
20
-26.6673341455
30
0.0000000000
11
0.2965746691
21
-26.5321167986
31
0.0000000000
11
0.2983607197
21
-26.5619224933
31
0.0000000000
11
0.3036827811
21
-26.5893398580
31
0.0000000000
11
0.3124333111
21
-26.6138148739
31
0.0000000000
11
0.3244354890
21
-26.6348529781
31
0.0000000000
11
0.3394467886
21
-26.6520290564
31
0.0000000000
11
0.3571638787
21
-26.6649960343
31
0.0000000000
11
0.3615485167
21
-26.6673341455
31
0.0000000000
0
SPLINE
5
410
100
AcDbEntity
8
0
100
AcDbSpline
62
9
6
CONTINUOUS
70
0
71
3
72
13
73
9
74
7
42
0.0000001000
43
0.0000001000
44
0.0000000001
12
-0.1019581355
22
0.0509790677
32
0.0000000000
13
-0.0117992700
23
0.1137503576
33
0.0000000000
40
0.0000000000
40
0.0000000000
40
0.0000000000
40
0.0000000000
40
0.2357626078
40
0.4494491229
40
0.6416842849
40
0.8153507858
40
0.9760570376
40
1.0000000000
40
1.0000000000
40
1.0000000000
40
1.0000000000
10
-1.3819634013
20
15.9467303101
30
0.0000000000
10
-1.3899760400
20
15.9507366295
30
0.0000000000
10
-1.4048621618
20
15.9592082745
30
0.0000000000
10
-1.4243041236
20
15.9740671719
30
0.0000000000
10
-1.4394326533
20
15.9902439350
30
0.0000000000
10
-1.4498969985
20
16.0075043121
30
0.0000000000
10
-1.4538720054
20
16.0207021790
30
0.0000000000
10
-1.4547501298
20
16.0276867478
30
0.0000000000
10
-1.4548442996
20
16.0285945879
30
0.0000000000
11
-1.3819634013
21
15.9467303101
31
0.0000000000
11
-1.4052442791
21
15.9601570552
31
0.0000000000
11
-1.4244820439
21
15.9750987553
31
0.0000000000
11
-1.4392880366
21
15.9912536175
31
0.0000000000
11
-1.4493628012
21
16.0082949997
31
0.0000000000
11
-1.4545027249
21
16.0258784908
31
0.0000000000
11
-1.4548442996
21
16.0285945879
31
0.0000000000
0
SPLINE
5
411
100
AcDbEntity
8
0
100
AcDbSpline
62
9
6
CONTINUOUS
70
0
71
3
72
8
73
4
74
2
42
0.0000001000
43
0.0000001000
44
0.0000000001
12
-0.0006741807
22
0.0064994104
32
0.0000000000
13
-0.0000005379
23
0.0065363368
33
0.0000000000
40
0.0000000000
40
0.0000000000
40
0.0000000000
40
0.0000000000
40
1.0000000000
40
1.0000000000
40
1.0000000000
40
1.0000000000
10
-1.4548442996
20
16.0285945879
30
0.0000000000
10
-1.4550690265
20
16.0307610581
30
0.0000000000
10
-1.4551815969
20
16.0329398868
30
0.0000000000
10
-1.4551817762
20
16.0351186657
30
0.0000000000
11
-1.4548442996
21
16.0285945879
31
0.0000000000
11
-1.4551817762
21
16.0351186657
31
0.0000000000
0
SPLINE
5
412
100
AcDbEntity
8
0
100
AcDbSpline
62
9
6
CONTINUOUS
70
0
71
3
72
13
73
9
74
7
42
0.0000001000
43
0.0000001000
44
0.0000000001
12
-0.1077837588
22
0.0538918794
32
0.0000000000
13
-0.0000097653
23
0.1209330093
33
0.0000000000
40
0.0000000000
40
0.0000000000
40
0.0000000000
40
0.0000000000
40
0.2230342452
40
0.4251835925
40
0.6070362850
40
0.7713222798
40
0.9233481615
40
1.0000000000
40
1.0000000000
40
1.0000000000
40
1.0000000000
10
-1.3819634013
20
16.2867042443
30
0.0000000000
10
-1.3899765578
20
16.2907108225
30
0.0000000000
10
-1.4048635962
20
16.2991830557
30
0.0000000000
10
-1.4243064625
20
16.3140430878
30
0.0000000000
10
-1.4394352391
20
16.3302210977
30
0.0000000000
10
-1.4498991227
20
16.3474827162
30
0.0000000000
10
-1.4545064120
20
16.3627841763
30
0.0000000000
10
-1.4551815250
20
16.3720026984
30
0.0000000000
10
-1.4551817746
20
16.3750926109
30
0.0000000000
11
-1.3819634013
21
16.2867042443
31
0.0000000000
11
-1.4052457268
21
16.3001319553
31
0.0000000000
11
-1.4244844376
21
16.3150748759
31
0.0000000000
11
-1.4392905407
21
16.3312308928
31
0.0000000000
11
-1.4493647771
21
16.3482734307
31
0.0000000000
11
-1.4545035468
21
16.3658579709
31
0.0000000000
11
-1.4551817746
21
16.3750926109
31
0.0000000000
0
SPLINE
5
413
100
AcDbEntity
8
0
100
AcDbSpline
62
9
6
CONTINUOUS
70
0
71
3
72
18
73
14
74
12
42
0.0000001000
43
0.0000001000
44
0.0000000001
12
0.3245465336
22
-0.1622732668
32
0.0000000000
13
0.3252956702
23
0.1607662669
33
0.0000000000
40
0.0000000000
40
0.0000000000
40
0.0000000000
40
0.0000000000
40
0.0805551721
40
0.1670661703
40
0.2584105715
40
0.3533608806
40
0.4505383769
40
0.5484896854
40
0.6457313776
40
0.7408057878
40
0.8323347676
40
0.9190782196
40
1.0000000000
40
1.0000000000
40
1.0000000000
40
1.0000000000
10
0.2965746691
20
15.4474352091
30
0.0000000000
10
0.3052893030
20
15.4430778921
30
0.0000000000
10
0.3239017560
20
15.4350973272
30
0.0000000000
10
0.3537164343
20
15.4255897214
30
0.0000000000
10
0.3859284983
20
15.4182692523
30
0.0000000000
10
0.4198834056
20
15.4132878074
30
0.0000000000
10
0.4549069467
20
15.4107448330
30
0.0000000000
10
0.4902989797
20
15.4106918950
30
0.0000000000
10
0.5253527441
20
15.4131301031
30
0.0000000000
10
0.5593678185
20
15.4180101236
30
0.0000000000
10
0.5916684047
20
15.4252346209
30
0.0000000000
10
0.6216091095
20
15.4346573131
30
0.0000000000
10
0.6403221271
20
15.4425859877
30
0.0000000000
10
0.6490966287
20
15.4469224852
30
0.0000000000
11
0.2965746691
21
15.4474352091
31
0.0000000000
11
0.3233924131
21
15.4358081667
31
0.0000000000
11
0.3532723767
21
15.4261866141
31
0.0000000000
11
0.3855790964
21
15.4187807985
31
0.0000000000
11
0.4196614770
21
15.4137401877
31
0.0000000000
11
0.4548287197
21
15.4111671172
31
0.0000000000
11
0.4903707089
21
15.4111135512
31
0.0000000000
11
0.5255688969
21
15.4135806333
31
0.0000000000
11
0.5597118094
21
15.4185185339
31
0.0000000000
11
0.5921092485
21
15.4258274602
31
0.0000000000
11
0.6221063434
21
15.4353596873
31
0.0000000000
11
0.6490966287
21
15.4469224852
31
0.0000000000
0
SPLINE
5
414
100
AcDbEntity
8
0
100
AcDbSpline
62
9
6
CONTINUOUS
70
0
71
3
72
18
73
14
74
12
42
0.0000001000
43
0.0000001000
44
0.0000000001
12
0.3245465248
22
-0.1622732624
32
0.0000000000
13
0.3252956614
23
0.1607662625
33
0.0000000000
40
0.0000000000
40
0.0000000000
40
0.0000000000
40
0.0000000000
40
0.0806542501
40
0.1671652429
40
0.2585077070
40
0.3534491940
40
0.4506168653
40
0.5485559484
40
0.6457840580
40
0.7408442443
40
0.8323592115
40
0.9190895355
40
1.0000000000
40
1.0000000000
40
1.0000000000
40
1.0000000000
10
0.2965746691
20
15.1074612749
30
0.0000000000
10
0.3053000213
20
15.1030985988
30
0.0000000000
10
0.3239241718
20
15.0951145745
30
0.0000000000
10
0.3537509941
20
15.0856064787
30
0.0000000000
10
0.3859624183
20
15.0782891006
30
0.0000000000
10
0.4199152096
20
15.0733105057
30
0.0000000000
10
0.4549351712
20
15.0707699590
30
0.0000000000
10
0.4903228849
20
15.0707188773
30
0.0000000000
10
0.5253717000
20
15.0731582906
30
0.0000000000
10
0.5593815788
20
15.0780388218
30
0.0000000000
10
0.5916770652
20
15.0852631332
30
0.0000000000
10
0.6216131390
20
15.0946849963
30
0.0000000000
10
0.6403233544
20
15.1026126601
30
0.0000000000
10
0.6490966287
20
15.1069485511
30
0.0000000000
11
0.2965746691
21
15.1074612749
31
0.0000000000
11
0.3234261196
21
15.0958216003
31
0.0000000000
11
0.3533070880
21
15.0862031775
31
0.0000000000
11
0.3856137738
21
15.0788003646
31
0.0000000000
11
0.4196933604
21
15.0737627492
31
0.0000000000
11
0.4548572066
21
15.0711921257
31
0.0000000000
11
0.4903947616
21
15.0711404383
31
0.0000000000
11
0.5255879231
21
15.0736087314
31
0.0000000000
11
0.5597255479
21
15.0785471286
31
0.0000000000
11
0.5921178221
21
15.0858558404
31
0.0000000000
11
0.6221101996
21
15.0953871807
31
0.0000000000
11
0.6490966287
21
15.1069485511
31
0.0000000000
0
SPLINE
5
415
100
AcDbEntity
8
0
100
AcDbSpline
62
9
6
CONTINUOUS
70
0
71
3
72
13
73
9
74
7
42
0.0000001000
43
0.0000001000
44
0.0000000001
12
-0.0000103605
22
-0.1197713150
32
0.0000000000
13
-0.1064979830
23
-0.0538722044
33
0.0000000000
40
0.0000000000
40
0.0000000000
40
0.0000000000
40
0.0000000000
40
0.0713649499
40
0.2245117645
40
0.3897673676
40
0.5725838447
40
0.7758233750
40
1.0000000000
40
1.0000000000
40
1.0000000000
40
1.0000000000
10
-9.4528204742
20
22.4052427180
30
0.0000000000
10
-9.4528207206
20
22.4023935601
30
0.0000000000
10
-9.4534261322
20
22.3934305806
30
0.0000000000
10
-9.4577884641
20
22.3783490693
30
0.0000000000
10
-9.4680584193
20
22.3610509746
30
0.0000000000
10
-9.4830059711
20
22.3448270158
30
0.0000000000
10
-9.5022755240
20
22.3299154815
30
0.0000000000
10
-9.5170552819
20
22.3214064180
30
0.0000000000
10
-9.5250134013
20
22.3173807883
30
0.0000000000
11
-9.4528204742
21
22.4052427180
31
0.0000000000
11
-9.4533983203
21
22.3967233511
31
0.0000000000
11
-9.4583378305
21
22.3791256219
31
0.0000000000
11
-9.4682182125
21
22.3620559324
31
0.0000000000
11
-9.4828387655
21
22.3458602037
31
0.0000000000
11
-9.5019044971
21
22.3308646594
31
0.0000000000
11
-9.5250134013
21
22.3173807883
31
0.0000000000
0
SPLINE
5
416
100
AcDbEntity
8
0
100
AcDbSpline
62
9
6
CONTINUOUS
70
0
71
3
72
18
73
14
74
12
42
0.0000001000
43
0.0000001000
44
0.0000000001
12
0.3245465336
22
-0.1622732668
32
0.0000000000
13
0.3252956701
23
0.1607662669
33
0.0000000000
40
0.0000000000
40
0.0000000000
40
0.0000000000
40
0.0000000000
40
0.0806659212
40
0.1671904826
40
0.2585474575
40
0.3535037071
40
0.4506855134
40
0.5486373666
40
0.6458757671
40
0.7409451719
40
0.8324620195
40
0.9191922409
40
1.0000000000
40
1.0000000000
40
1.0000000000
40
1.0000000000
10
-12.0070833236
20
21.5992642054
30
0.0000000000
10
-11.9983567085
20
21.5949008979
30
0.0000000000
10
-11.9797296684
20
21.5869158186
30
0.0000000000
10
-11.9498980616
20
21.5774068504
30
0.0000000000
10
-11.9176813558
20
21.5700892638
30
0.0000000000
10
-11.8837231700
20
21.5651111812
30
0.0000000000
10
-11.8486980538
20
21.5625718677
30
0.0000000000
10
-11.8133058259
20
21.5625226977
30
0.0000000000
10
-11.7782532596
20
21.5649646191
30
0.0000000000
10
-11.7442411720
20
21.5698480980
30
0.0000000000
10
-11.7119450300
20
21.5770756013
30
0.0000000000
10
-11.6820215702
20
21.5864969799
30
0.0000000000
10
-11.6633235019
20
21.5944210943
30
0.0000000000
10
-11.6545613639
20
21.5987514815
30
0.0000000000
11
-12.0070833236
21
21.5992642054
31
0.0000000000
11
-11.9802279016
21
21.5876230426
31
0.0000000000
11
-11.9503420603
21
21.5780036873
31
0.0000000000
11
-11.9180300265
21
21.5706006357
31
0.0000000000
11
-11.8839449506
21
21.5655635175
31
0.0000000000
11
-11.8487758703
21
21.5629941326
31
0.0000000000
11
-11.8132336780
21
21.5629443793
31
0.0000000000
11
-11.7780369497
21
21.5654152012
31
0.0000000000
11
-11.7438963925
21
21.5703566972
31
0.0000000000
11
-11.7115041166
21
21.5776685051
31
0.0000000000
11
-11.6815128012
21
21.5872030669
31
0.0000000000
11
-11.6545613639
21
21.5987514815
31
0.0000000000
0
SPLINE
5
417
100
AcDbEntity
8
0
100
AcDbSpline
62
9
6
CONTINUOUS
70
0
71
3
72
18
73
14
74
12
42
0.0000001000
43
0.0000001000
44
0.0000000001
12
0.3245465297
22
-0.1622732649
32
0.0000000000
13
0.3252956663
23
0.1607662650
33
0.0000000000
40
0.0000000000
40
0.0000000000
40
0.0000000000
40
0.0000000000
40
0.0806602437
40
0.1671780028
40
0.2585287416
40
0.3534787968
40
0.4506549529
40
0.5486020717
40
0.6458367763
40
0.7409024534
40
0.8324161725
40
0.9191443834
40
1.0000000000
40
1.0000000000
40
1.0000000000
40
1.0000000000
10
-12.0070833236
20
21.2592902713
30
0.0000000000
10
-11.9983573228
20
21.2549272709
30
0.0000000000
10
-11.9797317108
20
21.2469427144
30
0.0000000000
10
-11.9499023612
20
21.2374341444
30
0.0000000000
10
-11.9176880324
20
21.2301166227
30
0.0000000000
10
-11.8837321021
20
21.2251382681
30
0.0000000000
10
-11.8487090429
20
21.2225983801
30
0.0000000000
10
-11.8133185239
20
21.2225483707
30
0.0000000000
10
-11.7782673623
20
21.2249892299
30
0.0000000000
10
-11.7442563887
20
21.2298714328
30
0.0000000000
10
-11.7119610166
20
21.2370974422
30
0.0000000000
10
-11.6820321899
20
21.2465189243
30
0.0000000000
10
-11.6633286911
20
21.2544445956
30
0.0000000000
10
-11.6545613639
20
21.2587775474
30
0.0000000000
11
-12.0070833236
21
21.2592902713
31
0.0000000000
11
-11.9802298335
21
21.2476498324
31
0.0000000000
11
-11.9503464333
21
21.2380309500
31
0.0000000000
11
-11.9180367088
21
21.2306279536
31
0.0000000000
11
-11.8839539443
21
21.2255905713
31
0.0000000000
11
-11.8487869623
21
21.2230206095
31
0.0000000000
11
-11.8132464895
21
21.2229700069
31
0.0000000000
11
-11.7780510311
21
21.2254397620
31
0.0000000000
11
-11.7439116521
21
21.2303799530
31
0.0000000000
11
-11.7115201948
21
21.2376902295
31
0.0000000000
11
-11.6815291061
21
21.2472230953
31
0.0000000000
11
-11.6545613639
21
21.2587775474
31
0.0000000000
0
SPLINE
5
418
100
AcDbEntity
8
0
100
AcDbSpline
62
9
6
CONTINUOUS
70
0
71
3
72
13
73
9
74
7
42
0.0000001000
43
0.0000001000
44
0.0000000001
12
-0.1042736524
22
0.0521368262
32
0.0000000000
13
-0.0072779297
23
0.1167559790
33
0.0000000000
40
0.0000000000
40
0.0000000000
40
0.0000000000
40
0.0000000000
40
0.2304684885
40
0.4394046566
40
0.6273657379
40
0.7971723394
40
0.9543046347
40
1.0000000000
40
1.0000000000
40
1.0000000000
40
1.0000000000
10
-13.6856213940
20
22.0985593065
30
0.0000000000
10
-13.6936319910
20
22.1025646050
30
0.0000000000
10
-13.7085160305
20
22.1110348037
30
0.0000000000
10
-13.7279564755
20
22.1258912128
30
0.0000000000
10
-13.7430856538
20
22.1420665751
30
0.0000000000
10
-13.7535513252
20
22.1593254471
30
0.0000000000
10
-13.7577808701
20
22.1733618243
30
0.0000000000
10
-13.7586062250
20
22.1812335568
30
0.0000000000
10
-13.7587170809
20
22.1830119591
30
0.0000000000
11
-13.6856213940
21
22.0985593065
31
0.0000000000
11
-13.7088965632
21
22.1119822429
31
0.0000000000
11
-13.7281345183
21
22.1269227114
31
0.0000000000
11
-13.7429411718
21
22.1430761335
31
0.0000000000
11
-13.7530173692
21
22.1601162035
31
0.0000000000
11
-13.7581593761
21
22.1776984430
31
0.0000000000
11
-13.7587170809
21
22.1830119591
31
0.0000000000
0
SPLINE
5
419
100
AcDbEntity
8
0
100
AcDbSpline
62
9
6
CONTINUOUS
70
0
71
3
72
8
73
4
74
2
42
0.0000001000
43
0.0000001000
44
0.0000000001
12
-0.0002449948
22
0.0039303224
32
0.0000000000
13
-0.0000003333
23
0.0039383539
33
0.0000000000
40
0.0000000000
40
0.0000000000
40
0.0000000000
40
0.0000000000
40
1.0000000000
40
1.0000000000
40
1.0000000000
40
1.0000000000
10
-13.7587170809
20
22.1830119591
30
0.0000000000
10
-13.7587987458
20
22.1843220666
30
0.0000000000
10
-13.7588396602
20
22.1856348698
30
0.0000000000
10
-13.7588397713
20
22.1869476544
30
0.0000000000
11
-13.7587170809
21
22.1830119591
31
0.0000000000
11
-13.7588397713
21
22.1869476544
31
0.0000000000
0
SPLINE
5
41A
100
AcDbEntity
8
0
100
AcDbSpline
62
9
6
CONTINUOUS
70
0
71
3
72
13
73
9
74
7
42
0.0000001000
43
0.0000001000
44
0.0000000001
12
-0.1077837588
22
0.0538918794
32
0.0000000000
13
-0.0000097653
23
0.1209330093
33
0.0000000000
40
0.0000000000
40
0.0000000000
40
0.0000000000
40
0.0000000000
40
0.2230342452
40
0.4251835925
40
0.6070362850
40
0.7713222798
40
0.9233481615
40
1.0000000000
40
1.0000000000
40
1.0000000000
40
1.0000000000
10
-13.6856213940
20
22.4385332406
30
0.0000000000
10
-13.6936345504
20
22.4425398188
30
0.0000000000
10
-13.7085215889
20
22.4510120521
30
0.0000000000
10
-13.7279644552
20
22.4658720841
30
0.0000000000
10
-13.7430932318
20
22.4820500940
30
0.0000000000
10
-13.7535571153
20
22.4993117125
30
0.0000000000
10
-13.7581644047
20
22.5146131726
30
0.0000000000
10
-13.7588395177
20
22.5238316947
30
0.0000000000
10
-13.7588397672
20
22.5269216072
30
0.0000000000
11
-13.6856213940
21
22.4385332406
31
0.0000000000
11
-13.7089037195
21
22.4519609516
31
0.0000000000
11
-13.7281424302
21
22.4669038722
31
0.0000000000
11
-13.7429485333
21
22.4830598891
31
0.0000000000
11
-13.7530227697
21
22.5001024271
31
0.0000000000
11
-13.7581615395
21
22.5176869672
31
0.0000000000
11
-13.7588397672
21
22.5269216072
31
0.0000000000
0
SPLINE
5
41B
100
AcDbEntity
8
0
100
AcDbSpline
62
9
6
CONTINUOUS
70
0
71
3
72
12
73
8
74
6
42
0.0000001000
43
0.0000001000
44
0.0000000001
12
0.1046699958
22
0.0536555175
32
0.0000000000
13
0.1052195208
23
-0.0519968360
33
0.0000000000
40
0.0000000000
40
0.0000000000
40
0.0000000000
40
0.0000000000
40
0.1567768319
40
0.3485859565
40
0.5508368444
40
0.7672930631
40
1.0000000000
40
1.0000000000
40
1.0000000000
40
1.0000000000
10
-13.6229584734
20
22.7493573855
30
0.0000000000
10
-13.6174885300
20
22.7521613662
30
0.0000000000
10
-13.6047103325
20
22.7572002536
30
0.0000000000
10
-13.5832729279
20
22.7607324849
30
0.0000000000
10
-13.5592584039
20
22.7595909864
30
0.0000000000
10
-13.5343413397
20
22.7536910874
30
0.0000000000
10
-13.5180349088
20
22.7469433970
30
0.0000000000
10
-13.5098731380
20
22.7429100556
30
0.0000000000
11
-13.6229584734
21
22.7493573855
31
0.0000000000
11
-13.6058351200
21
22.7561267563
31
0.0000000000
11
-13.5836403761
21
22.7598922730
31
0.0000000000
11
-13.5599230735
21
22.7589153825
31
0.0000000000
11
-13.5351660072
21
22.7532159704
31
0.0000000000
11
-13.5098731380
21
22.7429100556
31
0.0000000000
0
SPLINE
5
41C
100
AcDbEntity
8
0
100
AcDbSpline
62
9
6
CONTINUOUS
70
0
71
3
72
12
73
8
74
6
42
0.0000001000
43
0.0000001000
44
0.0000000001
12
0.1046699958
22
0.0536555175
32
0.0000000000
13
0.1052195208
23
-0.0519968360
33
0.0000000000
40
0.0000000000
40
0.0000000000
40
0.0000000000
40
0.0000000000
40
0.1567768319
40
0.3485859565
40
0.5508368444
40
0.7672930631
40
1.0000000000
40
1.0000000000
40
1.0000000000
40
1.0000000000
10
-1.3193004808
20
16.5975283892
30
0.0000000000
10
-1.3138305373
20
16.6003323699
30
0.0000000000
10
-1.3010523398
20
16.6053712573
30
0.0000000000
10
-1.2796149353
20
16.6089034886
30
0.0000000000
10
-1.2556004113
20
16.6077619901
30
0.0000000000
10
-1.2306833470
20
16.6018620911
30
0.0000000000
10
-1.2143769161
20
16.5951144007
30
0.0000000000
10
-1.2062151453
20
16.5910810592
30
0.0000000000
11
-1.3193004808
21
16.5975283892
31
0.0000000000
11
-1.3021771273
21
16.6042977600
31
0.0000000000
11
-1.2799823835
21
16.6080632767
31
0.0000000000
11
-1.2562650809
21
16.6070863861
31
0.0000000000
11
-1.2315080145
21
16.6013869741
31
0.0000000000
11
-1.2062151453
21
16.5910810592
31
0.0000000000
0
SPLINE
5
41D
100
AcDbEntity
8
0
100
AcDbSpline
62
9
6
CONTINUOUS
70
0
71
3
72
12
73
8
74
6
42
0.0000001000
43
0.0000001000
44
0.0000000001
12
-0.1029975786
22
0.0514556913
32
0.0000000000
13
-0.1030457036
23
-0.0507886144
33
0.0000000000
40
0.0000000000
40
0.0000000000
40
0.0000000000
40
0.0000000000
40
0.1465014453
40
0.3409787459
40
0.5457177993
40
0.7646569150
40
1.0000000000
40
1.0000000000
40
1.0000000000
40
1.0000000000
10
2.7126452960
20
16.8245616355
30
0.0000000000
10
2.7076155313
20
16.8270744132
30
0.0000000000
10
2.6953808915
20
16.8318717159
30
0.0000000000
10
2.6746100805
20
16.8354109550
30
0.0000000000
10
2.6508028780
20
16.8343830680
30
0.0000000000
10
2.6261094228
20
16.8286123490
30
0.0000000000
10
2.6099545856
20
16.8219570973
30
0.0000000000
10
2.6018708876
20
16.8179728476
30
0.0000000000
11
2.7126452960
21
16.8245616355
31
0.0000000000
11
2.6969650602
21
16.8307193801
31
0.0000000000
11
2.6749578506
21
16.8345724392
31
0.0000000000
11
2.6514530017
21
16.8337048433
31
0.0000000000
11
2.6269254726
21
16.8281341238
31
0.0000000000
11
2.6018708876
21
16.8179728476
31
0.0000000000
0
SPLINE
5
41E
100
AcDbEntity
8
0
100
AcDbSpline
62
9
6
CONTINUOUS
70
0
71
3
72
13
73
9
74
7
42
0.0000001000
43
0.0000001000
44
0.0000000001
12
-0.0002437873
22
-0.1196469686
32
0.0000000000
13
-0.1063877624
23
-0.0538164491
33
0.0000000000
40
0.0000000000
40
0.0000000000
40
0.0000000000
40
0.0000000000
40
0.0702311988
40
0.2235355882
40
0.3889559831
40
0.5719653101
40
0.7754225543
40
1.0000000000
40
1.0000000000
40
1.0000000000
40
1.0000000000
10
2.8508373883
20
-25.3938458456
30
0.0000000000
10
2.8508316811
20
-25.3966468290
30
0.0000000000
10
2.8502222694
20
-25.4055603264
30
0.0000000000
10
2.8458781276
20
-25.4205962770
30
0.0000000000
10
2.8356124471
20
-25.4378968322
30
0.0000000000
10
2.8206676308
20
-25.4541236605
30
0.0000000000
10
2.8013942693
20
-25.4690420210
30
0.0000000000
10
2.7866086886
20
-25.4775552106
30
0.0000000000
10
2.7786445913
20
-25.4815838641
30
0.0000000000
11
2.8508373883
21
-25.3938458456
31
0.0000000000
11
2.8502624594
21
-25.4022209042
31
0.0000000000
11
2.8453282951
21
-25.4198199982
31
0.0000000000
11
2.8354524940
21
-25.4368914545
31
0.0000000000
11
2.8208346413
21
-25.4530901740
31
0.0000000000
11
2.8017701871
21
-25.4680887214
31
0.0000000000
11
2.7786445913
21
-25.4815838641
31
0.0000000000
0
SPLINE
5
41F
100
AcDbEntity
8
0
100
AcDbSpline
62
9
6
CONTINUOUS
70
0
71
3
72
18
73
14
74
12
42
0.0000001000
43
0.0000001000
44
0.0000000001
12
0.0000000000
22
0.3669107664
32
0.0000000000
13
0.3272369926
23
0.1659501768
33
0.0000000000
40
0.0000000000
40
0.0000000000
40
0.0000000000
40
0.0000000000
40
0.0862518076
40
0.1766667997
40
0.2703238465
40
0.3661452927
40
0.4629552825
40
0.5595349054
40
0.6546748161
40
0.7472315712
40
0.8361737297
40
0.9206615776
40
1.0000000000
40
1.0000000000
40
1.0000000000
40
1.0000000000
10
-1.3819634013
20
16.2867042443
30
0.0000000000
10
-1.3819634013
20
16.2972531499
30
0.0000000000
10
-1.3806786255
20
16.3188739800
30
0.0000000000
10
-1.3752972489
20
16.3515459686
30
0.0000000000
10
-1.3665206367
20
16.3846855417
30
0.0000000000
10
-1.3545244785
20
16.4176290102
30
0.0000000000
10
-1.3395480320
20
16.4497227244
30
0.0000000000
10
-1.3218899001
20
16.4803267540
30
0.0000000000
10
-1.3019013719
20
16.5088318052
30
0.0000000000
10
-1.2799801884
20
16.5346699170
30
0.0000000000
10
-1.2565569966
20
16.5573291397
30
0.0000000000
10
-1.2321075573
20
16.5763485343
30
0.0000000000
10
-1.2148693009
20
16.5866923175
30
0.0000000000
10
-1.2062151453
20
16.5910810592
30
0.0000000000
11
-1.3819634013
21
16.2867042443
31
0.0000000000
11
-1.3801768531
21
16.3183004930
31
0.0000000000
11
-1.3748532878
21
16.3510447971
31
0.0000000000
11
-1.3661003225
21
16.3842751281
31
0.0000000000
11
-1.3540949027
21
16.4173197835
31
0.0000000000
11
-1.3390797474
21
16.4495107775
31
0.0000000000
11
-1.3213584046
21
16.4801974430
31
0.0000000000
11
-1.3012892185
21
16.5087594158
31
0.0000000000
11
-1.2792774439
21
16.5346199674
31
0.0000000000
11
-1.2557694981
21
16.5572549780
31
0.0000000000
11
-1.2312392786
21
16.5762085369
31
0.0000000000
11
-1.2062151453
21
16.5910810592
31
0.0000000000
0
SPLINE
5
420
100
AcDbEntity
8
0
100
AcDbSpline
62
9
6
CONTINUOUS
70
0
71
3
72
18
73
14
74
12
42
0.0000001000
43
0.0000001000
44
0.0000000001
12
0.0000000000
22
0.3669107486
32
0.0000000000
13
0.3272369767
23
0.1659501687
33
0.0000000000
40
0.0000000000
40
0.0000000000
40
0.0000000000
40
0.0000000000
40
0.0862394810
40
0.1766406970
40
0.2702834467
40
0.3660906775
40
0.4628872984
40
0.5594549994
40
0.6545853859
40
0.7471334945
40
0.8360738167
40
0.9205612840
40
1.0000000000
40
1.0000000000
40
1.0000000000
40
1.0000000000
10
0.2965746691
20
15.4474352091
30
0.0000000000
10
0.2965746691
20
15.4579826066
30
0.0000000000
10
0.2978590727
20
15.4796002383
30
0.0000000000
10
0.3032389375
20
15.5122674462
30
0.0000000000
10
0.3120131195
20
15.5454022904
30
0.0000000000
10
0.3240060654
20
15.5783414565
30
0.0000000000
10
0.3389786942
20
15.6104315990
30
0.0000000000
10
0.3566326452
20
15.6410331014
30
0.0000000000
10
0.3766167733
20
15.6695367184
30
0.0000000000
10
0.3985338779
20
15.6953750439
30
0.0000000000
10
0.4219535220
20
15.7180360050
30
0.0000000000
10
0.4464098370
20
15.7370660267
30
0.0000000000
10
0.4636578300
20
15.7474177346
30
0.0000000000
10
0.4723229251
20
15.7518120240
30
0.0000000000
11
0.2965746691
21
15.4474352091
31
0.0000000000
11
0.2983607197
21
15.4790269544
31
0.0000000000
11
0.3036827811
21
15.5117663804
31
0.0000000000
11
0.3124333111
21
15.5449919264
31
0.0000000000
11
0.3244354890
21
15.5780322085
31
0.0000000000
11
0.3394467886
21
15.6102195863
31
0.0000000000
11
0.3571638787
21
15.6409036544
31
0.0000000000
11
0.3772287525
21
15.6694643840
31
0.0000000000
11
0.3992359621
21
15.6953246527
31
0.0000000000
11
0.4227408110
21
15.7179619057
31
0.0000000000
11
0.4472683401
21
15.7369187153
31
0.0000000000
11
0.4723229251
21
15.7518120240
31
0.0000000000
0
SPLINE
5
421
100
AcDbEntity
8
0
100
AcDbSpline
62
9
6
CONTINUOUS
70
0
71
3
72
18
73
14
74
12
42
0.0000001000
43
0.0000001000
44
0.0000000001
12
0.0000000000
22
0.3669107664
32
0.0000000000
13
0.3272369926
23
0.1659501768
33
0.0000000000
40
0.0000000000
40
0.0000000000
40
0.0000000000
40
0.0000000000
40
0.0862518076
40
0.1766667997
40
0.2703238465
40
0.3661452927
40
0.4629552825
40
0.5595349054
40
0.6546748161
40
0.7472315712
40
0.8361737297
40
0.9206615776
40
1.0000000000
40
1.0000000000
40
1.0000000000
40
1.0000000000
10
-13.6856213940
20
22.4385332406
30
0.0000000000
10
-13.6856213940
20
22.4490821462
30
0.0000000000
10
-13.6843366181
20
22.4707029764
30
0.0000000000
10
-13.6789552415
20
22.5033749649
30
0.0000000000
10
-13.6701786294
20
22.5365145381
30
0.0000000000
10
-13.6581824711
20
22.5694580065
30
0.0000000000
10
-13.6432060246
20
22.6015517208
30
0.0000000000
10
-13.6255478927
20
22.6321557503
30
0.0000000000
10
-13.6055593646
20
22.6606608015
30
0.0000000000
10
-13.5836381811
20
22.6864989134
30
0.0000000000
10
-13.5602149892
20
22.7091581360
30
0.0000000000
10
-13.5357655499
20
22.7281775306
30
0.0000000000
10
-13.5185272936
20
22.7385213138
30
0.0000000000
10
-13.5098731380
20
22.7429100556
30
0.0000000000
11
-13.6856213940
21
22.4385332406
31
0.0000000000
11
-13.6838348457
21
22.4701294893
31
0.0000000000
11
-13.6785112805
21
22.5028737935
31
0.0000000000
11
-13.6697583151
21
22.5361041244
31
0.0000000000
11
-13.6577528954
21
22.5691487799
31
0.0000000000
11
-13.6427377401
21
22.6013397738
31
0.0000000000
11
-13.6250163972
21
22.6320264393
31
0.0000000000
11
-13.6049472112
21
22.6605884121
31
0.0000000000
11
-13.5829354366
21
22.6864489637
31
0.0000000000
11
-13.5594274908
21
22.7090839743
31
0.0000000000
11
-13.5348972712
21
22.7280375332
31
0.0000000000
11
-13.5098731380
21
22.7429100556
31
0.0000000000
0
SPLINE
5
422
100
AcDbEntity
8
0
100
AcDbSpline
62
9
6
CONTINUOUS
70
0
71
3
72
18
73
14
74
12
42
0.0000001000
43
0.0000001000
44
0.0000000001
12
0.0000000000
22
0.3669107664
32
0.0000000000
13
0.3272369926
23
0.1659501768
33
0.0000000000
40
0.0000000000
40
0.0000000000
40
0.0000000000
40
0.0000000000
40
0.0862518076
40
0.1766667997
40
0.2703238465
40
0.3661452927
40
0.4629552825
40
0.5595349054
40
0.6546748161
40
0.7472315712
40
0.8361737297
40
0.9206615776
40
1.0000000000
40
1.0000000000
40
1.0000000000
40
1.0000000000
10
-12.0070833236
20
21.5992642054
30
0.0000000000
10
-12.0070833236
20
21.6098131110
30
0.0000000000
10
-12.0057985477
20
21.6314339412
30
0.0000000000
10
-12.0004171711
20
21.6641059297
30
0.0000000000
10
-11.9916405589
20
21.6972455028
30
0.0000000000
10
-11.9796444007
20
21.7301889713
30
0.0000000000
10
-11.9646679542
20
21.7622826856
30
0.0000000000
10
-11.9470098223
20
21.7928867151
30
0.0000000000
10
-11.9270212942
20
21.8213917663
30
0.0000000000
10
-11.9051001106
20
21.8472298782
30
0.0000000000
10
-11.8816769188
20
21.8698891008
30
0.0000000000
10
-11.8572274795
20
21.8889084954
30
0.0000000000
10
-11.8399892232
20
21.8992522786
30
0.0000000000
10
-11.8313350676
20
21.9036410203
30
0.0000000000
11
-12.0070833236
21
21.5992642054
31
0.0000000000
11
-12.0052967753
21
21.6308604541
31
0.0000000000
11
-11.9999732100
21
21.6636047583
31
0.0000000000
11
-11.9912202447
21
21.6968350892
31
0.0000000000
11
-11.9792148250
21
21.7298797447
31
0.0000000000
11
-11.9641996697
21
21.7620707386
31
0.0000000000
11
-11.9464783268
21
21.7927574041
31
0.0000000000
11
-11.9264091408
21
21.8213193769
31
0.0000000000
11
-11.9043973662
21
21.8471799285
31
0.0000000000
11
-11.8808894204
21
21.8698149391
31
0.0000000000
11
-11.8563592008
21
21.8887684980
31
0.0000000000
11
-11.8313350676
21
21.9036410203
31
0.0000000000
0
SPLINE
5
423
100
AcDbEntity
8
0
100
AcDbSpline
62
7
6
CONTINUOUS
70
0
71
3
72
13
73
9
74
7
42
0.0000001000
43
0.0000001000
44
0.0000000001
12
-0.1103347068
22
0.0551673534
32
0.0000000000
13
-0.0000045137
23
0.1237437061
33
0.0000000000
40
0.0000000000
40
0.0000000000
40
0.0000000000
40
0.0000000000
40
0.2181056656
40
0.4173085111
40
0.5980290005
40
0.7641011752
40
0.9198313393
40
1.0000000000
40
1.0000000000
40
1.0000000000
40
1.0000000000
10
-0.6789704470
20
14.9834278869
30
0.0000000000
10
-0.6869919886
20
14.9874386577
30
0.0000000000
10
-0.7019238316
20
14.9960075230
30
0.0000000000
10
-0.7213716645
20
15.0112151312
30
0.0000000000
10
-0.7365072067
20
15.0279797022
30
0.0000000000
10
-0.7469460960
20
15.0460221275
30
0.0000000000
10
-0.7515150405
20
15.0621034463
30
0.0000000000
10
-0.7521895599
20
15.0718335342
30
0.0000000000
10
-0.7521896805
20
15.0751403233
30
0.0000000000
11
-0.6789704470
21
14.9834278869
31
0.0000000000
11
-0.7022284212
21
14.9969537636
31
0.0000000000
11
-0.7214714808
21
15.0122360908
31
0.0000000000
11
-0.7362589274
21
15.0289191082
31
0.0000000000
11
-0.7463547396
21
15.0467450451
31
0.0000000000
11
-0.7514993266
21
15.0652539244
31
0.0000000000
11
-0.7521896805
21
15.0751403233
31
0.0000000000
0
SPLINE
5
424
100
AcDbEntity
8
0
100
AcDbSpline
62
7
6
CONTINUOUS
70
0
71
3
72
13
73
9
74
7
42
0.0000001000
43
0.0000001000
44
0.0000000001
12
-0.1103347068
22
0.0551673534
32
0.0000000000
13
-0.0000045137
23
0.1237437061
33
0.0000000000
40
0.0000000000
40
0.0000000000
40
0.0000000000
40
0.0000000000
40
0.2181056656
40
0.4173085111
40
0.5980290005
40
0.7641011752
40
0.9198313393
40
1.0000000000
40
1.0000000000
40
1.0000000000
40
1.0000000000
10
-12.9826284397
20
21.1352568833
30
0.0000000000
10
-12.9906499813
20
21.1392676540
30
0.0000000000
10
-13.0055818242
20
21.1478365193
30
0.0000000000
10
-13.0250296572
20
21.1630441276
30
0.0000000000
10
-13.0401651993
20
21.1798086985
30
0.0000000000
10
-13.0506040887
20
21.1978511238
30
0.0000000000
10
-13.0551730331
20
21.2139324427
30
0.0000000000
10
-13.0558475525
20
21.2236625306
30
0.0000000000
10
-13.0558476731
20
21.2269693196
30
0.0000000000
11
-12.9826284397
21
21.1352568833
31
0.0000000000
11
-13.0058864138
21
21.1487827599
31
0.0000000000
11
-13.0251294735
21
21.1640650871
31
0.0000000000
11
-13.0399169201
21
21.1807481046
31
0.0000000000
11
-13.0500127322
21
21.1985740414
31
0.0000000000
11
-13.0551573193
21
21.2170829208
31
0.0000000000
11
-13.0558476731
21
21.2269693196
31
0.0000000000
0
SPLINE
5
425
100
AcDbEntity
8
0
100
AcDbSpline
62
7
6
CONTINUOUS
70
0
71
3
72
18
73
14
74
12
42
0.0000001000
43
0.0000001000
44
0.0000000001
12
-0.3181467074
22
-0.1775356350
32
0.0000000000
13
-0.3258665114
23
0.1629332557
33
0.0000000000
40
0.0000000000
40
0.0000000000
40
0.0000000000
40
0.0000000000
40
0.0824711995
40
0.1703927471
40
0.2624911810
40
0.3579786781
40
0.4549885733
40
0.5527374323
40
0.6491673466
40
0.7435257574
40
0.8339975930
40
0.9198803357
40
1.0000000000
40
1.0000000000
40
1.0000000000
40
1.0000000000
10
-10.9433407558
20
20.3026419028
30
0.0000000000
10
-10.9520867360
20
20.2977613772
30
0.0000000000
10
-10.9707590000
20
20.2887349651
30
0.0000000000
10
-11.0007228441
20
20.2777329291
30
0.0000000000
10
-11.0330621438
20
20.2689949636
30
0.0000000000
10
-11.0670842295
20
20.2627090087
30
0.0000000000
10
-11.1021696072
20
20.2589871830
30
0.0000000000
10
-11.1375496186
20
20.2579101313
30
0.0000000000
10
-11.1725889591
20
20.2594954798
30
0.0000000000
10
-11.2065226108
20
20.2637060316
30
0.0000000000
10
-11.2387397749
20
20.2704656805
30
0.0000000000
10
-11.2685554880
20
20.2796276354
30
0.0000000000
10
-11.2871599436
20
20.2875226352
30
0.0000000000
10
-11.2958627155
20
20.2918740212
30
0.0000000000
11
-10.9433407558
21
20.3026419028
31
0.0000000000
11
-10.9703440752
21
20.2894651795
31
0.0000000000
11
-11.0003847020
21
20.2783459104
31
0.0000000000
11
-11.0327622023
21
20.2695378291
31
0.0000000000
11
-11.0669655219
21
20.2631814493
31
0.0000000000
11
-11.1021102684
21
20.2594375475
31
0.0000000000
11
-11.1377067164
21
20.2583576193
31
0.0000000000
11
-11.1728020516
21
20.2599687011
31
0.0000000000
11
-11.2069125169
21
20.2642459030
31
0.0000000000
11
-11.2391579883
21
20.2710793445
31
0.0000000000
11
-11.2690397831
21
20.2803594446
31
0.0000000000
11
-11.2958627155
21
20.2918740212
31
0.0000000000
0
SPLINE
5
426
100
AcDbEntity
8
0
100
AcDbSpline
62
7
6
CONTINUOUS
70
0
71
3
72
21
73
17
74
15
42
0.0000001000
43
0.0000001000
44
0.0000000001
12
0.3505791315
22
-0.0732522915
32
0.0000000000
13
0.2294504071
23
0.2747095956
33
0.0000000000
40
0.0000000000
40
0.0000000000
40
0.0000000000
40
0.0000000000
40
0.0164580666
40
0.0852500179
40
0.1561791722
40
0.2291427435
40
0.3039209954
40
0.3802154819
40
0.4576770501
40
0.5359263103
40
0.6145684867
40
0.6932044110
40
0.7714391372
40
0.8488892033
40
0.9251895078
40
1.0000000000
40
1.0000000000
40
1.0000000000
40
1.0000000000
10
-11.2571795796
20
20.9726193066
30
0.0000000000
10
-11.2552562947
20
20.9722174429
30
0.0000000000
10
-11.2452604303
20
20.9702976736
30
0.0000000000
10
-11.2266875362
20
20.9682830474
30
0.0000000000
10
-11.2012634798
20
20.9684622444
30
0.0000000000
10
-11.1752912924
20
20.9713459013
30
0.0000000000
10
-11.1490823287
20
20.9767741120
30
0.0000000000
10
-11.1229242849
20
20.9845772098
30
0.0000000000
10
-11.0970837608
20
20.9945759146
30
0.0000000000
10
-11.0718062444
20
21.0065842735
30
0.0000000000
10
-11.0473171156
20
21.0204111522
30
0.0000000000
10
-11.0238223462
20
21.0358616235
30
0.0000000000
10
-11.0015092447
20
21.0527378432
30
0.0000000000
10
-10.9805463281
20
21.0708405536
30
0.0000000000
10
-10.9610850502
20
21.0899681166
30
0.0000000000
10
-10.9490625218
20
21.1034236379
30
0.0000000000
10
-10.9433407558
20
21.1102740245
30
0.0000000000
11
-11.2571795796
21
20.9726193066
31
0.0000000000
11
-11.2513914660
21
20.9715067606
31
0.0000000000
11
-11.2269207514
21
20.9687760557
31
0.0000000000
11
-11.2015334471
21
20.9688921382
31
0.0000000000
11
-11.1755712399
21
20.9717198533
31
0.0000000000
11
-11.1493531774
21
20.9771043653
31
0.0000000000
11
-11.1231745092
21
20.9848762924
31
0.0000000000
11
-11.0973070649
21
20.9948557798
31
0.0000000000
11
-11.0720002483
21
21.0068554964
31
0.0000000000
11
-11.0474822375
21
21.0206827466
31
0.0000000000
11
-11.0239611022
21
21.0361409458
31
0.0000000000
11
-11.0016256500
21
21.0530307168
31
0.0000000000
11
-10.9806459391
21
21.0711508244
31
0.0000000000
11
-10.9611734053
21
21.0902991843
31
0.0000000000
11
-10.9433407558
21
21.1102740245
31
0.0000000000
0
SPLINE
5
427
100
AcDbEntity
8
0
100
AcDbSpline
62
7
6
CONTINUOUS
70
0
71
3
72
14
73
10
74
8
42
0.0000001000
43
0.0000001000
44
0.0000000001
12
0.1925670800
22
0.0960302798
32
0.0000000000
13
-0.0000962608
23
0.2157335548
33
0.0000000000
40
0.0000000000
40
0.0000000000
40
0.0000000000
40
0.0000000000
40
0.1992421592
40
0.3819034748
40
0.5482197821
40
0.6996881986
40
0.8393488237
40
0.9718773282
40
1.0000000000
40
1.0000000000
40
1.0000000000
40
1.0000000000
10
3.5271794330
20
19.3094234242
30
0.0000000000
10
3.5399685932
20
19.3158011843
30
0.0000000000
10
3.5639220502
20
19.3292185072
30
0.0000000000
10
3.5958192632
20
19.3523930834
30
0.0000000000
10
3.6217038957
20
19.3774706609
30
0.0000000000
10
3.6411436076
20
19.4041428562
30
0.0000000000
10
3.6537300886
20
19.4320802024
30
0.0000000000
10
3.6577042924
20
19.4534817193
30
0.0000000000
10
3.6580129392
20
19.4650334281
30
0.0000000000
10
3.6580120368
20
19.4670557627
30
0.0000000000
11
3.5271794330
21
19.3094234242
31
0.0000000000
11
3.5644903156
21
19.3305431789
31
0.0000000000
11
3.5961526266
21
19.3538334075
31
0.0000000000
11
3.6216687350
21
19.3789281386
31
0.0000000000
11
3.6406376912
21
19.4054331231
31
0.0000000000
11
3.6527613421
21
19.4329318274
31
0.0000000000
11
3.6578491886
21
19.4609922332
31
0.0000000000
11
3.6580120368
21
19.4670557627
31
0.0000000000
0
SPLINE
5
428
100
AcDbEntity
8
0
100
AcDbSpline
62
7
6
CONTINUOUS
70
0
71
3
72
17
73
13
74
11
42
0.0000001000
43
0.0000001000
44
0.0000000001
12
0.8852357893
22
0.4363102734
32
0.0000000000
13
0.9778403967
23
-0.1335560405
33
0.0000000000
40
0.0000000000
40
0.0000000000
40
0.0000000000
40
0.0000000000
40
0.0862193995
40
0.1773310281
40
0.2727901998
40
0.3719451124
40
0.4740609042
40
0.5783403786
40
0.6839430264
40
0.7900025239
40
0.8956438645
40
1.0000000000
40
1.0000000000
40
1.0000000000
40
1.0000000000
10
-2.3811719972
20
21.9479541248
30
0.0000000000
10
-2.3557304978
20
21.9604935948
30
0.0000000000
10
-2.3022806644
20
21.9840466156
30
0.0000000000
10
-2.2176497082
20
22.0140992431
30
0.0000000000
10
-2.1271096724
20
22.0395952642
30
0.0000000000
10
-2.0316469840
20
22.0602552285
30
0.0000000000
10
-1.9322941509
20
22.0758554732
30
0.0000000000
10
-1.8301310533
20
22.0862253600
30
0.0000000000
10
-1.7262691762
20
22.0912515467
30
0.0000000000
10
-1.6218381351
20
22.0908788160
30
0.0000000000
10
-1.5179792209
20
22.0851117727
30
0.0000000000
10
-1.4492607192
20
22.0776460724
30
0.0000000000
10
-1.4152461709
20
22.0730002750
30
0.0000000000
11
-2.3811719972
21
21.9479541248
31
0.0000000000
11
-2.3033851225
21
21.9824472531
31
0.0000000000
11
-2.2187032554
21
22.0126887958
31
0.0000000000
11
-2.1280542226
21
22.0383474211
31
0.0000000000
11
-2.0324312809
21
22.0591420027
31
0.0000000000
11
-1.9328821210
21
22.0748447302
31
0.0000000000
11
-1.8304975112
21
22.0852835770
31
0.0000000000
11
-1.7263991905
21
22.0903442062
31
0.0000000000
11
-1.6217277249
21
22.0899712039
31
0.0000000000
11
-1.5176298750
21
22.0841686907
31
0.0000000000
11
-1.4152461709
21
22.0730002750
31
0.0000000000
0
SPLINE
5
429
100
AcDbEntity
8
0
100
AcDbSpline
62
7
6
CONTINUOUS
70
0
71
3
72
14
73
10
74
8
42
0.0000001000
43
0.0000001000
44
0.0000000001
12
0.1948727826
22
0.0960478531
32
0.0000000000
13
-0.0000942571
23
0.2178239755
33
0.0000000000
40
0.0000000000
40
0.0000000000
40
0.0000000000
40
0.0000000000
40
0.1980921479
40
0.3797759134
40
0.5452342550
40
0.6958855188
40
0.8346654170
40
0.9661340347
40
1.0000000000
40
1.0000000000
40
1.0000000000
40
1.0000000000
10
-2.0651254665
20
22.1037254458
30
0.0000000000
10
-2.0522578771
20
22.1100675543
30
0.0000000000
10
-2.0281422639
20
22.1234181640
30
0.0000000000
10
-1.9959770672
20
22.1464972696
30
0.0000000000
10
-1.9698035692
20
22.1714935656
30
0.0000000000
10
-1.9500559617
20
22.1980987925
30
0.0000000000
10
-1.9371426074
20
22.2259860911
30
0.0000000000
10
-1.9328243623
20
22.2478169351
30
0.0000000000
10
-1.9324342374
20
22.2598204331
30
0.0000000000
10
-1.9324353014
20
22.2622793728
30
0.0000000000
11
-2.0651254665
21
22.1037254458
31
0.0000000000
11
-2.0275659468
21
22.1247363297
31
0.0000000000
11
-1.9956297980
21
22.1479338789
31
0.0000000000
11
-1.9698189433
21
22.1729535714
31
0.0000000000
11
-1.9505389484
21
22.1994023358
31
0.0000000000
11
-1.9380928460
21
22.2268645157
31
0.0000000000
11
-1.9326761893
21
22.2549086726
31
0.0000000000
11
-1.9324353014
21
22.2622793728
31
0.0000000000
0
SPLINE
5
42A
100
AcDbEntity
8
0
100
AcDbSpline
62
7
6
CONTINUOUS
70
0
71
3
72
12
73
8
74
6
42
0.0000001000
43
0.0000001000
44
0.0000000001
12
-0.0000000000
22
-0.4491735708
32
0.0000000000
13
-0.4095271396
23
-0.1893459156
33
0.0000000000
40
0.0000000000
40
0.0000000000
40
0.0000000000
40
0.0000000000
40
0.2535655451
40
0.4840588761
40
0.6929500433
40
0.8859943042
40
1.0000000000
40
1.0000000000
40
1.0000000000
40
1.0000000000
10
0.1290570760
20
-19.4739994113
30
0.0000000000
10
0.1290570760
20
-19.5119643917
30
0.0000000000
10
0.1235417256
20
-19.5846485324
30
0.0000000000
10
0.0961918998
20
-19.6854846572
30
0.0000000000
10
0.0505800417
20
-19.7696542795
30
0.0000000000
10
-0.0045798157
20
-19.8254497253
30
0.0000000000
10
-0.0446338895
20
-19.8488823818
30
0.0000000000
10
-0.0601966984
20
-19.8560778861
30
0.0000000000
11
0.1290570760
21
-19.4739994113
31
0.0000000000
11
0.1195497960
21
-19.5874968531
31
0.0000000000
11
0.0913911217
21
-19.6871254792
31
0.0000000000
11
0.0456602746
21
-19.7690550628
31
0.0000000000
11
-0.0158865521
21
-19.8301343402
31
0.0000000000
11
-0.0601966984
21
-19.8560778861
31
0.0000000000
0
SPLINE
5
42B
100
AcDbEntity
8
0
100
AcDbSpline
62
9
6
CONTINUOUS
70
0
71
3
72
12
73
8
74
6
42
0.0000001000
43
0.0000001000
44
0.0000000001
12
0.1033509810
22
0.0503026782
32
0.0000000000
13
0.1023389239
23
-0.0517640491
33
0.0000000000
40
0.0000000000
40
0.0000000000
40
0.0000000000
40
0.0000000000
40
0.1432297931
40
0.3384646758
40
0.5440021168
40
0.7638693775
40
1.0000000000
40
1.0000000000
40
1.0000000000
40
1.0000000000
10
-11.5031781347
20
23.8229751393
30
0.0000000000
10
-11.4982438215
20
23.8253767534
30
0.0000000000
10
-11.4860828592
20
23.8300288055
30
0.0000000000
10
-11.4653858242
20
23.8334021920
30
0.0000000000
10
-11.4415316231
20
23.8321688068
30
0.0000000000
10
-11.4168414679
20
23.8261496843
30
0.0000000000
10
-11.4007217741
20
23.8193159785
30
0.0000000000
10
-11.3926666562
20
23.8152416195
30
0.0000000000
11
-11.5031781347
21
23.8229751393
31
0.0000000000
11
-11.4878231319
21
23.8288567956
31
0.0000000000
11
-11.4657407973
21
23.8325595290
31
0.0000000000
11
-11.4421928534
21
23.8314910692
31
0.0000000000
11
-11.4176575288
21
23.8256735044
31
0.0000000000
11
-11.3926666562
21
23.8152416195
31
0.0000000000
0
SPLINE
5
42C
100
AcDbEntity
8
0
100
AcDbSpline
62
7
6
CONTINUOUS
70
0
71
3
72
12
73
8
74
6
42
0.0000001000
43
0.0000001000
44
0.0000000001
12
0.1036858888
22
0.0504661448
32
0.0000000000
13
0.1029116992
23
-0.0514558496
33
0.0000000000
40
0.0000000000
40
0.0000000000
40
0.0000000000
40
0.0000000000
40
0.1428278402
40
0.3379430546
40
0.5435220617
40
0.7634863971
40
1.0000000000
40
1.0000000000
40
1.0000000000
40
1.0000000000
10
-12.0380481103
20
23.5624230547
30
0.0000000000
10
-12.0331116998
20
23.5648257116
30
0.0000000000
10
-12.0209310546
20
23.5694875085
30
0.0000000000
10
-12.0001898612
20
23.5728883267
30
0.0000000000
10
-11.9762566737
20
23.5717026759
30
0.0000000000
10
-11.9514479335
20
23.5657435843
30
0.0000000000
10
-11.9352298738
20
23.5589508223
30
0.0000000000
10
-11.9271165348
20
23.5548941529
30
0.0000000000
11
-12.0380481103
21
23.5624230547
31
0.0000000000
11
-12.0226878677
21
23.5683112185
31
0.0000000000
11
-12.0005511407
21
23.5720468786
31
0.0000000000
11
-11.9769195137
21
23.5710259588
31
0.0000000000
11
-11.9522740756
21
23.5652692992
31
0.0000000000
11
-11.9271165348
21
23.5548941529
31
0.0000000000
0
SPLINE
5
42D
100
AcDbEntity
8
0
100
AcDbSpline
62
9
6
CONTINUOUS
70
0
71
3
72
8
73
4
74
2
42
0.0000001000
43
0.0000001000
44
0.0000000001
12
0.0095703014
22
0.0046580352
32
0.0000000000
13
0.0100339070
23
0.0035525161
33
0.0000000000
40
0.0000000000
40
0.0000000000
40
0.0000000000
40
0.0000000000
40
1.0000000000
40
1.0000000000
40
1.0000000000
40
1.0000000000
10
0.8004798494
20
17.6711461321
30
0.0000000000
10
0.8036699499
20
17.6726988105
30
0.0000000000
10
0.8069486175
20
17.6740705177
30
0.0000000000
10
0.8102932531
20
17.6752546898
30
0.0000000000
11
0.8004798494
21
17.6711461321
31
0.0000000000
11
0.8102932531
21
17.6752546898
31
0.0000000000
0
SPLINE
5
42E
100
AcDbEntity
8
0
100
AcDbSpline
62
9
6
CONTINUOUS
70
0
71
3
72
12
73
8
74
6
42
0.0000001000
43
0.0000001000
44
0.0000000001
12
0.0983235724
22
0.0348115721
32
0.0000000000
13
0.0928623200
23
-0.0469706883
33
0.0000000000
40
0.0000000000
40
0.0000000000
40
0.0000000000
40
0.0000000000
40
0.0555968530
40
0.2707195796
40
0.4972005928
40
0.7394675141
40
1.0000000000
40
1.0000000000
40
1.0000000000
40
1.0000000000
10
0.8102932531
20
17.6752546898
30
0.0000000000
10
0.8121154135
20
17.6758998277
30
0.0000000000
10
0.8210834598
20
17.6787701826
30
0.0000000000
10
0.8382475731
20
17.6815717553
30
0.0000000000
10
0.8620984111
20
17.6803438886
30
0.0000000000
10
0.8867977815
20
17.6743279247
30
0.0000000000
10
0.9029267861
20
17.6674917532
30
0.0000000000
10
0.9109913365
20
17.6634126231
30
0.0000000000
11
0.8102932531
21
17.6752546898
31
0.0000000000
11
0.8158148196
21
17.6770220564
31
0.0000000000
11
0.8378926423
21
17.6807291126
31
0.0000000000
11
0.8614375444
21
17.6796660218
31
0.0000000000
11
0.8859702403
21
17.6738544245
31
0.0000000000
11
0.9109913365
21
17.6634126231
31
0.0000000000
0
SPLINE
5
42F
100
AcDbEntity
8
0
100
AcDbSpline
62
7
6
CONTINUOUS
70
0
71
3
72
12
73
8
74
6
42
0.0000001000
43
0.0000001000
44
0.0000000001
12
0.1036858888
22
0.0504661448
32
0.0000000000
13
0.1029116992
23
-0.0514558496
33
0.0000000000
40
0.0000000000
40
0.0000000000
40
0.0000000000
40
0.0000000000
40
0.1428278402
40
0.3379430546
40
0.5435220617
40
0.7634863971
40
1.0000000000
40
1.0000000000
40
1.0000000000
40
1.0000000000
10
0.2656098823
20
17.4105940584
30
0.0000000000
10
0.2705462928
20
17.4129967152
30
0.0000000000
10
0.2827269380
20
17.4176585122
30
0.0000000000
10
0.3034681314
20
17.4210593303
30
0.0000000000
10
0.3274013190
20
17.4198736796
30
0.0000000000
10
0.3522100592
20
17.4139145880
30
0.0000000000
10
0.3684281189
20
17.4071218260
30
0.0000000000
10
0.3765414578
20
17.4030651566
30
0.0000000000
11
0.2656098823
21
17.4105940584
31
0.0000000000
11
0.2809701249
21
17.4164822222
31
0.0000000000
11
0.3031068520
21
17.4202178823
31
0.0000000000
11
0.3267384789
21
17.4191969625
31
0.0000000000
11
0.3513839170
21
17.4134403029
31
0.0000000000
11
0.3765414578
21
17.4030651566
31
0.0000000000
0
SPLINE
5
430
100
AcDbEntity
8
0
100
AcDbSpline
62
7
6
CONTINUOUS
70
0
71
3
72
14
73
10
74
8
42
0.0000001000
43
0.0000001000
44
0.0000000001
12
-0.4118176649
22
0.2059063785
32
0.0000000000
13
-0.4124812599
23
-0.2033015536
33
0.0000000000
40
0.0000000000
40
0.0000000000
40
0.0000000000
40
0.0000000000
40
0.0703690923
40
0.2106133624
40
0.3542964726
40
0.5038685828
40
0.6605856770
40
0.8258252640
40
1.0000000000
40
1.0000000000
40
1.0000000000
40
1.0000000000
10
1.1773102183
20
23.1587707576
30
0.0000000000
10
1.1676504732
20
23.1636005726
30
0.0000000000
10
1.1381168331
20
23.1768117796
30
0.0000000000
10
1.0858534496
20
23.1924976635
30
0.0000000000
10
1.0196586690
20
23.2009455056
30
0.0000000000
10
0.9504593612
20
23.1990865414
30
0.0000000000
10
0.8789773915
20
23.1870082500
30
0.0000000000
10
0.8060242726
20
23.1649089717
30
0.0000000000
10
0.7581595355
20
23.1442168362
30
0.0000000000
10
0.7342115973
20
23.1324135047
30
0.0000000000
11
1.1773102183
21
23.1587707576
31
0.0000000000
11
1.1477438949
21
23.1719948204
31
0.0000000000
11
1.0860015094
21
23.1906284333
31
0.0000000000
11
1.0204813831
21
23.1991680043
31
0.0000000000
11
0.9517180825
21
23.1975468445
31
0.0000000000
11
0.8806166344
21
23.1857826437
31
0.0000000000
11
0.8078226015
21
23.1639859841
31
0.0000000000
11
0.7342115973
21
23.1324135047
31
0.0000000000
0
SPLINE
5
431
100
AcDbEntity
8
0
100
AcDbSpline
62
7
6
CONTINUOUS
70
0
71
3
72
16
73
12
74
10
42
0.0000001000
43
0.0000001000
44
0.0000000001
12
-0.5598493033
22
0.2796531472
32
0.0000000000
13
-0.5624537571
23
-0.2739890429
33
0.0000000000
40
0.0000000000
40
0.0000000000
40
0.0000000000
40
0.0000000000
40
0.0551590789
40
0.2071986211
40
0.3461601178
40
0.4737090690
40
0.5913861938
40
0.7011954465
40
0.8045671116
40
0.9036701670
40
1.0000000000
40
1.0000000000
40
1.0000000000
40
1.0000000000
10
8.6293950156
20
19.4327319111
30
0.0000000000
10
8.6191014249
20
19.4378737144
30
0.0000000000
10
8.5801650878
20
19.4566479021
30
0.0000000000
10
8.5134274062
20
19.4844109058
30
0.0000000000
10
8.4300155814
20
19.5105591895
30
0.0000000000
10
8.3514701583
20
19.5270380674
30
0.0000000000
10
8.2776768732
20
19.5346446527
30
0.0000000000
10
8.2085281386
20
19.5340330249
30
0.0000000000
10
8.1437708515
20
19.5257072962
30
0.0000000000
10
8.0832924240
20
19.5100259525
30
0.0000000000
10
8.0453924925
20
19.4946510095
30
0.0000000000
10
8.0273321336
20
19.4858532365
30
0.0000000000
11
8.6293950156
21
19.4327319111
31
0.0000000000
11
8.5982990601
21
19.4477167855
31
0.0000000000
11
8.5103902269
21
19.4840514546
31
0.0000000000
11
8.4273674812
21
19.5098534301
31
0.0000000000
11
8.3492261986
21
19.5260372773
31
0.0000000000
11
8.2759715205
21
19.5333964813
31
0.0000000000
11
8.2072749780
21
19.5326176840
31
0.0000000000
11
8.1431477343
21
19.5242308548
31
0.0000000000
11
8.0831569369
21
19.5085641957
31
0.0000000000
11
8.0273321336
21
19.4858532365
31
0.0000000000
0
SPLINE
5
432
100
AcDbEntity
8
0
100
AcDbSpline
62
9
6
CONTINUOUS
70
0
71
3
72
12
73
8
74
6
42
0.0000001000
43
0.0000001000
44
0.0000000001
12
-0.1029975786
22
0.0514556913
32
0.0000000000
13
-0.1030457036
23
-0.0507886144
33
0.0000000000
40
0.0000000000
40
0.0000000000
40
0.0000000000
40
0.0000000000
40
0.1465014453
40
0.3409787459
40
0.5457177993
40
0.7646569150
40
1.0000000000
40
1.0000000000
40
1.0000000000
40
1.0000000000
10
-11.2818922478
20
23.8218304074
30
0.0000000000
10
-11.2869220125
20
23.8243431851
30
0.0000000000
10
-11.2991566523
20
23.8291404878
30
0.0000000000
10
-11.3199274633
20
23.8326797268
30
0.0000000000
10
-11.3437346658
20
23.8316518399
30
0.0000000000
10
-11.3684281210
20
23.8258811209
30
0.0000000000
10
-11.3845829582
20
23.8192258692
30
0.0000000000
10
-11.3926666562
20
23.8152416195
30
0.0000000000
11
-11.2818922478
21
23.8218304074
31
0.0000000000
11
-11.2975724836
21
23.8279881520
31
0.0000000000
11
-11.3195796932
21
23.8318412111
31
0.0000000000
11
-11.3430845421
21
23.8309736152
31
0.0000000000
11
-11.3676120712
21
23.8254028957
31
0.0000000000
11
-11.3926666562
21
23.8152416195
31
0.0000000000
0
SPLINE
5
433
100
AcDbEntity
8
0
100
AcDbSpline
62
9
6
CONTINUOUS
70
0
71
3
72
12
73
8
74
6
42
0.0000001000
43
0.0000001000
44
0.0000000001
12
-0.1029975786
22
0.0514556913
32
0.0000000000
13
-0.1030457036
23
-0.0507886144
33
0.0000000000
40
0.0000000000
40
0.0000000000
40
0.0000000000
40
0.0000000000
40
0.1465014453
40
0.3409787459
40
0.5457177993
40
0.7646569150
40
1.0000000000
40
1.0000000000
40
1.0000000000
40
1.0000000000
10
-9.5910126966
20
22.9763906318
30
0.0000000000
10
-9.5960424613
20
22.9789034095
30
0.0000000000
10
-9.6082771011
20
22.9837007122
30
0.0000000000
10
-9.6290479122
20
22.9872399513
30
0.0000000000
10
-9.6528551146
20
22.9862120643
30
0.0000000000
10
-9.6775485698
20
22.9804413454
30
0.0000000000
10
-9.6937034071
20
22.9737860936
30
0.0000000000
10
-9.7017871050
20
22.9698018439
30
0.0000000000
11
-9.5910126966
21
22.9763906318
31
0.0000000000
11
-9.6066929325
21
22.9825483764
31
0.0000000000
11
-9.6287001421
21
22.9864014355
31
0.0000000000
11
-9.6522049910
21
22.9855338396
31
0.0000000000
11
-9.6767325200
21
22.9799631202
31
0.0000000000
11
-9.7017871050
21
22.9698018439
31
0.0000000000
0
SPLINE
5
434
100
AcDbEntity
8
0
100
AcDbSpline
62
7
6
CONTINUOUS
70
0
71
3
72
13
73
9
74
7
42
0.0000001000
43
0.0000001000
44
0.0000000001
12
0.4644453417
22
-0.0622238771
32
0.0000000000
13
0.4191241213
23
-0.2095620606
33
0.0000000000
40
0.0000000000
40
0.0000000000
40
0.0000000000
40
0.0000000000
40
0.1797350840
40
0.3553748895
40
0.5260074068
40
0.6907968363
40
0.8489971576
40
1.0000000000
40
1.0000000000
40
1.0000000000
40
1.0000000000
10
-1.4152461709
20
21.5069184225
30
0.0000000000
10
-1.3874204634
20
21.5031904845
30
0.0000000000
10
-1.3325611249
20
21.4945685576
30
0.0000000000
10
-1.2520656766
20
21.4779509695
30
0.0000000000
10
-1.1747612878
20
21.4578987754
30
0.0000000000
10
-1.1012322465
20
21.4345628228
30
0.0000000000
10
-1.0320341564
20
21.4081196467
30
0.0000000000
10
-0.9880547460
20
21.3880570555
30
0.0000000000
10
-0.9669584348
20
21.3775088999
30
0.0000000000
11
-1.4152461709
21
21.5069184225
31
0.0000000000
11
-1.3320506831
21
21.4938028407
31
0.0000000000
11
-1.2514569787
21
21.4771117400
31
0.0000000000
11
-1.1740774601
21
21.4569717457
31
0.0000000000
11
-1.1005003069
21
21.4335355671
31
0.0000000000
11
-1.0312873443
21
21.4069818164
31
0.0000000000
11
-0.9669584348
21
21.3775088999
31
0.0000000000
0
SPLINE
5
435
100
AcDbEntity
8
0
100
AcDbSpline
62
9
6
CONTINUOUS
70
0
71
3
72
18
73
14
74
12
42
0.0000001000
43
0.0000001000
44
0.0000000001
12
0.3302350778
22
-0.1632210745
32
0.0000000000
13
-0.0017354402
23
-0.3683657340
33
0.0000000000
40
0.0000000000
40
0.0000000000
40
0.0000000000
40
0.0000000000
40
0.0793369717
40
0.1637806468
40
0.2526571569
40
0.3451431464
40
0.4402200820
40
0.5367545754
40
0.6335453120
40
0.7293800768
40
0.8230890519
40
0.9136005655
40
1.0000000000
40
1.0000000000
40
1.0000000000
40
1.0000000000
10
2.6018708876
20
16.8179728476
30
0.0000000000
10
2.6106041713
20
16.8136563590
30
0.0000000000
10
2.6280043849
20
16.8034361506
30
0.0000000000
10
2.6526865559
20
16.7845360090
30
0.0000000000
10
2.6763241100
20
16.7619421954
30
0.0000000000
10
2.6984337386
20
16.7361178125
30
0.0000000000
10
2.7185782196
20
16.7075783501
30
0.0000000000
10
2.7363539549
20
16.6768965708
30
0.0000000000
10
2.7514048364
20
16.6446877068
30
0.0000000000
10
2.7634286180
20
16.6115985911
30
0.0000000000
10
2.7721836866
20
16.5782904547
30
0.0000000000
10
2.7774934102
20
16.5454352369
30
0.0000000000
10
2.7786945717
20
16.5236921724
30
0.0000000000
10
2.7786445913
20
16.5130833087
30
0.0000000000
11
2.6018708876
21
16.8179728476
31
0.0000000000
11
2.6271332307
21
16.8032781246
31
0.0000000000
11
2.6518930005
21
16.7844481423
31
0.0000000000
11
2.6756134170
21
16.7618824218
31
0.0000000000
11
2.6978127450
21
16.7360388572
31
0.0000000000
11
2.7180374584
21
16.7074450696
31
0.0000000000
11
2.7358761389
21
16.6766827045
31
0.0000000000
11
2.7509654054
21
16.6443782492
31
0.0000000000
11
2.7629979571
21
16.6111894897
31
0.0000000000
11
2.7717287292
21
16.5777922812
31
0.0000000000
11
2.7769799200
21
16.5448666889
31
0.0000000000
11
2.7786445913
21
16.5130833087
31
0.0000000000
0
SPLINE
5
436
100
AcDbEntity
8
0
100
AcDbSpline
62
7
6
CONTINUOUS
70
0
71
3
72
15
73
11
74
9
42
0.0000001000
43
0.0000001000
44
0.0000000001
12
0.0000000000
22
-0.3282824868
32
0.0000000000
13
-0.3031807126
23
-0.1273023205
33
0.0000000000
40
0.0000000000
40
0.0000000000
40
0.0000000000
40
0.0000000000
40
0.1555410110
40
0.3025968039
40
0.4410066768
40
0.5711305738
40
0.6939274101
40
0.8109940736
40
0.9245171592
40
1.0000000000
40
1.0000000000
40
1.0000000000
40
1.0000000000
10
1.8776930071
20
-24.5234716314
30
0.0000000000
10
1.8776930071
20
-24.5404920947
30
0.0000000000
10
1.8761074775
20
-24.5736354834
30
0.0000000000
10
1.8685534776
20
-24.6214033071
30
0.0000000000
10
1.8559756586
20
-24.6652409601
30
0.0000000000
10
1.8385206314
20
-24.7045142419
30
0.0000000000
10
1.8163930913
20
-24.7386417465
30
0.0000000000
10
1.7898683377
20
-24.7670789816
30
0.0000000000
10
1.7626226016
20
-24.7869242020
30
0.0000000000
10
1.7440479661
20
-24.7962009272
30
0.0000000000
10
1.7364196523
20
-24.7994039742
30
0.0000000000
11
1.8776930071
21
-24.5234716314
31
0.0000000000
11
1.8751124563
21
-24.5744677714
31
0.0000000000
11
1.8674102654
21
-24.6221252275
31
0.0000000000
11
1.8547019131
21
-24.6657493903
31
0.0000000000
11
1.8371760947
21
-24.7047060540
31
0.0000000000
11
1.8150915374
21
-24.7384304335
31
0.0000000000
11
1.7887727684
21
-24.7664350616
31
0.0000000000
11
1.7586050894
21
-24.7883162910
31
0.0000000000
11
1.7364196523
21
-24.7994039742
31
0.0000000000
0
SPLINE
5
437
100
AcDbEntity
8
0
100
AcDbSpline
62
7
6
CONTINUOUS
70
0
71
3
72
18
73
14
74
12
42
0.0000001000
43
0.0000001000
44
0.0000000001
12
0.3291976587
22
-0.1645988293
32
0.0000000000
13
-0.0000000000
23
-0.3680541714
33
0.0000000000
40
0.0000000000
40
0.0000000000
40
0.0000000000
40
0.0000000000
40
0.0792794165
40
0.1636455452
40
0.2525081052
40
0.3450221634
40
0.4401582221
40
0.5367643443
40
0.6336231642
40
0.7295062953
40
0.8232283081
40
0.9137023846
40
1.0000000000
40
1.0000000000
40
1.0000000000
40
1.0000000000
10
2.0736037159
20
16.5545340275
30
0.0000000000
10
2.0823032487
20
16.5501842611
30
0.0000000000
10
2.0996280071
20
16.5399039111
30
0.0000000000
10
2.1242024859
20
16.5209391269
30
0.0000000000
10
2.1477483317
20
16.4983028797
30
0.0000000000
10
2.1697938516
20
16.4724515449
30
0.0000000000
10
2.1899030324
20
16.4439011607
30
0.0000000000
10
2.2076732777
20
16.4132242141
30
0.0000000000
10
2.2227485430
20
16.3810359451
30
0.0000000000
10
2.2348262246
20
16.3479826630
30
0.0000000000
10
2.2436638095
20
16.3147248102
30
0.0000000000
10
2.2490832226
20
16.2819330482
30
0.0000000000
10
2.2503774196
20
16.2602318878
30
0.0000000000
10
2.2503774196
20
16.2496444887
30
0.0000000000
11
2.0736037159
21
16.5545340275
31
0.0000000000
11
2.0987612567
21
16.5397516331
31
0.0000000000
11
2.1234066948
21
16.5208628545
31
0.0000000000
11
2.1470383217
21
16.4982521474
31
0.0000000000
11
2.1691750488
21
16.4723797603
31
0.0000000000
11
2.1893662094
21
16.4437723680
31
0.0000000000
11
2.2072007433
21
16.4130123470
31
0.0000000000
11
2.2223155745
21
16.3807259110
31
0.0000000000
11
2.2344030092
21
16.3475703508
31
0.0000000000
11
2.2432170030
21
16.3142206400
31
0.0000000000
11
2.2485781681
21
16.2813556835
31
0.0000000000
11
2.2503774196
21
16.2496444887
31
0.0000000000
0
SPLINE
5
438
100
AcDbEntity
8
0
100
AcDbSpline
62
9
6
CONTINUOUS
70
0
71
3
72
18
73
14
74
12
42
0.0000001000
43
0.0000001000
44
0.0000000001
12
0.3281370796
22
-0.1660023734
32
0.0000000000
13
0.0017610813
23
-0.3677330956
33
0.0000000000
40
0.0000000000
40
0.0000000000
40
0.0000000000
40
0.0000000000
40
0.0790239223
40
0.1633139850
40
0.2521665569
40
0.3447256299
40
0.4399390534
40
0.5366395780
40
0.6335921752
40
0.7295513444
40
0.8233146865
40
0.9137790332
40
1.0000000000
40
1.0000000000
40
1.0000000000
40
1.0000000000
10
0.4723229251
20
15.7518120240
30
0.0000000000
10
0.4809664848
20
15.7474393045
30
0.0000000000
10
0.4981954782
20
15.7371134793
30
0.0000000000
10
0.5226473970
20
15.7181040879
30
0.0000000000
10
0.5461075564
20
15.6954281955
30
0.0000000000
10
0.5680962377
20
15.6695500603
30
0.0000000000
10
0.5881783111
20
15.6409860136
30
0.0000000000
10
0.6059511928
20
15.6103093011
30
0.0000000000
10
0.6210586740
20
15.5781351604
30
0.0000000000
10
0.6331973244
20
15.5451098832
30
0.0000000000
10
0.6421233424
20
15.5118936283
30
0.0000000000
10
0.6476568562
20
15.4791564542
30
0.0000000000
10
0.6490460147
20
15.4574912529
30
0.0000000000
10
0.6490966287
20
15.4469224852
30
0.0000000000
11
0.4723229251
21
15.7518120240
31
0.0000000000
11
0.4973137977
21
15.7369815659
31
0.0000000000
11
0.5218491223
21
15.7180393609
31
0.0000000000
11
0.5453970662
21
15.6953874042
31
0.0000000000
11
0.5674794008
21
15.6694853429
31
0.0000000000
11
0.5876449936
21
15.6408619950
31
0.0000000000
11
0.6054836289
21
15.6100996072
31
0.0000000000
11
0.6206319280
21
15.5778246682
31
0.0000000000
11
0.6327813891
21
15.5446943635
31
0.0000000000
11
0.6416845671
21
15.5113833579
31
0.0000000000
11
0.6471601498
21
15.4785699615
31
0.0000000000
11
0.6490966287
21
15.4469224852
31
0.0000000000
0
SPLINE
5
439
100
AcDbEntity
8
0
100
AcDbSpline
62
9
6
CONTINUOUS
70
0
71
3
72
12
73
8
74
6
42
0.0000001000
43
0.0000001000
44
0.0000000001
12
-0.1029976070
22
0.0514556576
32
0.0000000000
13
-0.1030457206
23
-0.0507886227
33
0.0000000000
40
0.0000000000
40
0.0000000000
40
0.0000000000
40
0.0000000000
40
0.1466831691
40
0.3411931552
40
0.5459608330
40
0.7649342092
40
1.0000000000
40
1.0000000000
40
1.0000000000
40
1.0000000000
10
1.0217657364
20
17.6700014221
30
0.0000000000
10
1.0167297313
20
17.6725173151
30
0.0000000000
10
1.0044867170
20
17.6773162837
30
0.0000000000
10
0.9837058288
20
17.6808523660
30
0.0000000000
10
0.9598952035
20
17.6798189948
30
0.0000000000
10
0.9352109722
20
17.6740450442
30
0.0000000000
10
0.9190655111
20
17.6673921791
30
0.0000000000
10
0.9109913365
20
17.6634126231
30
0.0000000000
11
1.0217657364
21
17.6700014221
31
0.0000000000
11
1.0060654097
21
17.6761650528
31
0.0000000000
11
0.9840536351
21
17.6800138298
31
0.0000000000
11
0.9605456893
21
17.6791408947
31
0.0000000000
11
0.9360154697
21
17.6735642340
31
0.0000000000
11
0.9109913365
21
17.6634126231
31
0.0000000000
0
SPLINE
5
43A
100
AcDbEntity
8
0
100
AcDbSpline
62
7
6
CONTINUOUS
70
0
71
3
72
20
73
16
74
14
42
0.0000001000
43
0.0000001000
44
0.0000000001
12
0.0000000000
22
0.7361349354
32
0.0000000000
13
-0.6584191025
23
0.3292095512
33
0.0000000000
40
0.0000000000
40
0.0000000000
40
0.0000000000
40
0.0000000000
40
0.0728654476
40
0.1487929432
40
0.2272407876
40
0.3075780044
40
0.3891115698
40
0.4711116766
40
0.5528352835
40
0.6335492682
40
0.7125534330
40
0.7892041636
40
0.8629398325
40
0.9333086353
40
1.0000000000
40
1.0000000000
40
1.0000000000
40
1.0000000000
10
1.8776930071
20
13.2718852663
30
0.0000000000
10
1.8776930071
20
13.2897648668
30
0.0000000000
10
1.8758561319
20
13.3262935064
30
0.0000000000
10
1.8680741027
20
13.3815727751
30
0.0000000000
10
1.8553213963
20
13.4378018977
30
0.0000000000
10
1.8377863846
20
13.4941639965
30
0.0000000000
10
1.8157254973
20
13.5498495958
30
0.0000000000
10
1.7894596834
20
13.6040566863
30
0.0000000000
10
1.7593694814
20
13.6560062534
30
0.0000000000
10
1.7258892114
20
13.7049526970
30
0.0000000000
10
1.6894998167
20
13.7501949199
30
0.0000000000
10
1.6507224587
20
13.7910853815
30
0.0000000000
10
1.6101058037
20
13.8270408011
30
0.0000000000
10
1.5682322485
20
13.8575416619
30
0.0000000000
10
1.5390456976
20
13.8744198146
30
0.0000000000
10
1.5244087415
20
13.8817382927
30
0.0000000000
11
1.8776930071
21
13.2718852663
31
0.0000000000
11
1.8751124563
21
13.3254619571
31
0.0000000000
11
1.8674102654
21
13.3808216041
31
0.0000000000
11
1.8547019131
21
13.4371541191
31
0.0000000000
11
1.8371760947
21
13.4936366013
31
0.0000000000
11
1.8150915374
21
13.5494455380
31
0.0000000000
11
1.7887727684
21
13.6037689351
31
0.0000000000
11
1.7586050894
21
13.6558178435
31
0.0000000000
11
1.7250287102
21
13.7048375685
31
0.0000000000
11
1.6885322655
21
13.7501181448
31
0.0000000000
11
1.6496458284
21
13.7910040508
31
0.0000000000
11
1.6089333947
21
13.8269032318
31
0.0000000000
11
1.5669850377
21
13.8572952065
31
0.0000000000
11
1.5244087415
21
13.8817382927
31
0.0000000000
0
SPLINE
5
43B
100
AcDbEntity
8
0
100
AcDbSpline
62
9
6
CONTINUOUS
70
0
71
3
72
18
73
14
74
12
42
0.0000001000
43
0.0000001000
44
0.0000000001
12
0.3302350778
22
-0.1632210745
32
0.0000000000
13
-0.0017354402
23
-0.3683657340
33
0.0000000000
40
0.0000000000
40
0.0000000000
40
0.0000000000
40
0.0000000000
40
0.0793369717
40
0.1637806468
40
0.2526571569
40
0.3451431464
40
0.4402200820
40
0.5367545754
40
0.6335453120
40
0.7293800768
40
0.8230890519
40
0.9136005655
40
1.0000000000
40
1.0000000000
40
1.0000000000
40
1.0000000000
10
-9.7017871050
20
22.9698018439
30
0.0000000000
10
-9.6930538213
20
22.9654853553
30
0.0000000000
10
-9.6756536078
20
22.9552651469
30
0.0000000000
10
-9.6509714368
20
22.9363650053
30
0.0000000000
10
-9.6273338826
20
22.9137711917
30
0.0000000000
10
-9.6052242541
20
22.8879468089
30
0.0000000000
10
-9.5850797730
20
22.8594073464
30
0.0000000000
10
-9.5673040377
20
22.8287255671
30
0.0000000000
10
-9.5522531563
20
22.7965167031
30
0.0000000000
10
-9.5402293747
20
22.7634275874
30
0.0000000000
10
-9.5314743060
20
22.7301194510
30
0.0000000000
10
-9.5261645825
20
22.6972642332
30
0.0000000000
10
-9.5249634210
20
22.6755211688
30
0.0000000000
10
-9.5250134013
20
22.6649123051
30
0.0000000000
11
-9.7017871050
21
22.9698018439
31
0.0000000000
11
-9.6765247620
21
22.9551071210
31
0.0000000000
11
-9.6517649921
21
22.9362771386
31
0.0000000000
11
-9.6280445756
21
22.9137114182
31
0.0000000000
11
-9.6058452477
21
22.8878678535
31
0.0000000000
11
-9.5856205342
21
22.8592740660
31
0.0000000000
11
-9.5677818537
21
22.8285117008
31
0.0000000000
11
-9.5526925873
21
22.7962072455
31
0.0000000000
11
-9.5406600356
21
22.7630184860
31
0.0000000000
11
-9.5319292634
21
22.7296212776
31
0.0000000000
11
-9.5266780727
21
22.6966956852
31
0.0000000000
11
-9.5250134013
21
22.6649123051
31
0.0000000000
0
SPLINE
5
43C
100
AcDbEntity
8
0
100
AcDbSpline
62
7
6
CONTINUOUS
70
0
71
3
72
18
73
14
74
12
42
0.0000001000
43
0.0000001000
44
0.0000000001
12
0.3291976587
22
-0.1645988293
32
0.0000000000
13
-0.0000000000
23
-0.3680541714
33
0.0000000000
40
0.0000000000
40
0.0000000000
40
0.0000000000
40
0.0000000000
40
0.0792794165
40
0.1636455452
40
0.2525081052
40
0.3450221634
40
0.4401582221
40
0.5367643443
40
0.6336231642
40
0.7295062953
40
0.8232283081
40
0.9137023846
40
1.0000000000
40
1.0000000000
40
1.0000000000
40
1.0000000000
10
-10.2300542768
20
22.7063630238
30
0.0000000000
10
-10.2213547440
20
22.7020132575
30
0.0000000000
10
-10.2040299856
20
22.6917329075
30
0.0000000000
10
-10.1794555068
20
22.6727681232
30
0.0000000000
10
-10.1559096609
20
22.6501318760
30
0.0000000000
10
-10.1338641410
20
22.6242805412
30
0.0000000000
10
-10.1137549602
20
22.5957301570
30
0.0000000000
10
-10.0959847149
20
22.5650532104
30
0.0000000000
10
-10.0809094496
20
22.5328649414
30
0.0000000000
10
-10.0688317681
20
22.4998116593
30
0.0000000000
10
-10.0599941831
20
22.4665538065
30
0.0000000000
10
-10.0545747700
20
22.4337620445
30
0.0000000000
10
-10.0532805731
20
22.4120608841
30
0.0000000000
10
-10.0532805731
20
22.4014734850
30
0.0000000000
11
-10.2300542768
21
22.7063630238
31
0.0000000000
11
-10.2048967360
21
22.6915806294
31
0.0000000000
11
-10.1802512978
21
22.6726918509
31
0.0000000000
11
-10.1566196709
21
22.6500811437
31
0.0000000000
11
-10.1344829439
21
22.6242087566
31
0.0000000000
11
-10.1142917833
21
22.5956013643
31
0.0000000000
11
-10.0964572493
21
22.5648413433
31
0.0000000000
11
-10.0813424181
21
22.5325549073
31
0.0000000000
11
-10.0692549835
21
22.4993993471
31
0.0000000000
11
-10.0604409897
21
22.4660496363
31
0.0000000000
11
-10.0550798246
21
22.4331846798
31
0.0000000000
11
-10.0532805731
21
22.4014734850
31
0.0000000000
0
SPLINE
5
43D
100
AcDbEntity
8
0
100
AcDbSpline
62
9
6
CONTINUOUS
70
0
71
3
72
18
73
14
74
12
42
0.0000001000
43
0.0000001000
44
0.0000000001
12
0.3281370633
22
-0.1660023651
32
0.0000000000
13
0.0017610812
23
-0.3677330773
33
0.0000000000
40
0.0000000000
40
0.0000000000
40
0.0000000000
40
0.0000000000
40
0.0791232075
40
0.1634130412
40
0.2522639082
40
0.3448144854
40
0.4400185060
40
0.5367072129
40
0.6336465280
40
0.7295915586
40
0.8233406740
40
0.9137913189
40
1.0000000000
40
1.0000000000
40
1.0000000000
40
1.0000000000
10
-11.8313350676
20
21.9036410203
30
0.0000000000
10
-11.8226806486
20
21.8992628072
30
0.0000000000
10
-11.8054419799
20
21.8889291045
30
0.0000000000
10
-11.7809832137
20
21.8699091494
30
0.0000000000
10
-11.7575265440
20
21.8472315041
30
0.0000000000
10
-11.7355418903
20
21.8213531378
30
0.0000000000
10
-11.7154641746
20
21.7927905045
30
0.0000000000
10
-11.6976954434
20
21.7621162984
30
0.0000000000
10
-11.6825917613
20
21.7299457085
30
0.0000000000
10
-11.6704563163
20
21.6969247128
30
0.0000000000
10
-11.6615327319
20
21.6637131652
30
0.0000000000
10
-11.6560007430
20
21.6309807544
30
0.0000000000
10
-11.6546119707
20
21.6093187427
30
0.0000000000
10
-11.6545613639
20
21.5987514815
30
0.0000000000
11
-11.8313350676
21
21.9036410203
31
0.0000000000
11
-11.8063139714
21
21.8887899525
31
0.0000000000
11
-11.7817812755
21
21.8698444835
31
0.0000000000
11
-11.7582363734
21
21.8471902717
31
0.0000000000
11
-11.7361585507
21
21.8212884717
31
0.0000000000
11
-11.7159972289
21
21.7926663468
31
0.0000000000
11
-11.6981628168
21
21.7619065359
31
0.0000000000
11
-11.6830183558
21
21.7296351930
31
0.0000000000
11
-11.6708721303
21
21.6965092415
31
0.0000000000
11
-11.6619713918
21
21.6632030010
31
0.0000000000
11
-11.6564973259
21
21.6303944615
31
0.0000000000
11
-11.6545613639
21
21.5987514815
31
0.0000000000
0
SPLINE
5
43E
100
AcDbEntity
8
0
100
AcDbSpline
62
9
6
CONTINUOUS
70
0
71
3
72
13
73
9
74
7
42
0.0000001000
43
0.0000001000
44
0.0000000001
12
0.0000104830
22
-0.1197820078
32
0.0000000000
13
-0.1065074733
23
-0.0538770051
33
0.0000000000
40
0.0000000000
40
0.0000000000
40
0.0000000000
40
0.0000000000
40
0.0712762288
40
0.2244083091
40
0.3896427768
40
0.5724464072
40
0.7756749721
40
1.0000000000
40
1.0000000000
40
1.0000000000
40
1.0000000000
10
-9.4528204731
20
22.7527849545
30
0.0000000000
10
-9.4528202241
20
22.7499390845
30
0.0000000000
10
-9.4534231559
20
22.7409793411
30
0.0000000000
10
-9.4577798650
20
22.7258998922
30
0.0000000000
10
-9.4680455456
20
22.7085993370
30
0.0000000000
10
-9.4829903618
20
22.6923725087
30
0.0000000000
10
-9.5022637233
20
22.6774541482
30
0.0000000000
10
-9.5170493040
20
22.6689409586
30
0.0000000000
10
-9.5250134013
20
22.6649123051
30
0.0000000000
11
-9.4528204731
21
22.7527849545
31
0.0000000000
11
-9.4533955333
21
22.7442752650
31
0.0000000000
11
-9.4583296975
21
22.7266761710
31
0.0000000000
11
-9.4682054987
21
22.7096047147
31
0.0000000000
11
-9.4828233514
21
22.6934059952
31
0.0000000000
11
-9.5018878055
21
22.6784074478
31
0.0000000000
11
-9.5250134013
21
22.6649123051
31
0.0000000000
0
ENDSEC
0
SECTION
2
OBJECTS
0
DICTIONARY
5
43F
100
AcDbDictionary
3
ACAD_GROUP
350
440
3
ACAD_MLINESTYLE
350
441
0
DICTIONARY
5
440
102
{ACAD_REACTORS
330
43F
102
}
100
AcDbDictionary
0
DICTIONARY
5
441
102
{ACAD_REACTORS
330
43F
102
}
100
AcDbDictionary
3
STANDARD
350
442
0
MLINESTYLE
5
442
102
{ACAD_REACTORS
330
441
102
}
100
AcDbMlineStyle
2
STANDARD
70
0
3

62
256
51
90.0
52
90.0
71
2
49
0.5
62
256
6
BYLAYER
49
-0.5
62
256
6
BYLAYER
0
ENDSEC
0
EOF
